  0
SECTION
  2
HEADER
  9
$ACADVER
  1
AC1014
  9
$ACADMAINTVER
 70
     0
  9
$DWGCODEPAGE
  3
ANSI_932
  9
$INSBASE
 10
0.0
 20
0.0
 30
0.0
  9
$EXTMIN
 10
-766.98333
 20
-562.060785
 30
0.0
  9
$EXTMAX
 10
384.48333
 20
230.983655
 30
0.0
  9
$LIMMIN
 10
0.0
 20
0.0
  9
$LIMMAX
 10
0.0
 20
0.0
  9
$ORTHOMODE
 70
     0
  9
$REGENMODE
 70
     1
  9
$FILLMODE
 70
     1
  9
$QTEXTMODE
 70
     0
  9
$MIRRTEXT
 70
     1
  9
$DRAGMODE
 70
     2
  9
$LTSCALE
 40
4.0
  9
$OSMODE
 70
     0
  9
$ATTMODE
 70
     1
  9
$TEXTSIZE
 40
0.2
  9
$TRACEWID
 40
0.05
  9
$TEXTSTYLE
  7
STANDARD
  9
$CLAYER
  8
0
  9
$CELTYPE
  6
CONTINUOUS
  9
$CECOLOR
 62
   256
  9
$CELTSCALE
 40
1.0
  9
$DELOBJ
 70
     1
  9
$DISPSILH
 70
     0
  9
$DIMSCALE
 40
1.0
  9
$DIMASZ
 40
0.18
  9
$DIMEXO
 40
0.0625
  9
$DIMDLI
 40
0.38
  9
$DIMRND
 40
0.0
  9
$DIMDLE
 40
0.0
  9
$DIMEXE
 40
0.18
  9
$DIMTP
 40
0.0
  9
$DIMTM
 40
0.0
  9
$DIMTXT
 40
0.18
  9
$DIMCEN
 40
0.09
  9
$DIMTSZ
 40
0.0
  9
$DIMTOL
 70
     0
  9
$DIMLIM
 70
     0
  9
$DIMTIH
 70
     1
  9
$DIMTOH
 70
     1
  9
$DIMSE1
 70
     0
  9
$DIMSE2
 70
     0
  9
$DIMTAD
 70
     0
  9
$DIMZIN
 70
     0
  9
$DIMBLK
  1

  9
$DIMASO
 70
     1
  9
$DIMSHO
 70
     1
  9
$DIMPOST
  1

  9
$DIMAPOST
  1

  9
$DIMALT
 70
     0
  9
$DIMALTD
 70
     2
  9
$DIMALTF
 40
25.4
  9
$DIMLFAC
 40
1.0
  9
$DIMTOFL
 70
     0
  9
$DIMTVP
 40
0.0
  9
$DIMTIX
 70
     0
  9
$DIMSOXD
 70
     0
  9
$DIMSAH
 70
     0
  9
$DIMBLK1
  1

  9
$DIMBLK2
  1

  9
$DIMSTYLE
  2
STANDARD
  9
$DIMCLRD
 70
     0
  9
$DIMCLRE
 70
     0
  9
$DIMCLRT
 70
     0
  9
$DIMTFAC
 40
1.0
  9
$DIMGAP
 40
0.09
  9
$DIMJUST
 70
     0
  9
$DIMSD1
 70
     0
  9
$DIMSD2
 70
     0
  9
$DIMTOLJ
 70
     1
  9
$DIMTZIN
 70
     0
  9
$DIMALTZ
 70
     0
  9
$DIMALTTZ
 70
     0
  9
$DIMFIT
 70
     3
  9
$DIMUPT
 70
     0
  9
$DIMUNIT
 70
     2
  9
$DIMDEC
 70
     4
  9
$DIMTDEC
 70
     4
  9
$DIMALTU
 70
     2
  9
$DIMALTTD
 70
     2
  9
$DIMTXSTY
  7
STANDARD
  9
$DIMAUNIT
 70
     0
  9
$LUNITS
 70
     2
  9
$LUPREC
 70
     4
  9
$SKETCHINC
 40
0.1
  9
$FILLETRAD
 40
0.0
  9
$AUNITS
 70
     0
  9
$AUPREC
 70
     0
  9
$MENU
  1
acad
  9
$ELEVATION
 40
0.0
  9
$PELEVATION
 40
0.0
  9
$THICKNESS
 40
0.0
  9
$LIMCHECK
 70
     0
  9
$BLIPMODE
 70
     1
  9
$CHAMFERA
 40
0.0
  9
$CHAMFERB
 40
0.0
  9
$CHAMFERC
 40
0.0
  9
$CHAMFERD
 40
0.0
  9
$SKPOLY
 70
     0
  9
$TDCREATE
 40
2452073.861388889
  9
$TDUPDATE
 40
2452073.861388889
  9
$TDINDWG
 40
0.0000000000
  9
$TDUSRTIMER
 40
0.0000000000
  9
$USRTIMER
 70
     1
  9
$ANGBASE
 50
0.0
  9
$ANGDIR
 70
     0
  9
$PDMODE
 70
     0
  9
$PDSIZE
 40
0.0
  9
$PLINEWID
 40
0.0
  9
$COORDS
 70
     0
  9
$SPLFRAME
 70
     0
  9
$SPLINETYPE
 70
     6
  9
$SPLINESEGS
 70
     8
  9
$ATTDIA
 70
     0
  9
$ATTREQ
 70
     1
  9
$HANDLING
 70
     1
  9
$HANDSEED
  5
1F2
  9
$SURFTAB1
 70
     6
  9
$SURFTAB2
 70
     6
  9
$SURFTYPE
 70
     6
  9
$SURFU
 70
     6
  9
$SURFV
 70
     6
  9
$UCSNAME
  2

  9
$UCSORG
 10
0.0
 20
0.0
 30
0.0
  9
$UCSXDIR
 10
1.0
 20
0.0
 30
0.0
  9
$UCSYDIR
 10
0.0
 20
1.0
 30
0.0
  9
$PUCSNAME
  2

  9
$PUCSORG
 10
0.0
 20
0.0
 30
0.0
  9
$PUCSXDIR
 10
1.0
 20
0.0
 30
0.0
  9
$PUCSYDIR
 10
0.0
 20
1.0
 30
0.0
  9
$USERI1
 70
     0
  9
$USERI2
 70
     0
  9
$USERI3
 70
     0
  9
$USERI4
 70
     0
  9
$USERI5
 70
     0
  9
$USERR1
 40
0.0
  9
$USERR2
 40
0.0
  9
$USERR3
 40
0.0
  9
$USERR4
 40
0.0
  9
$USERR5
 40
0.0
  9
$WORLDVIEW
 70
     1
  9
$SHADEDGE
 70
     3
  9
$SHADEDIF
 70
    70
  9
$TILEMODE
 70
     1
  9
$MAXACTVP
 70
    16
  9
$PINSBASE
 10
0.0
 20
0.0
 30
0.0
  9
$PLIMCHECK
 70
     0
  9
$PEXTMIN
 10
1.000000E+20
 20
1.000000E+20
 30
1.000000E+20
  9
$PEXTMAX
 10
-1.000000E+20
 20
-1.000000E+20
 30
-1.000000E+20
  9
$PLIMMIN
 10
0.0
 20
0.0
  9
$PLIMMAX
 10
12.0
 20
9.0
  9
$UNITMODE
 70
     0
  9
$VISRETAIN
 70
     0
  9
$PLINEGEN
 70
     1
  9
$PSLTSCALE
 70
     0
  9
$TREEDEPTH
 70
  3020
  9
$PICKSTYLE
 70
     1
  9
$CMLSTYLE
  2
STANDARD
  9
$CMLJUST
 70
     0
  9
$CMLSCALE
 40
1.0
  9
$PROXYGRAPHICS
 70
     0
  9
$MEASUREMENT
 70
     0
  0
ENDSEC
  0
SECTION
  2
CLASSES
  0
CLASS
  1
LWPOLYLINE
  2
AcDbPolyline
  3
"AutoCAD"
 90
        0
280
     0
281
     1
  0
CLASS
  1
IMAGE
  2
AcDbRasterImage
  3
ISM
 90
      127
280
     0
281
     1
  0
CLASS
  1
OLE2FRAME
  2
AcDbOle2Frame
  3
""
 90
        0
280
     0
281
     1
  0
CLASS
  1
HATCH
  2
AcDbHatch
  3
"ACAD_SEDONA"
 90
        0
280
     0
281
     1
  0
CLASS
  1
DICTIONARYVAR
  2
AcDbDictionaryVar
  3
"AutoCAD"
 90
        0
280
     0
281
     0
  0
CLASS
  1
RASTERVARIABLES
  2
AcDbRasterVariables
  3
ISM
 90
        0
280
     0
281
     0
  0
CLASS
  1
IMAGEDEF
  2
AcDbRasterImageDef
  3
ISM
 90
        0
280
     0
281
     0
  0
CLASS
  1
IMAGEDEF_REACTOR
  2
AcDbRasterImageDefReactor
  3
ISM
 90
        1
280
     0
281
     0
  0
CLASS
  1
IDBUFFER
  2
AcDbIdBuffer
  3
"Acad"
 90
        0
280
     0
281
     0
  0
CLASS
  1
SPATIAL_FILTER
  2
AcDbSpatialFilter
  3
"Acad"
 90
        0
280
     0
281
     0
  0
CLASS
  1
XRECORD
  2
AcDbXrecord
  3
"<Built In>"
 90
        0
280
     0
281
     0
  0
CLASS
  1
SORTENTSTABLE
  2
AcDbSortentsTable
  3
"AutoCAD"
 90
        0
280
     0
281
     0
  0
CLASS
  1
LAYER_INDEX
  2
AcDbLayerIndex
  3
"Acad"
 90
        0
280
     0
281
     0
  0
CLASS
  1
SPATIAL_INDEX
  2
AcDbSpatialIndex
  3
"Acad"
 90
        0
280
     0
281
     0
  0
CLASS
  1
OBJECT_PTR
  2
CAseDLPNTableRecord
  3
"ASE-LPNTableRecord"
 90
        1
280
     0
281
     0
  0
ENDSEC
  0
SECTION
  2
TABLES
  0
TABLE
  2
VPORT
  5
7
100
AcDbSymbolTable
 70
     1
  0
VPORT
  5
15
100
AcDbSymbolTableRecord
100
AcDbViewportTableRecord
  2
*ACTIVE
 70
     0
 10
0.0
 20
0.0
 11
1.0
 21
1.0
 12
-191.25
 22
-165.538565
 13
0.0
 23
0.0
 14
1.0
 24
1.0
 15
0.0
 25
0.0
 16
0.0
 26
0.0
 36
1.0
 17
0.0
 27
0.0
 37
0.0
 40
793.04444
 41
0.688564
 42
50.0
 43
0.0
 44
0.0
 50
0.0
 51
0.0
 71
     0
 72
   100
 73
     1
 74
     1
 75
     0
 76
     0
 77
     0
 78
     0
  0
ENDTAB
  0
TABLE
  2
LTYPE
  5
4
100
AcDbSymbolTable
 70
    13
  0
LTYPE
  5
11
100
AcDbSymbolTableRecord
100
AcDbLinetypeTableRecord
  2
BYBLOCK
 70
     0
  3

 72
    65
 73
     0
 40
0.0
  0
LTYPE
  5
12
100
AcDbSymbolTableRecord
100
AcDbLinetypeTableRecord
  2
BYLAYER
 70
     0
  3

 72
    65
 73
     0
 40
0.0
  0
LTYPE
  5
13
100
AcDbSymbolTableRecord
100
AcDbLinetypeTableRecord
  2
CONTINUOUS
 70
     0
  3
Solid line
 72
    65
 73
     0
 40
0.0
  0
LTYPE
  5
27
100
AcDbSymbolTableRecord
100
AcDbLinetypeTableRecord
  2
VECTORWORKS_DASH_01
 70
     0
  3
(unavailable)
 72
    65
 73
     4
 40
0.666626
 49
0.416641
 74
     0
 49
-0.083328
 74
     0
 49
0.083328
 74
     0
 49
-0.083328
 74
     0
  0
LTYPE
  5
28
100
AcDbSymbolTableRecord
100
AcDbLinetypeTableRecord
  2
VECTORWORKS_DASH_02
 70
     0
  3
(unavailable)
 72
    65
 73
     6
 40
0.833282
 49
0.416641
 74
     0
 49
-0.083328
 74
     0
 49
0.083328
 74
     0
 49
-0.083328
 74
     0
 49
0.083328
 74
     0
 49
-0.083328
 74
     0
  0
LTYPE
  5
29
100
AcDbSymbolTableRecord
100
AcDbLinetypeTableRecord
  2
VECTORWORKS_DASH_03
 70
     0
  3
(unavailable)
 72
    65
 73
     2
 40
6.35
 49
5.291537
 74
     0
 49
-1.058463
 74
     0
  0
LTYPE
  5
2A
100
AcDbSymbolTableRecord
100
AcDbLinetypeTableRecord
  2
VECTORWORKS_DASH_04
 70
     0
  3
(unavailable)
 72
    65
 73
     2
 40
7.760767
 49
6.702692
 74
     0
 49
-1.058075
 74
     0
  0
LTYPE
  5
2B
100
AcDbSymbolTableRecord
100
AcDbLinetypeTableRecord
  2
VECTORWORKS_DASH_05
 70
     0
  3
(unavailable)
 72
    65
 73
     2
 40
1.058075
 49
0.352692
 74
     0
 49
-0.705383
 74
     0
  0
LTYPE
  5
2C
100
AcDbSymbolTableRecord
100
AcDbLinetypeTableRecord
  2
VECTORWORKS_DASH_06
 70
     0
  3
(unavailable)
 72
    65
 73
     4
 40
5.291537
 49
3.175
 74
     0
 49
-1.058075
 74
     0
 49
0.352692
 74
     0
 49
-0.705771
 74
     0
  0
LTYPE
  5
2D
100
AcDbSymbolTableRecord
100
AcDbLinetypeTableRecord
  2
VECTORWORKS_DASH_07
 70
     0
  3
(unavailable)
 72
    65
 73
     6
 40
9.525
 49
3.175
 74
     0
 49
-1.058075
 74
     0
 49
3.175
 74
     0
 49
-1.058463
 74
     0
 49
0.352692
 74
     0
 49
-0.705771
 74
     0
  0
LTYPE
  5
2E
100
AcDbSymbolTableRecord
100
AcDbLinetypeTableRecord
  2
VECTORWORKS_DASH_08
 70
     0
  3
(unavailable)
 72
    65
 73
     6
 40
6.35
 49
3.175
 74
     0
 49
-1.058075
 74
     0
 49
0.352692
 74
     0
 49
-0.705771
 74
     0
 49
0.352692
 74
     0
 49
-0.705771
 74
     0
  0
LTYPE
  5
2F
100
AcDbSymbolTableRecord
100
AcDbLinetypeTableRecord
  2
VECTORWORKS_DASH_09
 70
     0
  3
(unavailable)
 72
    65
 73
     4
 40
25.4
 49
19.05
 74
     0
 49
-1.411154
 74
     0
 49
3.527692
 74
     0
 49
-1.411154
 74
     0
  0
LTYPE
  5
30
100
AcDbSymbolTableRecord
100
AcDbLinetypeTableRecord
  2
VECTORWORKS_DASH_10
 70
     0
  3
(unavailable)
 72
    65
 73
     6
 40
30.1625
 49
19.05
 74
     0
 49
-1.411154
 74
     0
 49
3.527692
 74
     0
 49
-1.411154
 74
     0
 49
3.175
 74
     0
 49
-1.5875
 74
     0
  0
ENDTAB
  0
TABLE
  2
LAYER
  5
2
100
AcDbSymbolTable
 70
     2
  0
LAYER
  5
14
100
AcDbSymbolTableRecord
100
AcDbLayerTableRecord
  2
0
 70
     0
 62
     7
  6
CONTINUOUS
  0
LAYER
  5
31
100
AcDbSymbolTableRecord
100
AcDbLayerTableRecord
  2
IMPORTED
 70
    64
 62
     7
  6
CONTINUOUS
  0
ENDTAB
  0
TABLE
  2
STYLE
  5
3
100
AcDbSymbolTable
 70
     1
  0
STYLE
  5
17
100
AcDbSymbolTableRecord
100
AcDbTextStyleTableRecord
  2
STANDARD
 70
     0
 40
0.0
 41
1.0
 50
0.0
 71
     0
 42
0.0
  3
txt
  4
BIGFONT.SHX
  0
ENDTAB
  0
TABLE
  2
VIEW
  5
5
100
AcDbSymbolTable
 70
     0
  0
ENDTAB
  0
TABLE
  2
UCS
  5
6
100
AcDbSymbolTable
 70
     0
  0
ENDTAB
  0
TABLE
  2
APPID
  5
8
100
AcDbSymbolTable
 70
     1
  0
APPID
  5
16
100
AcDbSymbolTableRecord
100
AcDbRegAppTableRecord
  2
ACAD
 70
     0
  0
ENDTAB
  0
TABLE
  2
DIMSTYLE
  5
9
100
AcDbSymbolTable
 70
     1
  0
DIMSTYLE
105
18
100
AcDbSymbolTableRecord
100
AcDbDimStyleTableRecord
  2
STANDARD
 70
     0
  3

  4

  5

  6

  7

 40
1.0
 41
0.18
 42
0.0625
 43
0.38
 44
0.18
 45
0.0
 46
0.0
 47
0.0
 48
0.0
140
0.18
141
0.09
142
0.0
143
25.4
144
1.0
145
0.0
146
1.0
147
0.09
 71
     0
 72
     0
 73
     1
 74
     1
 75
     0
 76
     0
 77
     0
 78
     0
170
     0
171
     2
172
     0
173
     0
174
     0
175
     0
176
     0
177
     0
178
     0
270
     2
271
     4
272
     4
273
     2
274
     2
340
17
275
     0
280
     0
281
     0
282
     0
283
     1
284
     0
285
     0
286
     0
287
     0
288
     0
  0
ENDTAB
  0
TABLE
  2
BLOCK_RECORD
  5
1
100
AcDbSymbolTable
 70
    10
  0
BLOCK_RECORD
  5
A
100
AcDbSymbolTableRecord
100
AcDbBlockTableRecord
  2
*MODEL_SPACE
  0
BLOCK_RECORD
  5
B
100
AcDbSymbolTableRecord
100
AcDbBlockTableRecord
  2
*PAPER_SPACE
  0
BLOCK_RECORD
  5
1D
100
AcDbSymbolTableRecord
100
AcDbBlockTableRecord
  2
*G0
  0
BLOCK_RECORD
  5
1E
100
AcDbSymbolTableRecord
100
AcDbBlockTableRecord
  2
*G1
  0
BLOCK_RECORD
  5
1F
100
AcDbSymbolTableRecord
100
AcDbBlockTableRecord
  2
*G2
  0
BLOCK_RECORD
  5
20
100
AcDbSymbolTableRecord
100
AcDbBlockTableRecord
  2
*G3
  0
BLOCK_RECORD
  5
21
100
AcDbSymbolTableRecord
100
AcDbBlockTableRecord
  2
*G4
  0
BLOCK_RECORD
  5
22
100
AcDbSymbolTableRecord
100
AcDbBlockTableRecord
  2
*G5
  0
BLOCK_RECORD
  5
23
100
AcDbSymbolTableRecord
100
AcDbBlockTableRecord
  2
*G6
  0
BLOCK_RECORD
  5
24
100
AcDbSymbolTableRecord
100
AcDbBlockTableRecord
  2
*G7
  0
BLOCK_RECORD
  5
25
100
AcDbSymbolTableRecord
100
AcDbBlockTableRecord
  2
*G8
  0
BLOCK_RECORD
  5
26
100
AcDbSymbolTableRecord
100
AcDbBlockTableRecord
  2
*G9
  0
ENDTAB
  0
ENDSEC
  0
SECTION
  2
BLOCKS
  0
BLOCK
  5
D
100
AcDbEntity
  8
0
100
AcDbBlockBegin
  2
*MODEL_SPACE
 70
     0
 10
0.0
 20
0.0
 30
0.0
  3
*MODEL_SPACE
  1

  0
ENDBLK
  5
E
100
AcDbEntity
  8
0
100
AcDbBlockEnd
  0
BLOCK
  5
F
100
AcDbEntity
 67
     1
  8
0
100
AcDbBlockBegin
  2
*PAPER_SPACE
 70
     0
 10
0.0
 20
0.0
 30
0.0
  3
*PAPER_SPACE
  1

  0
ENDBLK
  5
10
100
AcDbEntity
 67
     1
  8
0
100
AcDbBlockEnd
  0
BLOCK
  5
32
100
AcDbEntity
  8
IMPORTED
100
AcDbBlockBegin
  2
*G0
 70
     1
 10
0.0
 20
0.0
 30
0.0
  3

  1

  0
TEXT
  5
33
100
AcDbEntity
  8
IMPORTED
 62
     7
100
AcDbText
 10
-261.775
 20
105.96082
 30
0.0
 40
9.45116
  1
483
 11
-261.775
 21
105.96082
 31
0.0
100
AcDbText
 73
     3
  0
ENDBLK
  5
34
100
AcDbEntity
  8
IMPORTED
100
AcDbBlockEnd
  0
BLOCK
  5
35
100
AcDbEntity
  8
IMPORTED
100
AcDbBlockBegin
  2
*G1
 70
     1
 10
0.0
 20
0.0
 30
0.0
  3

  1

  0
TEXT
  5
36
100
AcDbEntity
  8
IMPORTED
 62
     7
100
AcDbText
 10
-261.775
 20
85.96082
 30
0.0
 40
9.45116
  1
465
 11
-261.775
 21
85.96082
 31
0.0
100
AcDbText
 73
     3
  0
ENDBLK
  5
37
100
AcDbEntity
  8
IMPORTED
100
AcDbBlockEnd
  0
BLOCK
  5
38
100
AcDbEntity
  8
IMPORTED
100
AcDbBlockBegin
  2
*G2
 70
     1
 10
0.0
 20
0.0
 30
0.0
  3

  1

  0
TEXT
  5
39
100
AcDbEntity
  8
IMPORTED
 62
     7
100
AcDbText
 10
-261.775
 20
63.96082
 30
0.0
 40
9.45116
  1
435
 11
-261.775
 21
63.96082
 31
0.0
100
AcDbText
 73
     3
  0
ENDBLK
  5
3A
100
AcDbEntity
  8
IMPORTED
100
AcDbBlockEnd
  0
BLOCK
  5
3B
100
AcDbEntity
  8
IMPORTED
100
AcDbBlockBegin
  2
*G3
 70
     1
 10
0.0
 20
0.0
 30
0.0
  3

  1

  0
TEXT
  5
3C
100
AcDbEntity
  8
IMPORTED
 62
     7
100
AcDbText
 10
-0.45
 20
-60.16144
 30
0.0
 40
9.45116
  1
57.2
 50
90.0
 11
-0.45
 21
-60.16144
 31
0.0
100
AcDbText
 73
     3
  0
ENDBLK
  5
3D
100
AcDbEntity
  8
IMPORTED
100
AcDbBlockEnd
  0
BLOCK
  5
3E
100
AcDbEntity
  8
IMPORTED
100
AcDbBlockBegin
  2
*G4
 70
     1
 10
0.0
 20
0.0
 30
0.0
  3

  1

  0
TEXT
  5
3F
100
AcDbEntity
  8
IMPORTED
 62
     7
100
AcDbText
 10
18.05
 20
-136.98644
 30
0.0
 40
9.45116
  1
6
 50
90.0
 11
18.05
 21
-136.98644
 31
0.0
100
AcDbText
 73
     3
  0
ENDBLK
  5
40
100
AcDbEntity
  8
IMPORTED
100
AcDbBlockEnd
  0
BLOCK
  5
41
100
AcDbEntity
  8
IMPORTED
100
AcDbBlockBegin
  2
*G5
 70
     1
 10
0.0
 20
0.0
 30
0.0
  3

  1

  0
TEXT
  5
42
100
AcDbEntity
  8
IMPORTED
 62
     7
100
AcDbText
 10
131.35001
 20
78.23856
 30
0.0
 40
9.45116
  1
19.5
 11
131.35001
 21
78.23856
 31
0.0
100
AcDbText
 73
     3
  0
ENDBLK
  5
43
100
AcDbEntity
  8
IMPORTED
100
AcDbBlockEnd
  0
BLOCK
  5
44
100
AcDbEntity
  8
IMPORTED
100
AcDbBlockBegin
  2
*G6
 70
     1
 10
0.0
 20
0.0
 30
0.0
  3

  1

  0
TEXT
  5
45
100
AcDbEntity
  8
IMPORTED
 62
     7
100
AcDbText
 10
297.725
 20
78.23856
 30
0.0
 40
9.45116
  1
262
 11
297.725
 21
78.23856
 31
0.0
100
AcDbText
 73
     3
  0
ENDBLK
  5
46
100
AcDbEntity
  8
IMPORTED
100
AcDbBlockEnd
  0
BLOCK
  5
47
100
AcDbEntity
  8
IMPORTED
100
AcDbBlockBegin
  2
*G7
 70
     1
 10
0.0
 20
0.0
 30
0.0
  3

  1

  0
TEXT
  5
48
100
AcDbEntity
  8
IMPORTED
 62
     7
100
AcDbText
 10
459.25
 20
78.23856
 30
0.0
 40
9.45116
  1
5.5
 11
459.25
 21
78.23856
 31
0.0
100
AcDbText
 73
     3
  0
ENDBLK
  5
49
100
AcDbEntity
  8
IMPORTED
100
AcDbBlockEnd
  0
BLOCK
  5
4A
100
AcDbEntity
  8
IMPORTED
100
AcDbBlockBegin
  2
*G8
 70
     1
 10
0.0
 20
0.0
 30
0.0
  3

  1

  0
TEXT
  5
4B
100
AcDbEntity
  8
IMPORTED
 62
     7
100
AcDbText
 10
18.05
 20
-56.98594
 30
0.0
 40
9.45116
  1
132
 50
90.0
 11
18.05
 21
-56.98594
 31
0.0
100
AcDbText
 73
     3
  0
ENDBLK
  5
4C
100
AcDbEntity
  8
IMPORTED
100
AcDbBlockEnd
  0
BLOCK
  5
4D
100
AcDbEntity
  8
IMPORTED
100
AcDbBlockBegin
  2
*G9
 70
     1
 10
0.0
 20
0.0
 30
0.0
  3

  1

  0
TEXT
  5
4E
100
AcDbEntity
  8
IMPORTED
 62
     7
100
AcDbText
 10
112.05
 20
-62.33644
 30
0.0
 40
9.45116
  1
132.7
 50
90.0
 11
112.05
 21
-62.33644
 31
0.0
100
AcDbText
 73
     3
  0
ENDBLK
  5
4F
100
AcDbEntity
  8
IMPORTED
100
AcDbBlockEnd
  0
ENDSEC
  0
SECTION
  2
ENTITIES
  0
LINE
  5
50
100
AcDbEntity
  8
IMPORTED
  6
CONTINUOUS
 62
     7
100
AcDbLine
 10
-320.75
 20
-212.500005
 30
0.0
 11
-311.25
 21
-212.500005
 31
0.0
  0
LINE
  5
51
100
AcDbEntity
  8
IMPORTED
  6
CONTINUOUS
 62
     7
100
AcDbLine
 10
-320.75
 20
-216.500005
 30
0.0
 11
-311.25
 21
-216.500005
 31
0.0
  0
LINE
  5
52
100
AcDbEntity
  8
IMPORTED
  6
CONTINUOUS
 62
     7
100
AcDbLine
 10
-226.0
 20
-270.999005
 30
0.0
 11
-661.0
 21
-270.999005
 31
0.0
  0
LINE
  5
53
100
AcDbEntity
  8
IMPORTED
  6
CONTINUOUS
 62
     7
100
AcDbLine
 10
-558.25
 20
-170.000005
 30
0.0
 11
-634.25
 21
-170.000005
 31
0.0
  0
LINE
  5
54
100
AcDbEntity
  8
IMPORTED
  6
CONTINUOUS
 62
     7
100
AcDbLine
 10
-634.25
 20
-170.000005
 30
0.0
 11
-634.25
 21
-195.000005
 31
0.0
  0
LINE
  5
55
100
AcDbEntity
  8
IMPORTED
  6
CONTINUOUS
 62
     7
100
AcDbLine
 10
-558.25
 20
-195.000005
 30
0.0
 11
-558.25
 21
-170.000005
 31
0.0
  0
LINE
  5
56
100
AcDbEntity
  8
IMPORTED
  6
CONTINUOUS
 62
     7
100
AcDbLine
 10
-634.25
 20
-195.000005
 30
0.0
 11
-558.25
 21
-195.000005
 31
0.0
  0
LINE
  5
57
100
AcDbEntity
  8
IMPORTED
  6
CONTINUOUS
 62
     7
100
AcDbLine
 10
-267.75
 20
-227.000005
 30
0.0
 11
-268.25
 21
-227.000005
 31
0.0
  0
LINE
  5
58
100
AcDbEntity
  8
IMPORTED
  6
CONTINUOUS
 62
     7
100
AcDbLine
 10
-267.75
 20
-227.000005
 30
0.0
 11
-267.75
 21
-224.504005
 31
0.0
  0
LINE
  5
59
100
AcDbEntity
  8
IMPORTED
  6
CONTINUOUS
 62
     7
100
AcDbLine
 10
-268.25
 20
-227.000005
 30
0.0
 11
-268.25
 21
-224.504005
 31
0.0
  0
LINE
  5
5A
100
AcDbEntity
  8
IMPORTED
  6
CONTINUOUS
 62
     7
100
AcDbLine
 10
-270.0
 20
-237.184005
 30
0.0
 11
-270.0
 21
-224.814005
 31
0.0
  0
LINE
  5
5B
100
AcDbEntity
  8
IMPORTED
  6
CONTINUOUS
 62
     7
100
AcDbLine
 10
-266.0
 20
-237.184005
 30
0.0
 11
-266.0
 21
-224.814005
 31
0.0
  0
LINE
  5
5C
100
AcDbEntity
  8
IMPORTED
  6
CONTINUOUS
 62
     7
100
AcDbLine
 10
-661.0
 20
-278.999005
 30
0.0
 11
-226.0
 21
-278.999005
 31
0.0
  0
LINE
  5
5D
100
AcDbEntity
  8
IMPORTED
  6
CONTINUOUS
 62
     7
100
AcDbLine
 10
-226.0
 20
-147.000005
 30
0.0
 11
-661.0
 21
-147.000005
 31
0.0
  0
LINE
  5
5E
100
AcDbEntity
  8
IMPORTED
  6
CONTINUOUS
 62
     7
100
AcDbLine
 10
-661.0
 20
-271.999005
 30
0.0
 11
-226.0
 21
-271.999005
 31
0.0
  0
ARC
  5
5F
100
AcDbEntity
  8
IMPORTED
  6
CONTINUOUS
 62
     7
100
AcDbCircle
 10
-507.5
 20
-260.999005
 30
0.0
 40
3.0
100
AcDbArc
 50
180.0
 51
270.0
  0
LINE
  5
60
100
AcDbEntity
  8
IMPORTED
  6
CONTINUOUS
 62
     7
100
AcDbLine
 10
-507.5
 20
-263.999005
 30
0.0
 11
-379.5
 21
-263.999005
 31
0.0
  0
ARC
  5
61
100
AcDbEntity
  8
IMPORTED
  6
CONTINUOUS
 62
     7
100
AcDbCircle
 10
-379.5
 20
-260.999005
 30
0.0
 40
3.0
100
AcDbArc
 50
270.0
 51
0.0
  0
LINE
  5
62
100
AcDbEntity
  8
IMPORTED
  6
CONTINUOUS
 62
     7
100
AcDbLine
 10
-376.5
 20
-260.999005
 30
0.0
 11
-376.5
 21
-250.299005
 31
0.0
  0
ARC
  5
63
100
AcDbEntity
  8
IMPORTED
  6
CONTINUOUS
 62
     7
100
AcDbCircle
 10
-379.5
 20
-162.000005
 30
0.0
 40
3.0
100
AcDbArc
 50
0.0
 51
90.0
  0
LINE
  5
64
100
AcDbEntity
  8
IMPORTED
  6
CONTINUOUS
 62
     7
100
AcDbLine
 10
-379.5
 20
-159.000005
 30
0.0
 11
-507.5
 21
-159.000005
 31
0.0
  0
ARC
  5
65
100
AcDbEntity
  8
IMPORTED
  6
CONTINUOUS
 62
     7
100
AcDbCircle
 10
-507.5
 20
-162.000005
 30
0.0
 40
3.0
100
AcDbArc
 50
90.0
 51
180.0
  0
LINE
  5
66
100
AcDbEntity
  8
IMPORTED
  6
CONTINUOUS
 62
     7
100
AcDbLine
 10
-510.5
 20
-162.001005
 30
0.0
 11
-510.5
 21
-245.701005
 31
0.0
  0
LINE
  5
67
100
AcDbEntity
  8
IMPORTED
  6
CONTINUOUS
 62
     7
100
AcDbLine
 10
-506.0
 20
-260.499005
 30
0.0
 11
-381.0
 21
-260.499005
 31
0.0
  0
LINE
  5
68
100
AcDbEntity
  8
IMPORTED
  6
CONTINUOUS
 62
     7
100
AcDbLine
 10
-380.0
 20
-259.500005
 30
0.0
 11
-380.0
 21
-163.500005
 31
0.0
  0
LINE
  5
69
100
AcDbEntity
  8
IMPORTED
  6
CONTINUOUS
 62
     7
100
AcDbLine
 10
-381.0
 20
-162.500005
 30
0.0
 11
-506.0
 21
-162.500005
 31
0.0
  0
LINE
  5
6A
100
AcDbEntity
  8
IMPORTED
  6
CONTINUOUS
 62
     7
100
AcDbLine
 10
-507.0
 20
-163.500005
 30
0.0
 11
-507.0
 21
-259.500005
 31
0.0
  0
CIRCLE
  5
6B
100
AcDbEntity
  8
IMPORTED
  6
CONTINUOUS
 62
     7
100
AcDbCircle
 10
-268.0
 20
-171.000005
 30
0.0
 40
0.75
  0
LINE
  5
6C
100
AcDbEntity
  8
IMPORTED
  6
CONTINUOUS
 62
     7
100
AcDbLine
 10
-646.0
 20
-218.501005
 30
0.0
 11
-623.0
 21
-218.501005
 31
0.0
  0
LINE
  5
6D
100
AcDbEntity
  8
IMPORTED
  6
CONTINUOUS
 62
     7
100
AcDbLine
 10
-623.0
 20
-218.501005
 30
0.0
 11
-623.0
 21
-206.501005
 31
0.0
  0
LINE
  5
6E
100
AcDbEntity
  8
IMPORTED
  6
CONTINUOUS
 62
     7
100
AcDbLine
 10
-623.0
 20
-206.501005
 30
0.0
 11
-646.0
 21
-206.501005
 31
0.0
  0
LINE
  5
6F
100
AcDbEntity
  8
IMPORTED
  6
CONTINUOUS
 62
     7
100
AcDbLine
 10
-646.0
 20
-206.501005
 30
0.0
 11
-646.0
 21
-218.501005
 31
0.0
  0
LINE
  5
70
100
AcDbEntity
  8
IMPORTED
  6
CONTINUOUS
 62
     7
100
AcDbLine
 10
-622.5
 20
-218.501005
 30
0.0
 11
-576.0
 21
-218.501005
 31
0.0
  0
LINE
  5
71
100
AcDbEntity
  8
IMPORTED
  6
CONTINUOUS
 62
     7
100
AcDbLine
 10
-576.0
 20
-206.501005
 30
0.0
 11
-622.5
 21
-206.501005
 31
0.0
  0
LINE
  5
72
100
AcDbEntity
  8
IMPORTED
  6
CONTINUOUS
 62
     7
100
AcDbLine
 10
-622.5
 20
-206.501005
 30
0.0
 11
-622.5
 21
-218.501005
 31
0.0
  0
LINE
  5
73
100
AcDbEntity
  8
IMPORTED
  6
CONTINUOUS
 62
     7
100
AcDbLine
 10
-576.0
 20
-218.501005
 30
0.0
 11
-576.0
 21
-206.501005
 31
0.0
  0
LINE
  5
74
100
AcDbEntity
  8
IMPORTED
  6
CONTINUOUS
 62
     7
100
AcDbLine
 10
-660.999
 20
-250.299005
 30
0.0
 11
-510.5
 21
-250.299005
 31
0.0
  0
LINE
  5
75
100
AcDbEntity
  8
IMPORTED
  6
CONTINUOUS
 62
     7
100
AcDbLine
 10
-660.999
 20
-245.700005
 30
0.0
 11
-510.5
 21
-245.701005
 31
0.0
  0
LINE
  5
76
100
AcDbEntity
  8
IMPORTED
  6
CONTINUOUS
 62
     7
100
AcDbLine
 10
-544.5
 20
-246.500005
 30
0.0
 11
-521.5
 21
-246.500005
 31
0.0
  0
LINE
  5
77
100
AcDbEntity
  8
IMPORTED
  6
CONTINUOUS
 62
     7
100
AcDbLine
 10
-544.5
 20
-249.499005
 30
0.0
 11
-521.5
 21
-249.499005
 31
0.0
  0
LINE
  5
78
100
AcDbEntity
  8
IMPORTED
  6
CONTINUOUS
 62
     7
100
AcDbLine
 10
-521.5
 20
-246.500005
 30
0.0
 11
-521.5
 21
-249.500005
 31
0.0
  0
LINE
  5
79
100
AcDbEntity
  8
IMPORTED
  6
CONTINUOUS
 62
     7
100
AcDbLine
 10
-544.5
 20
-246.500005
 30
0.0
 11
-544.5
 21
-249.500005
 31
0.0
  0
LINE
  5
7A
100
AcDbEntity
  8
IMPORTED
  6
CONTINUOUS
 62
     7
100
AcDbLine
 10
-376.5
 20
-245.701005
 30
0.0
 11
-226.001
 21
-245.700005
 31
0.0
  0
LINE
  5
7B
100
AcDbEntity
  8
IMPORTED
  6
CONTINUOUS
 62
     7
100
AcDbLine
 10
-376.5
 20
-250.299005
 30
0.0
 11
-226.001
 21
-250.299005
 31
0.0
  0
ARC
  5
7C
100
AcDbEntity
  8
IMPORTED
  6
CONTINUOUS
 62
     7
100
AcDbCircle
 10
-646.0
 20
-220.000005
 30
0.0
 40
2.0
100
AcDbArc
 50
180.0
 51
270.0
  0
ARC
  5
7D
100
AcDbEntity
  8
IMPORTED
  6
CONTINUOUS
 62
     7
100
AcDbCircle
 10
-646.0
 20
-205.500005
 30
0.0
 40
2.0
100
AcDbArc
 50
90.0
 51
180.0
  0
LINE
  5
7E
100
AcDbEntity
  8
IMPORTED
  6
CONTINUOUS
 62
     7
100
AcDbLine
 10
-648.0
 20
-205.500005
 30
0.0
 11
-648.0
 21
-220.000005
 31
0.0
  0
ARC
  5
7F
100
AcDbEntity
  8
IMPORTED
  6
CONTINUOUS
 62
     7
100
AcDbCircle
 10
-576.0
 20
-205.500005
 30
0.0
 40
2.0
100
AcDbArc
 50
0.0
 51
90.0
  0
ARC
  5
80
100
AcDbEntity
  8
IMPORTED
  6
CONTINUOUS
 62
     7
100
AcDbCircle
 10
-576.0
 20
-220.000005
 30
0.0
 40
2.0
100
AcDbArc
 50
270.0
 51
0.0
  0
LINE
  5
81
100
AcDbEntity
  8
IMPORTED
  6
CONTINUOUS
 62
     7
100
AcDbLine
 10
-574.0
 20
-220.000005
 30
0.0
 11
-574.0
 21
-205.500005
 31
0.0
  0
LINE
  5
82
100
AcDbEntity
  8
IMPORTED
  6
CONTINUOUS
 62
     7
100
AcDbLine
 10
-568.0
 20
-218.501005
 30
0.0
 11
-545.0
 21
-218.501005
 31
0.0
  0
LINE
  5
83
100
AcDbEntity
  8
IMPORTED
  6
CONTINUOUS
 62
     7
100
AcDbLine
 10
-568.0
 20
-206.501005
 30
0.0
 11
-568.0
 21
-218.501005
 31
0.0
  0
LINE
  5
84
100
AcDbEntity
  8
IMPORTED
  6
CONTINUOUS
 62
     7
100
AcDbLine
 10
-521.5
 20
-218.501005
 30
0.0
 11
-521.5
 21
-206.501005
 31
0.0
  0
LINE
  5
85
100
AcDbEntity
  8
IMPORTED
  6
CONTINUOUS
 62
     7
100
AcDbLine
 10
-545.0
 20
-206.501005
 30
0.0
 11
-545.0
 21
-218.501005
 31
0.0
  0
LINE
  5
86
100
AcDbEntity
  8
IMPORTED
  6
CONTINUOUS
 62
     7
100
AcDbLine
 10
-544.5
 20
-218.501005
 30
0.0
 11
-544.5
 21
-206.501005
 31
0.0
  0
ARC
  5
87
100
AcDbEntity
  8
IMPORTED
  6
CONTINUOUS
 62
     7
100
AcDbCircle
 10
-521.5
 20
-205.500005
 30
0.0
 40
2.0
100
AcDbArc
 50
0.0
 51
90.0
  0
LINE
  5
88
100
AcDbEntity
  8
IMPORTED
  6
CONTINUOUS
 62
     7
100
AcDbLine
 10
-521.5
 20
-203.500005
 30
0.0
 11
-568.0
 21
-203.500005
 31
0.0
  0
ARC
  5
89
100
AcDbEntity
  8
IMPORTED
  6
CONTINUOUS
 62
     7
100
AcDbCircle
 10
-568.0
 20
-205.500005
 30
0.0
 40
2.0
100
AcDbArc
 50
90.0
 51
180.0
  0
LINE
  5
8A
100
AcDbEntity
  8
IMPORTED
  6
CONTINUOUS
 62
     7
100
AcDbLine
 10
-570.0
 20
-205.500005
 30
0.0
 11
-570.0
 21
-220.000005
 31
0.0
  0
ARC
  5
8B
100
AcDbEntity
  8
IMPORTED
  6
CONTINUOUS
 62
     7
100
AcDbCircle
 10
-568.0
 20
-220.000005
 30
0.0
 40
2.0
100
AcDbArc
 50
180.0
 51
270.0
  0
LINE
  5
8C
100
AcDbEntity
  8
IMPORTED
  6
CONTINUOUS
 62
     7
100
AcDbLine
 10
-568.0
 20
-222.000005
 30
0.0
 11
-521.5
 21
-222.000005
 31
0.0
  0
ARC
  5
8D
100
AcDbEntity
  8
IMPORTED
  6
CONTINUOUS
 62
     7
100
AcDbCircle
 10
-521.5
 20
-220.000005
 30
0.0
 40
2.0
100
AcDbArc
 50
270.0
 51
0.0
  0
LINE
  5
8E
100
AcDbEntity
  8
IMPORTED
  6
CONTINUOUS
 62
     7
100
AcDbLine
 10
-519.5
 20
-220.000005
 30
0.0
 11
-519.5
 21
-205.500005
 31
0.0
  0
LINE
  5
8F
100
AcDbEntity
  8
IMPORTED
  6
CONTINUOUS
 62
     7
100
AcDbLine
 10
-646.0
 20
-203.500005
 30
0.0
 11
-576.0
 21
-203.500005
 31
0.0
  0
LINE
  5
90
100
AcDbEntity
  8
IMPORTED
  6
CONTINUOUS
 62
     7
100
AcDbLine
 10
-646.0
 20
-222.000005
 30
0.0
 11
-576.0
 21
-222.000005
 31
0.0
  0
LINE
  5
91
100
AcDbEntity
  8
IMPORTED
  6
CONTINUOUS
 62
     7
100
AcDbLine
 10
-365.5
 20
-218.501005
 30
0.0
 11
-342.5
 21
-218.501005
 31
0.0
  0
LINE
  5
92
100
AcDbEntity
  8
IMPORTED
  6
CONTINUOUS
 62
     7
100
AcDbLine
 10
-342.5
 20
-206.501005
 30
0.0
 11
-365.5
 21
-206.501005
 31
0.0
  0
LINE
  5
93
100
AcDbEntity
  8
IMPORTED
  6
CONTINUOUS
 62
     7
100
AcDbLine
 10
-365.5
 20
-206.501005
 30
0.0
 11
-365.5
 21
-218.501005
 31
0.0
  0
LINE
  5
94
100
AcDbEntity
  8
IMPORTED
  6
CONTINUOUS
 62
     7
100
AcDbLine
 10
-342.5
 20
-203.500005
 30
0.0
 11
-365.5
 21
-203.500005
 31
0.0
  0
ARC
  5
95
100
AcDbEntity
  8
IMPORTED
  6
CONTINUOUS
 62
     7
100
AcDbCircle
 10
-365.5
 20
-205.500005
 30
0.0
 40
2.0
100
AcDbArc
 50
90.0
 51
180.0
  0
LINE
  5
96
100
AcDbEntity
  8
IMPORTED
  6
CONTINUOUS
 62
     7
100
AcDbLine
 10
-367.5
 20
-205.500005
 30
0.0
 11
-367.5
 21
-220.000005
 31
0.0
  0
ARC
  5
97
100
AcDbEntity
  8
IMPORTED
  6
CONTINUOUS
 62
     7
100
AcDbCircle
 10
-365.5
 20
-220.000005
 30
0.0
 40
2.0
100
AcDbArc
 50
180.0
 51
270.0
  0
LINE
  5
98
100
AcDbEntity
  8
IMPORTED
  6
CONTINUOUS
 62
     7
100
AcDbLine
 10
-365.5
 20
-222.000005
 30
0.0
 11
-342.5
 21
-222.000005
 31
0.0
  0
LINE
  5
99
100
AcDbEntity
  8
IMPORTED
  6
CONTINUOUS
 62
     7
100
AcDbLine
 10
-342.5
 20
-206.501005
 30
0.0
 11
-342.5
 21
-218.501005
 31
0.0
  0
ARC
  5
9A
100
AcDbEntity
  8
IMPORTED
  6
CONTINUOUS
 62
     7
100
AcDbCircle
 10
-342.5
 20
-205.500005
 30
0.0
 40
2.0
100
AcDbArc
 50
0.0
 51
90.0
  0
ARC
  5
9B
100
AcDbEntity
  8
IMPORTED
  6
CONTINUOUS
 62
     7
100
AcDbCircle
 10
-342.5
 20
-220.000005
 30
0.0
 40
2.0
100
AcDbArc
 50
270.0
 51
0.0
  0
LINE
  5
9C
100
AcDbEntity
  8
IMPORTED
  6
CONTINUOUS
 62
     7
100
AcDbLine
 10
-340.5
 20
-220.000005
 30
0.0
 11
-340.5
 21
-205.500005
 31
0.0
  0
LINE
  5
9D
100
AcDbEntity
  8
IMPORTED
  6
CONTINUOUS
 62
     7
100
AcDbLine
 10
-626.0
 20
-231.999005
 30
0.0
 11
-626.0
 21
-226.999005
 31
0.0
  0
LINE
  5
9E
100
AcDbEntity
  8
IMPORTED
  6
CONTINUOUS
 62
     7
100
AcDbLine
 10
-623.0
 20
-231.199005
 30
0.0
 11
-623.0
 21
-227.799005
 31
0.0
  0
LINE
  5
9F
100
AcDbEntity
  8
IMPORTED
  6
CONTINUOUS
 62
     7
100
AcDbLine
 10
-623.8
 20
-226.999005
 30
0.0
 11
-645.2
 21
-226.999005
 31
0.0
  0
LINE
  5
A0
100
AcDbEntity
  8
IMPORTED
  6
CONTINUOUS
 62
     7
100
AcDbLine
 10
-645.2
 20
-231.999005
 30
0.0
 11
-623.8
 21
-231.999005
 31
0.0
  0
ARC
  5
A1
100
AcDbEntity
  8
IMPORTED
  6
CONTINUOUS
 62
     7
100
AcDbCircle
 10
-623.79899
 20
-227.799005
 30
0.0
 40
0.799
100
AcDbArc
 50
0.0
 51
90.0
  0
ARC
  5
A2
100
AcDbEntity
  8
IMPORTED
  6
CONTINUOUS
 62
     7
100
AcDbCircle
 10
-623.79899
 20
-231.199005
 30
0.0
 40
0.799
100
AcDbArc
 50
270.0
 51
0.0
  0
LINE
  5
A3
100
AcDbEntity
  8
IMPORTED
  6
CONTINUOUS
 62
     7
100
AcDbLine
 10
-643.0
 20
-226.999005
 30
0.0
 11
-643.0
 21
-231.999005
 31
0.0
  0
LINE
  5
A4
100
AcDbEntity
  8
IMPORTED
  6
CONTINUOUS
 62
     7
100
AcDbLine
 10
-646.0
 20
-227.799005
 30
0.0
 11
-646.0
 21
-231.199005
 31
0.0
  0
ARC
  5
A5
100
AcDbEntity
  8
IMPORTED
  6
CONTINUOUS
 62
     7
100
AcDbCircle
 10
-645.2
 20
-231.199005
 30
0.0
 40
0.799
100
AcDbArc
 50
180.0
 51
270.0
  0
ARC
  5
A6
100
AcDbEntity
  8
IMPORTED
  6
CONTINUOUS
 62
     7
100
AcDbCircle
 10
-645.2
 20
-227.799005
 30
0.0
 40
0.799
100
AcDbArc
 50
90.0
 51
180.0
  0
LINE
  5
A7
100
AcDbEntity
  8
IMPORTED
  6
CONTINUOUS
 62
     7
100
AcDbLine
 10
-580.0
 20
-231.199005
 30
0.0
 11
-580.0
 21
-227.799005
 31
0.0
  0
LINE
  5
A8
100
AcDbEntity
  8
IMPORTED
  6
CONTINUOUS
 62
     7
100
AcDbLine
 10
-580.8
 20
-227.000005
 30
0.0
 11
-617.7
 21
-227.000005
 31
0.0
  0
LINE
  5
A9
100
AcDbEntity
  8
IMPORTED
  6
CONTINUOUS
 62
     7
100
AcDbLine
 10
-617.7
 20
-232.000005
 30
0.0
 11
-580.8
 21
-232.000005
 31
0.0
  0
ARC
  5
AA
100
AcDbEntity
  8
IMPORTED
  6
CONTINUOUS
 62
     7
100
AcDbCircle
 10
-580.79899
 20
-227.799005
 30
0.0
 40
0.799
100
AcDbArc
 50
0.0
 51
90.0
  0
ARC
  5
AB
100
AcDbEntity
  8
IMPORTED
  6
CONTINUOUS
 62
     7
100
AcDbCircle
 10
-580.79899
 20
-231.199005
 30
0.0
 40
0.8
100
AcDbArc
 50
270.0
 51
0.0
  0
LINE
  5
AC
100
AcDbEntity
  8
IMPORTED
  6
CONTINUOUS
 62
     7
100
AcDbLine
 10
-618.5
 20
-227.799005
 30
0.0
 11
-618.5
 21
-231.199005
 31
0.0
  0
ARC
  5
AD
100
AcDbEntity
  8
IMPORTED
  6
CONTINUOUS
 62
     7
100
AcDbCircle
 10
-617.7
 20
-231.199005
 30
0.0
 40
0.799
100
AcDbArc
 50
180.0
 51
270.0
  0
ARC
  5
AE
100
AcDbEntity
  8
IMPORTED
  6
CONTINUOUS
 62
     7
100
AcDbCircle
 10
-617.7
 20
-227.799005
 30
0.0
 40
0.799
100
AcDbArc
 50
90.0
 51
180.0
  0
LINE
  5
AF
100
AcDbEntity
  8
IMPORTED
  6
CONTINUOUS
 62
     7
100
AcDbLine
 10
-617.5
 20
-231.000005
 30
0.0
 11
-617.5
 21
-228.000005
 31
0.0
  0
LINE
  5
B0
100
AcDbEntity
  8
IMPORTED
  6
CONTINUOUS
 62
     7
100
AcDbLine
 10
-617.5
 20
-228.000005
 30
0.0
 11
-599.5
 21
-228.000005
 31
0.0
  0
LINE
  5
B1
100
AcDbEntity
  8
IMPORTED
  6
CONTINUOUS
 62
     7
100
AcDbLine
 10
-581.0
 20
-228.000005
 30
0.0
 11
-581.0
 21
-231.000005
 31
0.0
  0
LINE
  5
B2
100
AcDbEntity
  8
IMPORTED
  6
CONTINUOUS
 62
     7
100
AcDbLine
 10
-581.0
 20
-231.000005
 30
0.0
 11
-599.0
 21
-231.000005
 31
0.0
  0
LINE
  5
B3
100
AcDbEntity
  8
IMPORTED
  6
CONTINUOUS
 62
     7
100
AcDbLine
 10
-599.5
 20
-231.000005
 30
0.0
 11
-599.5
 21
-228.000005
 31
0.0
  0
LINE
  5
B4
100
AcDbEntity
  8
IMPORTED
  6
CONTINUOUS
 62
     7
100
AcDbLine
 10
-599.0
 20
-228.000005
 30
0.0
 11
-599.0
 21
-231.000005
 31
0.0
  0
LINE
  5
B5
100
AcDbEntity
  8
IMPORTED
  6
CONTINUOUS
 62
     7
100
AcDbLine
 10
-599.0
 20
-228.000005
 30
0.0
 11
-581.0
 21
-228.000005
 31
0.0
  0
LINE
  5
B6
100
AcDbEntity
  8
IMPORTED
  6
CONTINUOUS
 62
     7
100
AcDbLine
 10
-599.5
 20
-231.000005
 30
0.0
 11
-617.5
 21
-231.000005
 31
0.0
  0
LINE
  5
B7
100
AcDbEntity
  8
IMPORTED
  6
CONTINUOUS
 62
     7
100
AcDbLine
 10
-520.5
 20
-231.199005
 30
0.0
 11
-520.5
 21
-227.799005
 31
0.0
  0
LINE
  5
B8
100
AcDbEntity
  8
IMPORTED
  6
CONTINUOUS
 62
     7
100
AcDbLine
 10
-521.3
 20
-227.000005
 30
0.0
 11
-544.7
 21
-227.000005
 31
0.0
  0
LINE
  5
B9
100
AcDbEntity
  8
IMPORTED
  6
CONTINUOUS
 62
     7
100
AcDbLine
 10
-544.7
 20
-232.000005
 30
0.0
 11
-521.3
 21
-232.000005
 31
0.0
  0
ARC
  5
BA
100
AcDbEntity
  8
IMPORTED
  6
CONTINUOUS
 62
     7
100
AcDbCircle
 10
-521.29899
 20
-227.799005
 30
0.0
 40
0.799
100
AcDbArc
 50
0.0
 51
90.0
  0
ARC
  5
BB
100
AcDbEntity
  8
IMPORTED
  6
CONTINUOUS
 62
     7
100
AcDbCircle
 10
-521.29899
 20
-231.199005
 30
0.0
 40
0.8
100
AcDbArc
 50
270.0
 51
0.0
  0
LINE
  5
BC
100
AcDbEntity
  8
IMPORTED
  6
CONTINUOUS
 62
     7
100
AcDbLine
 10
-545.5
 20
-227.799005
 30
0.0
 11
-545.5
 21
-231.199005
 31
0.0
  0
ARC
  5
BD
100
AcDbEntity
  8
IMPORTED
  6
CONTINUOUS
 62
     7
100
AcDbCircle
 10
-544.69999
 20
-231.199005
 30
0.0
 40
0.799
100
AcDbArc
 50
180.0
 51
270.0
  0
ARC
  5
BE
100
AcDbEntity
  8
IMPORTED
  6
CONTINUOUS
 62
     7
100
AcDbCircle
 10
-544.69999
 20
-227.799005
 30
0.0
 40
0.799
100
AcDbArc
 50
90.0
 51
180.0
  0
LINE
  5
BF
100
AcDbEntity
  8
IMPORTED
  6
CONTINUOUS
 62
     7
100
AcDbLine
 10
-521.5
 20
-228.000005
 30
0.0
 11
-521.5
 21
-231.000005
 31
0.0
  0
LINE
  5
C0
100
AcDbEntity
  8
IMPORTED
  6
CONTINUOUS
 62
     7
100
AcDbLine
 10
-521.5
 20
-231.000005
 30
0.0
 11
-544.5
 21
-231.000005
 31
0.0
  0
LINE
  5
C1
100
AcDbEntity
  8
IMPORTED
  6
CONTINUOUS
 62
     7
100
AcDbLine
 10
-544.5
 20
-228.000005
 30
0.0
 11
-544.5
 21
-231.000005
 31
0.0
  0
LINE
  5
C2
100
AcDbEntity
  8
IMPORTED
  6
CONTINUOUS
 62
     7
100
AcDbLine
 10
-544.5
 20
-228.000005
 30
0.0
 11
-521.5
 21
-228.000005
 31
0.0
  0
LINE
  5
C3
100
AcDbEntity
  8
IMPORTED
  6
CONTINUOUS
 62
     7
100
AcDbLine
 10
-376.5
 20
-245.701005
 30
0.0
 11
-376.5
 21
-162.001005
 31
0.0
  0
LINE
  5
C4
100
AcDbEntity
  8
IMPORTED
  6
CONTINUOUS
 62
     7
100
AcDbLine
 10
-510.5
 20
-250.299005
 30
0.0
 11
-510.5
 21
-260.999005
 31
0.0
  0
ARC
  5
C5
100
AcDbEntity
  8
IMPORTED
  6
CONTINUOUS
 62
     7
100
AcDbCircle
 10
-322.951
 20
-216.201005
 30
0.0
 40
0.799
100
AcDbArc
 50
180.0
 51
270.0
  0
LINE
  5
C6
100
AcDbEntity
  8
IMPORTED
  6
CONTINUOUS
 62
     7
100
AcDbLine
 10
-322.95
 20
-217.000005
 30
0.0
 11
-309.05
 21
-217.000005
 31
0.0
  0
ARC
  5
C7
100
AcDbEntity
  8
IMPORTED
  6
CONTINUOUS
 62
     7
100
AcDbCircle
 10
-309.05
 20
-216.201005
 30
0.0
 40
0.799
100
AcDbArc
 50
270.0
 51
0.0
  0
LINE
  5
C8
100
AcDbEntity
  8
IMPORTED
  6
CONTINUOUS
 62
     7
100
AcDbLine
 10
-308.25
 20
-216.200005
 30
0.0
 11
-308.25
 21
-212.800005
 31
0.0
  0
ARC
  5
C9
100
AcDbEntity
  8
IMPORTED
  6
CONTINUOUS
 62
     7
100
AcDbCircle
 10
-309.05
 20
-212.800005
 30
0.0
 40
0.799
100
AcDbArc
 50
0.0
 51
90.0
  0
LINE
  5
CA
100
AcDbEntity
  8
IMPORTED
  6
CONTINUOUS
 62
     7
100
AcDbLine
 10
-309.05
 20
-212.000005
 30
0.0
 11
-322.95
 21
-212.000005
 31
0.0
  0
ARC
  5
CB
100
AcDbEntity
  8
IMPORTED
  6
CONTINUOUS
 62
     7
100
AcDbCircle
 10
-322.951
 20
-212.800005
 30
0.0
 40
0.799
100
AcDbArc
 50
90.0
 51
180.0
  0
LINE
  5
CC
100
AcDbEntity
  8
IMPORTED
  6
CONTINUOUS
 62
     7
100
AcDbLine
 10
-323.75
 20
-212.800005
 30
0.0
 11
-323.75
 21
-216.200005
 31
0.0
  0
LINE
  5
CD
100
AcDbEntity
  8
IMPORTED
  6
CONTINUOUS
 62
     7
100
AcDbLine
 10
-320.75
 20
-212.500005
 30
0.0
 11
-320.75
 21
-216.500005
 31
0.0
  0
LINE
  5
CE
100
AcDbEntity
  8
IMPORTED
  6
CONTINUOUS
 62
     7
100
AcDbLine
 10
-311.25
 20
-216.500005
 30
0.0
 11
-311.25
 21
-212.500005
 31
0.0
  0
LINE
  5
CF
100
AcDbEntity
  8
IMPORTED
  6
CONTINUOUS
 62
     7
100
AcDbLine
 10
-648.0
 20
-197.700005
 30
0.0
 11
-648.0
 21
-167.300005
 31
0.0
  0
LINE
  5
D0
100
AcDbEntity
  8
IMPORTED
  6
CONTINUOUS
 62
     7
100
AcDbLine
 10
-646.0
 20
-165.301005
 30
0.0
 11
-521.5
 21
-165.301005
 31
0.0
  0
LINE
  5
D1
100
AcDbEntity
  8
IMPORTED
  6
CONTINUOUS
 62
     7
100
AcDbLine
 10
-519.5
 20
-167.301005
 30
0.0
 11
-519.5
 21
-197.701005
 31
0.0
  0
ARC
  5
D2
100
AcDbEntity
  8
IMPORTED
  6
CONTINUOUS
 62
     7
100
AcDbCircle
 10
-521.5
 20
-167.301005
 30
0.0
 40
2.0
100
AcDbArc
 50
0.0
 51
90.0
  0
ARC
  5
D3
100
AcDbEntity
  8
IMPORTED
  6
CONTINUOUS
 62
     7
100
AcDbCircle
 10
-646.0
 20
-167.300005
 30
0.0
 40
2.0
100
AcDbArc
 50
90.0
 51
180.0
  0
LINE
  5
D4
100
AcDbEntity
  8
IMPORTED
  6
CONTINUOUS
 62
     7
100
AcDbLine
 10
-521.5
 20
-199.701005
 30
0.0
 11
-646.0
 21
-199.701005
 31
0.0
  0
ARC
  5
D5
100
AcDbEntity
  8
IMPORTED
  6
CONTINUOUS
 62
     7
100
AcDbCircle
 10
-521.5
 20
-197.701005
 30
0.0
 40
2.0
100
AcDbArc
 50
270.0
 51
0.0
  0
ARC
  5
D6
100
AcDbEntity
  8
IMPORTED
  6
CONTINUOUS
 62
     7
100
AcDbCircle
 10
-646.0
 20
-197.700005
 30
0.0
 40
2.0
100
AcDbArc
 50
180.0
 51
270.0
  0
LINE
  5
D7
100
AcDbEntity
  8
IMPORTED
  6
CONTINUOUS
 62
     7
100
AcDbLine
 10
-497.0
 20
-250.000005
 30
0.0
 11
-497.0
 21
-173.000005
 31
0.0
  0
LINE
  5
D8
100
AcDbEntity
  8
IMPORTED
  6
CONTINUOUS
 62
     7
100
AcDbLine
 10
-497.0
 20
-173.000005
 30
0.0
 11
-390.0
 21
-173.000005
 31
0.0
  0
LINE
  5
D9
100
AcDbEntity
  8
IMPORTED
  6
CONTINUOUS
 62
     7
100
AcDbLine
 10
-390.0
 20
-173.000005
 30
0.0
 11
-390.0
 21
-250.000005
 31
0.0
  0
LINE
  5
DA
100
AcDbEntity
  8
IMPORTED
  6
CONTINUOUS
 62
     7
100
AcDbLine
 10
-390.0
 20
-249.999005
 30
0.0
 11
-497.0
 21
-249.999005
 31
0.0
  0
LINE
  5
DB
100
AcDbEntity
  8
IMPORTED
  6
CONTINUOUS
 62
     7
100
AcDbLine
 10
-495.5
 20
-248.500005
 30
0.0
 11
-495.5
 21
-174.500005
 31
0.0
  0
LINE
  5
DC
100
AcDbEntity
  8
IMPORTED
  6
CONTINUOUS
 62
     7
100
AcDbLine
 10
-495.5
 20
-174.500005
 30
0.0
 11
-391.5
 21
-174.500005
 31
0.0
  0
LINE
  5
DD
100
AcDbEntity
  8
IMPORTED
  6
CONTINUOUS
 62
     7
100
AcDbLine
 10
-391.5
 20
-174.500005
 30
0.0
 11
-391.5
 21
-248.500005
 31
0.0
  0
LINE
  5
DE
100
AcDbEntity
  8
IMPORTED
  6
CONTINUOUS
 62
     7
100
AcDbLine
 10
-391.5
 20
-248.499005
 30
0.0
 11
-495.5
 21
-248.499005
 31
0.0
  0
ARC
  5
DF
100
AcDbEntity
  8
IMPORTED
  6
CONTINUOUS
 62
     7
100
AcDbCircle
 10
-381.0
 20
-163.500005
 30
0.0
 40
1.0
100
AcDbArc
 50
0.0
 51
90.0
  0
ARC
  5
E0
100
AcDbEntity
  8
IMPORTED
  6
CONTINUOUS
 62
     7
100
AcDbCircle
 10
-381.0
 20
-259.499005
 30
0.0
 40
1.0
100
AcDbArc
 50
270.0
 51
0.0
  0
ARC
  5
E1
100
AcDbEntity
  8
IMPORTED
  6
CONTINUOUS
 62
     7
100
AcDbCircle
 10
-506.0
 20
-259.499005
 30
0.0
 40
1.0
100
AcDbArc
 50
180.0
 51
270.0
  0
ARC
  5
E2
100
AcDbEntity
  8
IMPORTED
  6
CONTINUOUS
 62
     7
100
AcDbCircle
 10
-506.0
 20
-163.500005
 30
0.0
 40
1.0
100
AcDbArc
 50
90.0
 51
180.0
  0
LINE
  5
E3
100
AcDbEntity
  8
IMPORTED
  6
CONTINUOUS
 62
     7
100
AcDbLine
 10
-645.5
 20
-264.999005
 30
0.0
 11
-617.5
 21
-264.999005
 31
0.0
  0
LINE
  5
E4
100
AcDbEntity
  8
IMPORTED
  6
CONTINUOUS
 62
     7
100
AcDbLine
 10
-617.5
 20
-264.999005
 30
0.0
 11
-617.5
 21
-257.999005
 31
0.0
  0
LINE
  5
E5
100
AcDbEntity
  8
IMPORTED
  6
CONTINUOUS
 62
     7
100
AcDbLine
 10
-617.5
 20
-257.999005
 30
0.0
 11
-645.5
 21
-257.999005
 31
0.0
  0
ARC
  5
E6
100
AcDbEntity
  8
IMPORTED
  6
CONTINUOUS
 62
     7
100
AcDbCircle
 10
-646.0
 20
-265.499005
 30
0.0
 40
1.0
100
AcDbArc
 50
180.0
 51
270.0
  0
LINE
  5
E7
100
AcDbEntity
  8
IMPORTED
  6
CONTINUOUS
 62
     7
100
AcDbLine
 10
-646.0
 20
-266.499005
 30
0.0
 11
-617.0
 21
-266.499005
 31
0.0
  0
ARC
  5
E8
100
AcDbEntity
  8
IMPORTED
  6
CONTINUOUS
 62
     7
100
AcDbCircle
 10
-617.0
 20
-265.499005
 30
0.0
 40
1.0
100
AcDbArc
 50
270.0
 51
0.0
  0
LINE
  5
E9
100
AcDbEntity
  8
IMPORTED
  6
CONTINUOUS
 62
     7
100
AcDbLine
 10
-616.0
 20
-265.499005
 30
0.0
 11
-616.0
 21
-257.499005
 31
0.0
  0
ARC
  5
EA
100
AcDbEntity
  8
IMPORTED
  6
CONTINUOUS
 62
     7
100
AcDbCircle
 10
-617.0
 20
-257.499005
 30
0.0
 40
1.0
100
AcDbArc
 50
0.0
 51
90.0
  0
LINE
  5
EB
100
AcDbEntity
  8
IMPORTED
  6
CONTINUOUS
 62
     7
100
AcDbLine
 10
-617.0
 20
-256.499005
 30
0.0
 11
-646.0
 21
-256.499005
 31
0.0
  0
ARC
  5
EC
100
AcDbEntity
  8
IMPORTED
  6
CONTINUOUS
 62
     7
100
AcDbCircle
 10
-646.0
 20
-257.499005
 30
0.0
 40
1.0
100
AcDbArc
 50
90.0
 51
180.0
  0
LINE
  5
ED
100
AcDbEntity
  8
IMPORTED
  6
CONTINUOUS
 62
     7
100
AcDbLine
 10
-647.0
 20
-257.499005
 30
0.0
 11
-647.0
 21
-265.499005
 31
0.0
  0
LINE
  5
EE
100
AcDbEntity
  8
IMPORTED
  6
CONTINUOUS
 62
     7
100
AcDbLine
 10
-626.25
 20
-193.000005
 30
0.0
 11
-566.25
 21
-193.000005
 31
0.0
  0
LINE
  5
EF
100
AcDbEntity
  8
IMPORTED
  6
CONTINUOUS
 62
     7
100
AcDbLine
 10
-566.25
 20
-193.000005
 30
0.0
 11
-566.25
 21
-177.000005
 31
0.0
  0
LINE
  5
F0
100
AcDbEntity
  8
IMPORTED
  6
CONTINUOUS
 62
     7
100
AcDbLine
 10
-566.25
 20
-177.000005
 30
0.0
 11
-626.25
 21
-177.000005
 31
0.0
  0
LINE
  5
F1
100
AcDbEntity
  8
IMPORTED
  6
CONTINUOUS
 62
     7
100
AcDbLine
 10
-626.25
 20
-177.000005
 30
0.0
 11
-626.25
 21
-193.000005
 31
0.0
  0
LINE
  5
F2
100
AcDbEntity
  8
IMPORTED
  6
CONTINUOUS
 62
     7
100
AcDbLine
 10
-545.0
 20
-206.501005
 30
0.0
 11
-568.0
 21
-206.501005
 31
0.0
  0
LINE
  5
F3
100
AcDbEntity
  8
IMPORTED
  6
CONTINUOUS
 62
     7
100
AcDbLine
 10
-544.5
 20
-218.501005
 30
0.0
 11
-521.5
 21
-218.501005
 31
0.0
  0
LINE
  5
F4
100
AcDbEntity
  8
IMPORTED
  6
CONTINUOUS
 62
     7
100
AcDbLine
 10
-408.0
 20
-186.000005
 30
0.0
 11
-479.0
 21
-186.000005
 31
0.0
  0
LINE
  5
F5
100
AcDbEntity
  8
IMPORTED
  6
CONTINUOUS
 62
     7
100
AcDbLine
 10
-408.0
 20
-214.000005
 30
0.0
 11
-479.0
 21
-214.000005
 31
0.0
  0
LINE
  5
F6
100
AcDbEntity
  8
IMPORTED
  6
CONTINUOUS
 62
     7
100
AcDbLine
 10
-407.0
 20
-187.000005
 30
0.0
 11
-407.0
 21
-213.000005
 31
0.0
  0
LINE
  5
F7
100
AcDbEntity
  8
IMPORTED
  6
CONTINUOUS
 62
     7
100
AcDbLine
 10
-480.0
 20
-187.000005
 30
0.0
 11
-480.0
 21
-213.000005
 31
0.0
  0
ARC
  5
F8
100
AcDbEntity
  8
IMPORTED
  6
CONTINUOUS
 62
     7
100
AcDbCircle
 10
-408.0
 20
-187.000005
 30
0.0
 40
1.0
100
AcDbArc
 50
0.0
 51
90.0
  0
ARC
  5
F9
100
AcDbEntity
  8
IMPORTED
  6
CONTINUOUS
 62
     7
100
AcDbCircle
 10
-408.0
 20
-213.000005
 30
0.0
 40
1.0
100
AcDbArc
 50
270.0
 51
0.0
  0
ARC
  5
FA
100
AcDbEntity
  8
IMPORTED
  6
CONTINUOUS
 62
     7
100
AcDbCircle
 10
-479.0
 20
-213.000005
 30
0.0
 40
1.0
100
AcDbArc
 50
180.0
 51
270.0
  0
ARC
  5
FB
100
AcDbEntity
  8
IMPORTED
  6
CONTINUOUS
 62
     7
100
AcDbCircle
 10
-479.0
 20
-187.000005
 30
0.0
 40
1.0
100
AcDbArc
 50
90.0
 51
180.0
  0
LINE
  5
FC
100
AcDbEntity
  8
IMPORTED
  6
CONTINUOUS
 62
     7
100
AcDbLine
 10
-419.0
 20
-186.000005
 30
0.0
 11
-419.0
 21
-206.500005
 31
0.0
  0
ARC
  5
FD
100
AcDbEntity
  8
IMPORTED
  6
CONTINUOUS
 62
     7
100
AcDbCircle
 10
-420.0
 20
-206.500005
 30
0.0
 40
1.0
100
AcDbArc
 50
270.0
 51
0.0
  0
LINE
  5
FE
100
AcDbEntity
  8
IMPORTED
  6
CONTINUOUS
 62
     7
100
AcDbLine
 10
-468.0
 20
-186.000005
 30
0.0
 11
-468.0
 21
-206.500005
 31
0.0
  0
LINE
  5
FF
100
AcDbEntity
  8
IMPORTED
  6
CONTINUOUS
 62
     7
100
AcDbLine
 10
-420.0
 20
-207.500005
 30
0.0
 11
-467.0
 21
-207.500005
 31
0.0
  0
ARC
  5
100
100
AcDbEntity
  8
IMPORTED
  6
CONTINUOUS
 62
     7
100
AcDbCircle
 10
-467.0
 20
-206.500005
 30
0.0
 40
1.0
100
AcDbArc
 50
180.0
 51
270.0
  0
LINE
  5
101
100
AcDbEntity
  8
IMPORTED
  6
CONTINUOUS
 62
     7
100
AcDbLine
 10
-467.832
 20
-207.391005
 30
0.0
 11
-479.008
 21
-213.159005
 31
0.0
  0
LINE
  5
102
100
AcDbEntity
  8
IMPORTED
  6
CONTINUOUS
 62
     7
100
AcDbLine
 10
-418.987
 20
-207.391005
 30
0.0
 11
-407.721
 21
-213.159005
 31
0.0
  0
LINE
  5
103
100
AcDbEntity
  8
IMPORTED
  6
CONTINUOUS
 62
     7
100
AcDbLine
 10
-453.5
 20
-202.000005
 30
0.0
 11
-433.5
 21
-202.000005
 31
0.0
  0
LINE
  5
104
100
AcDbEntity
  8
IMPORTED
  6
CONTINUOUS
 62
     7
100
AcDbLine
 10
-433.5
 20
-202.000005
 30
0.0
 11
-433.5
 21
-196.000005
 31
0.0
  0
LINE
  5
105
100
AcDbEntity
  8
IMPORTED
  6
CONTINUOUS
 62
     7
100
AcDbLine
 10
-433.5
 20
-196.000005
 30
0.0
 11
-453.5
 21
-196.000005
 31
0.0
  0
LINE
  5
106
100
AcDbEntity
  8
IMPORTED
  6
CONTINUOUS
 62
     7
100
AcDbLine
 10
-453.5
 20
-196.000005
 30
0.0
 11
-453.5
 21
-202.000005
 31
0.0
  0
ARC
  5
107
100
AcDbEntity
  8
IMPORTED
  6
CONTINUOUS
 62
     7
100
AcDbCircle
 10
-209.5
 20
-184.401005
 30
0.0
 40
3.5
100
AcDbArc
 50
270.0
 51
90.0
  0
ARC
  5
108
100
AcDbEntity
  8
IMPORTED
  6
CONTINUOUS
 62
     7
100
AcDbCircle
 10
-212.5
 20
-184.401005
 30
0.0
 40
3.5
100
AcDbArc
 50
90.0
 51
270.0
  0
LINE
  5
109
100
AcDbEntity
  8
IMPORTED
  6
CONTINUOUS
 62
     7
100
AcDbLine
 10
-212.5
 20
-180.901005
 30
0.0
 11
-209.5
 21
-180.901005
 31
0.0
  0
LINE
  5
10A
100
AcDbEntity
  8
IMPORTED
  6
CONTINUOUS
 62
     7
100
AcDbLine
 10
-212.5
 20
-187.901005
 30
0.0
 11
-209.5
 21
-187.901005
 31
0.0
  0
ARC
  5
10B
100
AcDbEntity
  8
IMPORTED
  6
CONTINUOUS
 62
     7
100
AcDbCircle
 10
-209.5
 20
-241.599005
 30
0.0
 40
3.5
100
AcDbArc
 50
270.0
 51
90.0
  0
LINE
  5
10C
100
AcDbEntity
  8
IMPORTED
  6
CONTINUOUS
 62
     7
100
AcDbLine
 10
-212.5
 20
-238.099005
 30
0.0
 11
-209.5
 21
-238.099005
 31
0.0
  0
ARC
  5
10D
100
AcDbEntity
  8
IMPORTED
  6
CONTINUOUS
 62
     7
100
AcDbCircle
 10
-212.5
 20
-241.599005
 30
0.0
 40
3.5
100
AcDbArc
 50
90.0
 51
270.0
  0
LINE
  5
10E
100
AcDbEntity
  8
IMPORTED
  6
CONTINUOUS
 62
     7
100
AcDbLine
 10
-212.5
 20
-245.099005
 30
0.0
 11
-209.5
 21
-245.099005
 31
0.0
  0
LINE
  5
10F
100
AcDbEntity
  8
IMPORTED
  6
CONTINUOUS
 62
     7
100
AcDbLine
 10
-600.60899
 20
-212.223005
 30
0.0
 11
-600.60899
 21
-214.779005
 31
0.0
  0
LINE
  5
110
100
AcDbEntity
  8
IMPORTED
  6
CONTINUOUS
 62
     7
100
AcDbLine
 10
-600.60799
 20
-214.778005
 30
0.0
 11
-597.48999
 21
-213.500005
 31
0.0
  0
LINE
  5
111
100
AcDbEntity
  8
IMPORTED
  6
CONTINUOUS
 62
     7
100
AcDbLine
 10
-597.48999
 20
-213.501005
 30
0.0
 11
-600.60799
 21
-212.223005
 31
0.0
  0
LINE
  5
112
100
AcDbEntity
  8
IMPORTED
  6
CONTINUOUS
 62
     7
100
AcDbLine
 10
-633.357
 20
-212.350005
 30
0.0
 11
-635.643
 21
-212.350005
 31
0.0
  0
LINE
  5
113
100
AcDbEntity
  8
IMPORTED
  6
CONTINUOUS
 62
     7
100
AcDbLine
 10
-635.642
 20
-212.351005
 30
0.0
 11
-635.642
 21
-214.651005
 31
0.0
  0
LINE
  5
114
100
AcDbEntity
  8
IMPORTED
  6
CONTINUOUS
 62
     7
100
AcDbLine
 10
-635.643
 20
-214.651005
 30
0.0
 11
-633.357
 21
-214.651005
 31
0.0
  0
LINE
  5
115
100
AcDbEntity
  8
IMPORTED
  6
CONTINUOUS
 62
     7
100
AcDbLine
 10
-633.357
 20
-214.651005
 30
0.0
 11
-633.357
 21
-212.351005
 31
0.0
  0
CIRCLE
  5
116
100
AcDbEntity
  8
IMPORTED
  6
CONTINUOUS
 62
     7
100
AcDbCircle
 10
-533.0
 20
-213.501005
 30
0.0
 40
1.27699
  0
LINE
  5
117
100
AcDbEntity
  8
IMPORTED
  6
CONTINUOUS
 62
     7
100
AcDbLine
 10
-556.508
 20
-214.401005
 30
0.0
 11
-555.616
 21
-214.401005
 31
0.0
  0
LINE
  5
118
100
AcDbEntity
  8
IMPORTED
  6
CONTINUOUS
 62
     7
100
AcDbLine
 10
-555.61599
 20
-214.401005
 30
0.0
 11
-555.61599
 21
-212.101005
 31
0.0
  0
LINE
  5
119
100
AcDbEntity
  8
IMPORTED
  6
CONTINUOUS
 62
     7
100
AcDbLine
 10
-555.616
 20
-212.101005
 30
0.0
 11
-556.508
 21
-212.101005
 31
0.0
  0
LINE
  5
11A
100
AcDbEntity
  8
IMPORTED
  6
CONTINUOUS
 62
     7
100
AcDbLine
 10
-556.50799
 20
-212.101005
 30
0.0
 11
-556.50799
 21
-214.401005
 31
0.0
  0
LINE
  5
11B
100
AcDbEntity
  8
IMPORTED
  6
CONTINUOUS
 62
     7
100
AcDbLine
 10
-557.883
 20
-214.401005
 30
0.0
 11
-556.991
 21
-214.401005
 31
0.0
  0
LINE
  5
11C
100
AcDbEntity
  8
IMPORTED
  6
CONTINUOUS
 62
     7
100
AcDbLine
 10
-556.99099
 20
-214.401005
 30
0.0
 11
-556.99099
 21
-212.101005
 31
0.0
  0
LINE
  5
11D
100
AcDbEntity
  8
IMPORTED
  6
CONTINUOUS
 62
     7
100
AcDbLine
 10
-556.991
 20
-212.101005
 30
0.0
 11
-557.883
 21
-212.101005
 31
0.0
  0
LINE
  5
11E
100
AcDbEntity
  8
IMPORTED
  6
CONTINUOUS
 62
     7
100
AcDbLine
 10
-557.88299
 20
-212.101005
 30
0.0
 11
-557.88299
 21
-214.401005
 31
0.0
  0
LINE
  5
11F
100
AcDbEntity
  8
IMPORTED
  6
CONTINUOUS
 62
     7
100
AcDbLine
 10
-353.99701
 20
-212.117005
 30
0.0
 11
-354.00501
 21
-212.117005
 31
0.0
  0
LINE
  5
120
100
AcDbEntity
  8
IMPORTED
  6
CONTINUOUS
 62
     7
100
AcDbLine
 10
-354.005
 20
-212.118005
 30
0.0
 11
-355.459
 21
-213.862005
 31
0.0
  0
LINE
  5
121
100
AcDbEntity
  8
IMPORTED
  6
CONTINUOUS
 62
     7
100
AcDbLine
 10
-355.46
 20
-213.862005
 30
0.0
 11
-352.54
 21
-213.862005
 31
0.0
  0
LINE
  5
122
100
AcDbEntity
  8
IMPORTED
  6
CONTINUOUS
 62
     7
100
AcDbLine
 10
-352.54
 20
-213.862005
 30
0.0
 11
-353.996
 21
-212.116005
 31
0.0
  0
LINE
  5
123
100
AcDbEntity
  8
IMPORTED
  6
CONTINUOUS
 62
     7
100
AcDbLine
 10
-355.29
 20
-214.194005
 30
0.0
 11
-355.29
 21
-214.876005
 31
0.0
  0
LINE
  5
124
100
AcDbEntity
  8
IMPORTED
  6
CONTINUOUS
 62
     7
100
AcDbLine
 10
-355.291
 20
-214.876005
 30
0.0
 11
-352.707
 21
-214.876005
 31
0.0
  0
LINE
  5
125
100
AcDbEntity
  8
IMPORTED
  6
CONTINUOUS
 62
     7
100
AcDbLine
 10
-352.707
 20
-214.876005
 30
0.0
 11
-352.707
 21
-214.194005
 31
0.0
  0
LINE
  5
126
100
AcDbEntity
  8
IMPORTED
  6
CONTINUOUS
 62
     7
100
AcDbLine
 10
-352.707
 20
-214.194005
 30
0.0
 11
-355.291
 21
-214.194005
 31
0.0
  0
LINE
  5
127
100
AcDbEntity
  8
IMPORTED
  6
CONTINUOUS
 62
     7
100
AcDbLine
 10
-544.5
 20
-206.501005
 30
0.0
 11
-521.5
 21
-206.501005
 31
0.0
  0
CIRCLE
  5
128
100
AcDbEntity
  8
IMPORTED
  6
CONTINUOUS
 62
     7
100
AcDbCircle
 10
-268.0
 20
-187.000005
 30
0.0
 40
20.0
  0
CIRCLE
  5
129
100
AcDbEntity
  8
IMPORTED
  6
CONTINUOUS
 62
     7
100
AcDbCircle
 10
-268.0
 20
-187.000005
 30
0.0
 40
21.5
  0
CIRCLE
  5
12A
100
AcDbEntity
  8
IMPORTED
  6
CONTINUOUS
 62
     7
100
AcDbCircle
 10
-268.0
 20
-187.000005
 30
0.0
 40
24.0
  0
CIRCLE
  5
12B
100
AcDbEntity
  8
IMPORTED
  6
CONTINUOUS
 62
     7
100
AcDbCircle
 10
-268.0
 20
-231.000005
 30
0.0
 40
6.5
  0
CIRCLE
  5
12C
100
AcDbEntity
  8
IMPORTED
  6
CONTINUOUS
 62
     7
100
AcDbCircle
 10
-268.0
 20
-231.000005
 30
0.0
 40
9.0
  0
CIRCLE
  5
12D
100
AcDbEntity
  8
IMPORTED
  6
CONTINUOUS
 62
     7
100
AcDbCircle
 10
-268.0
 20
-259.999005
 30
0.0
 40
3.25
  0
CIRCLE
  5
12E
100
AcDbEntity
  8
IMPORTED
  6
CONTINUOUS
 62
     7
100
AcDbCircle
 10
-268.0
 20
-259.999005
 30
0.0
 40
5.3
  0
LINE
  5
12F
100
AcDbEntity
  8
IMPORTED
  6
CONTINUOUS
 62
     7
100
AcDbLine
 10
-645.5
 20
-257.999005
 30
0.0
 11
-645.5
 21
-264.999005
 31
0.0
  0
CIRCLE
  5
130
100
AcDbEntity
  8
IMPORTED
  6
CONTINUOUS
 62
     7
100
AcDbCircle
 10
-544.75
 20
-190.850005
 30
0.0
 40
2.0
  0
LINE
  5
131
100
AcDbEntity
  8
IMPORTED
  6
CONTINUOUS
 62
     7
100
AcDbLine
 10
-685.0
 20
-148.001005
 30
0.0
 11
-685.0
 21
-67.277745
 31
0.0
  0
LINE
  5
132
100
AcDbEntity
  8
IMPORTED
  6
CONTINUOUS
 62
     7
100
AcDbLine
 10
-202.0
 20
-148.001005
 30
0.0
 11
-202.0
 21
-67.277745
 31
0.0
  0
LINE
  5
133
100
AcDbEntity
  8
IMPORTED
  6
CONTINUOUS
 62
     7
100
AcDbLine
 10
-685.0
 20
-75.277735
 30
0.0
 11
-672.30001
 21
-71.874785
 31
0.0
  0
LINE
  5
134
100
AcDbEntity
  8
IMPORTED
  6
CONTINUOUS
 62
     7
100
AcDbLine
 10
-685.0
 20
-75.277745
 30
0.0
 11
-672.30001
 21
-78.680705
 31
0.0
  0
LINE
  5
135
100
AcDbEntity
  8
IMPORTED
  6
CONTINUOUS
 62
     7
100
AcDbLine
 10
-202.0
 20
-75.277745
 30
0.0
 11
-214.7
 21
-78.680705
 31
0.0
  0
LINE
  5
136
100
AcDbEntity
  8
IMPORTED
  6
CONTINUOUS
 62
     7
100
AcDbLine
 10
-202.0
 20
-75.277735
 30
0.0
 11
-214.7
 21
-71.874785
 31
0.0
  0
LINE
  5
137
100
AcDbEntity
  8
IMPORTED
  6
CONTINUOUS
 62
     7
100
AcDbLine
 10
-685.0
 20
-75.277745
 30
0.0
 11
-202.0
 21
-75.277745
 31
0.0
  0
INSERT
  5
138
100
AcDbEntity
  8
IMPORTED
100
AcDbBlockReference
  2
*G0
 10
-191.25
 20
-165.538565
 30
0.0
  0
LINE
  5
139
100
AcDbEntity
  8
IMPORTED
  6
CONTINUOUS
 62
     7
100
AcDbLine
 10
-676.0
 20
-184.401005
 30
0.0
 11
-676.0
 21
-87.277745
 31
0.0
  0
LINE
  5
13A
100
AcDbEntity
  8
IMPORTED
  6
CONTINUOUS
 62
     7
100
AcDbLine
 10
-211.0
 20
-184.401005
 30
0.0
 11
-211.0
 21
-87.277745
 31
0.0
  0
LINE
  5
13B
100
AcDbEntity
  8
IMPORTED
  6
CONTINUOUS
 62
     7
100
AcDbLine
 10
-676.0
 20
-95.277745
 30
0.0
 11
-663.30001
 21
-91.874785
 31
0.0
  0
LINE
  5
13C
100
AcDbEntity
  8
IMPORTED
  6
CONTINUOUS
 62
     7
100
AcDbLine
 10
-676.0
 20
-95.277745
 30
0.0
 11
-663.30001
 21
-98.680705
 31
0.0
  0
LINE
  5
13D
100
AcDbEntity
  8
IMPORTED
  6
CONTINUOUS
 62
     7
100
AcDbLine
 10
-211.0
 20
-95.277745
 30
0.0
 11
-223.7
 21
-98.680705
 31
0.0
  0
LINE
  5
13E
100
AcDbEntity
  8
IMPORTED
  6
CONTINUOUS
 62
     7
100
AcDbLine
 10
-211.0
 20
-95.277745
 30
0.0
 11
-223.7
 21
-91.874785
 31
0.0
  0
LINE
  5
13F
100
AcDbEntity
  8
IMPORTED
  6
CONTINUOUS
 62
     7
100
AcDbLine
 10
-676.0
 20
-95.277745
 30
0.0
 11
-211.0
 21
-95.277745
 31
0.0
  0
INSERT
  5
140
100
AcDbEntity
  8
IMPORTED
100
AcDbBlockReference
  2
*G1
 10
-191.25
 20
-165.538565
 30
0.0
  0
LINE
  5
141
100
AcDbEntity
  8
IMPORTED
  6
CONTINUOUS
 62
     7
100
AcDbLine
 10
-661.0
 20
-147.000005
 30
0.0
 11
-661.0
 21
-109.277745
 31
0.0
  0
LINE
  5
142
100
AcDbEntity
  8
IMPORTED
  6
CONTINUOUS
 62
     7
100
AcDbLine
 10
-226.0
 20
-147.000005
 30
0.0
 11
-226.0
 21
-109.277745
 31
0.0
  0
LINE
  5
143
100
AcDbEntity
  8
IMPORTED
  6
CONTINUOUS
 62
     7
100
AcDbLine
 10
-661.0
 20
-117.277745
 30
0.0
 11
-648.30001
 21
-113.874785
 31
0.0
  0
LINE
  5
144
100
AcDbEntity
  8
IMPORTED
  6
CONTINUOUS
 62
     7
100
AcDbLine
 10
-661.0
 20
-117.277745
 30
0.0
 11
-648.30001
 21
-120.680705
 31
0.0
  0
LINE
  5
145
100
AcDbEntity
  8
IMPORTED
  6
CONTINUOUS
 62
     7
100
AcDbLine
 10
-226.0
 20
-117.277745
 30
0.0
 11
-238.7
 21
-120.680705
 31
0.0
  0
LINE
  5
146
100
AcDbEntity
  8
IMPORTED
  6
CONTINUOUS
 62
     7
100
AcDbLine
 10
-226.0
 20
-117.277745
 30
0.0
 11
-238.7
 21
-113.874785
 31
0.0
  0
LINE
  5
147
100
AcDbEntity
  8
IMPORTED
  6
CONTINUOUS
 62
     7
100
AcDbLine
 10
-661.0
 20
-117.277745
 30
0.0
 11
-226.0
 21
-117.277745
 31
0.0
  0
INSERT
  5
148
100
AcDbEntity
  8
IMPORTED
100
AcDbBlockReference
  2
*G2
 10
-191.25
 20
-165.538565
 30
0.0
  0
LINE
  5
149
100
AcDbEntity
  8
IMPORTED
  6
CONTINUOUS
 62
     7
100
AcDbLine
 10
-211.0
 20
-184.401005
 30
0.0
 11
-168.0
 21
-184.401005
 31
0.0
  0
LINE
  5
14A
100
AcDbEntity
  8
IMPORTED
  6
CONTINUOUS
 62
     7
100
AcDbLine
 10
-211.0
 20
-241.599005
 30
0.0
 11
-168.0
 21
-241.599005
 31
0.0
  0
LINE
  5
14B
100
AcDbEntity
  8
IMPORTED
  6
CONTINUOUS
 62
     7
100
AcDbLine
 10
-176.0
 20
-241.599005
 30
0.0
 11
-176.0
 21
-184.401005
 31
0.0
  0
LINE
  5
14C
100
AcDbEntity
  8
IMPORTED
  6
CONTINUOUS
 62
     7
100
AcDbLine
 10
-176.0
 20
-184.401005
 30
0.0
 11
-179.40296
 21
-171.701005
 31
0.0
  0
LINE
  5
14D
100
AcDbEntity
  8
IMPORTED
  6
CONTINUOUS
 62
     7
100
AcDbLine
 10
-176.00001
 20
-184.401005
 30
0.0
 11
-172.59706
 21
-171.701005
 31
0.0
  0
LINE
  5
14E
100
AcDbEntity
  8
IMPORTED
  6
CONTINUOUS
 62
     7
100
AcDbLine
 10
-176.0
 20
-184.401005
 30
0.0
 11
-176.0
 21
-156.401005
 31
0.0
  0
LINE
  5
14F
100
AcDbEntity
  8
IMPORTED
  6
CONTINUOUS
 62
     7
100
AcDbLine
 10
-176.00001
 20
-241.599005
 30
0.0
 11
-172.59706
 21
-254.299005
 31
0.0
  0
LINE
  5
150
100
AcDbEntity
  8
IMPORTED
  6
CONTINUOUS
 62
     7
100
AcDbLine
 10
-176.0
 20
-241.599005
 30
0.0
 11
-179.40296
 21
-254.299005
 31
0.0
  0
LINE
  5
151
100
AcDbEntity
  8
IMPORTED
  6
CONTINUOUS
 62
     7
100
AcDbLine
 10
-176.0
 20
-241.599005
 30
0.0
 11
-176.0
 21
-269.599005
 31
0.0
  0
INSERT
  5
152
100
AcDbEntity
  8
IMPORTED
100
AcDbBlockReference
  2
*G3
 10
-191.25
 20
-165.538565
 30
0.0
  0
POLYLINE
  5
153
100
AcDbEntity
  8
IMPORTED
  6
CONTINUOUS
 62
     7
100
AcDb2dPolyline
 66
     1
 10
0.0
 20
0.0
 30
0.0
 70
     1
 75
     5
  0
VERTEX
  5
154
100
AcDbEntity
  8
IMPORTED
  6
CONTINUOUS
 62
     7
100
AcDbVertex
100
AcDb2dVertex
 10
-279.5
 20
-279.000005
 30
0.0
  0
VERTEX
  5
155
100
AcDbEntity
  8
IMPORTED
  6
CONTINUOUS
 62
     7
100
AcDbVertex
100
AcDb2dVertex
 10
-252.5
 20
-279.000005
 30
0.0
  0
VERTEX
  5
156
100
AcDbEntity
  8
IMPORTED
  6
CONTINUOUS
 62
     7
100
AcDbVertex
100
AcDb2dVertex
 10
-252.5
 20
-285.000005
 30
0.0
  0
VERTEX
  5
157
100
AcDbEntity
  8
IMPORTED
  6
CONTINUOUS
 62
     7
100
AcDbVertex
100
AcDb2dVertex
 10
-279.5
 20
-285.000005
 30
0.0
  0
VERTEX
  5
158
100
AcDbEntity
  8
IMPORTED
  6
CONTINUOUS
 62
     7
100
AcDbVertex
100
AcDb2dVertex
 10
-279.5
 20
-279.000005
 30
0.0
  0
SEQEND
  5
159
100
AcDbEntity
  8
IMPORTED
  6
CONTINUOUS
  0
POLYLINE
  5
15A
100
AcDbEntity
  8
IMPORTED
  6
CONTINUOUS
 62
     7
100
AcDb2dPolyline
 66
     1
 10
0.0
 20
0.0
 30
0.0
 70
     1
 75
     5
  0
VERTEX
  5
15B
100
AcDbEntity
  8
IMPORTED
  6
CONTINUOUS
 62
     7
100
AcDbVertex
100
AcDb2dVertex
 10
-634.5
 20
-279.000005
 30
0.0
  0
VERTEX
  5
15C
100
AcDbEntity
  8
IMPORTED
  6
CONTINUOUS
 62
     7
100
AcDbVertex
100
AcDb2dVertex
 10
-607.5
 20
-279.000005
 30
0.0
  0
VERTEX
  5
15D
100
AcDbEntity
  8
IMPORTED
  6
CONTINUOUS
 62
     7
100
AcDbVertex
100
AcDb2dVertex
 10
-607.5
 20
-285.000005
 30
0.0
  0
VERTEX
  5
15E
100
AcDbEntity
  8
IMPORTED
  6
CONTINUOUS
 62
     7
100
AcDbVertex
100
AcDb2dVertex
 10
-634.5
 20
-285.000005
 30
0.0
  0
VERTEX
  5
15F
100
AcDbEntity
  8
IMPORTED
  6
CONTINUOUS
 62
     7
100
AcDbVertex
100
AcDb2dVertex
 10
-634.5
 20
-279.000005
 30
0.0
  0
SEQEND
  5
160
100
AcDbEntity
  8
IMPORTED
  6
CONTINUOUS
  0
LINE
  5
161
100
AcDbEntity
  8
IMPORTED
  6
CONTINUOUS
 62
     7
100
AcDbLine
 10
-207.5
 20
-278.999005
 30
0.0
 11
-149.5
 21
-278.999005
 31
0.0
  0
LINE
  5
162
100
AcDbEntity
  8
IMPORTED
  6
CONTINUOUS
 62
     7
100
AcDbLine
 10
-252.5
 20
-285.000005
 30
0.0
 11
-149.5
 21
-285.000005
 31
0.0
  0
LINE
  5
163
100
AcDbEntity
  8
IMPORTED
  6
CONTINUOUS
 62
     7
100
AcDbLine
 10
-157.5
 20
-285.000005
 30
0.0
 11
-157.5
 21
-278.999005
 31
0.0
  0
LINE
  5
164
100
AcDbEntity
  8
IMPORTED
  6
CONTINUOUS
 62
     7
100
AcDbLine
 10
-157.5
 20
-278.999005
 30
0.0
 11
-160.90296
 21
-266.299015
 31
0.0
  0
LINE
  5
165
100
AcDbEntity
  8
IMPORTED
  6
CONTINUOUS
 62
     7
100
AcDbLine
 10
-157.50001
 20
-278.999005
 30
0.0
 11
-154.09705
 21
-266.299015
 31
0.0
  0
LINE
  5
166
100
AcDbEntity
  8
IMPORTED
  6
CONTINUOUS
 62
     7
100
AcDbLine
 10
-157.5
 20
-278.999005
 30
0.0
 11
-157.5
 21
-250.999005
 31
0.0
  0
LINE
  5
167
100
AcDbEntity
  8
IMPORTED
  6
CONTINUOUS
 62
     7
100
AcDbLine
 10
-157.50001
 20
-285.000005
 30
0.0
 11
-154.09705
 21
-297.700005
 31
0.0
  0
LINE
  5
168
100
AcDbEntity
  8
IMPORTED
  6
CONTINUOUS
 62
     7
100
AcDbLine
 10
-157.5
 20
-285.000005
 30
0.0
 11
-160.90296
 21
-297.700005
 31
0.0
  0
LINE
  5
169
100
AcDbEntity
  8
IMPORTED
  6
CONTINUOUS
 62
     7
100
AcDbLine
 10
-157.5
 20
-285.000005
 30
0.0
 11
-157.5
 21
-302.525005
 31
0.0
  0
INSERT
  5
16A
100
AcDbEntity
  8
IMPORTED
100
AcDbBlockReference
  2
*G4
 10
-191.25
 20
-165.538565
 30
0.0
  0
ARC
  5
16B
100
AcDbEntity
  8
IMPORTED
  6
CONTINUOUS
 62
     7
100
AcDbCircle
 10
-422.25
 20
-199.000005
 30
0.0
 40
6.0
100
AcDbArc
 50
59.999988
 51
300.000012
  0
ARC
  5
16C
100
AcDbEntity
  8
IMPORTED
  6
CONTINUOUS
 62
     7
100
AcDbCircle
 10
-464.75
 20
-199.000005
 30
0.0
 40
6.0
100
AcDbArc
 50
239.999988
 51
120.000012
  0
LINE
  5
16D
100
AcDbEntity
  8
IMPORTED
  6
CONTINUOUS
 62
     7
100
AcDbLine
 10
-15.0
 20
-278.350005
 30
0.0
 11
-15.0
 21
-145.650005
 31
0.0
  0
LINE
  5
16E
100
AcDbEntity
  8
IMPORTED
  6
CONTINUOUS
 62
     7
100
AcDbLine
 10
10.0
 20
-278.350005
 30
0.0
 11
-15.0
 21
-278.350005
 31
0.0
  0
LINE
  5
16F
100
AcDbEntity
  8
IMPORTED
  6
CONTINUOUS
 62
     7
100
AcDbLine
 10
-15.0
 20
-145.650005
 30
0.0
 11
10.0
 21
-145.650005
 31
0.0
  0
LINE
  5
170
100
AcDbEntity
  8
IMPORTED
  6
CONTINUOUS
 62
     7
100
AcDbLine
 10
-12.0
 20
-145.650005
 30
0.0
 11
-12.0
 21
-278.350005
 31
0.0
  0
LINE
  5
171
100
AcDbEntity
  8
IMPORTED
  6
CONTINUOUS
 62
     7
100
AcDbLine
 10
15.0
 20
-277.000005
 30
0.0
 11
15.0
 21
-147.000005
 31
0.0
  0
LINE
  5
172
100
AcDbEntity
  8
IMPORTED
  6
CONTINUOUS
 62
     7
100
AcDbLine
 10
25.0
 20
-278.000005
 30
0.0
 11
25.0
 21
-146.000005
 31
0.0
  0
POLYLINE
  5
173
100
AcDbEntity
  8
IMPORTED
  6
CONTINUOUS
 62
     7
100
AcDb2dPolyline
 66
     1
 10
0.0
 20
0.0
 30
0.0
 70
     1
 75
     5
  0
VERTEX
  5
174
100
AcDbEntity
  8
IMPORTED
  6
CONTINUOUS
 62
     7
100
AcDbVertex
100
AcDb2dVertex
 10
15.0
 20
-146.000005
 30
0.0
  0
VERTEX
  5
175
100
AcDbEntity
  8
IMPORTED
  6
CONTINUOUS
 62
     7
100
AcDbVertex
100
AcDb2dVertex
 10
247.0
 20
-146.000005
 30
0.0
  0
VERTEX
  5
176
100
AcDbEntity
  8
IMPORTED
  6
CONTINUOUS
 62
     7
100
AcDbVertex
100
AcDb2dVertex
 10
247.0
 20
-278.000005
 30
0.0
  0
VERTEX
  5
177
100
AcDbEntity
  8
IMPORTED
  6
CONTINUOUS
 62
     7
100
AcDbVertex
100
AcDb2dVertex
 10
15.0
 20
-278.000005
 30
0.0
  0
VERTEX
  5
178
100
AcDbEntity
  8
IMPORTED
  6
CONTINUOUS
 62
     7
100
AcDbVertex
100
AcDb2dVertex
 10
15.0
 20
-146.000005
 30
0.0
  0
SEQEND
  5
179
100
AcDbEntity
  8
IMPORTED
  6
CONTINUOUS
  0
CIRCLE
  5
17A
100
AcDbEntity
  8
IMPORTED
  6
CONTINUOUS
 62
     7
100
AcDbCircle
 10
42.0
 20
-253.000005
 30
0.0
 40
3.0
  0
LINE
  5
17B
100
AcDbEntity
  8
IMPORTED
  6
CONTINUOUS
 62
     7
100
AcDbLine
 10
41.0
 20
-253.000005
 30
0.0
 11
43.0
 21
-253.003565
 31
0.0
  0
LINE
  5
17C
100
AcDbEntity
  8
IMPORTED
  6
CONTINUOUS
 62
     7
100
AcDbLine
 10
42.0
 20
-252.000005
 30
0.0
 11
42.0
 21
-254.000005
 31
0.0
  0
CIRCLE
  5
17D
100
AcDbEntity
  8
IMPORTED
  6
CONTINUOUS
 62
     7
100
AcDbCircle
 10
42.0
 20
-171.000005
 30
0.0
 40
3.0
  0
LINE
  5
17E
100
AcDbEntity
  8
IMPORTED
  6
CONTINUOUS
 62
     7
100
AcDbLine
 10
41.0
 20
-171.000005
 30
0.0
 11
43.0
 21
-171.003565
 31
0.0
  0
LINE
  5
17F
100
AcDbEntity
  8
IMPORTED
  6
CONTINUOUS
 62
     7
100
AcDbLine
 10
42.0
 20
-170.000005
 30
0.0
 11
42.0
 21
-172.000005
 31
0.0
  0
CIRCLE
  5
180
100
AcDbEntity
  8
IMPORTED
  6
CONTINUOUS
 62
     7
100
AcDbCircle
 10
222.0
 20
-253.000005
 30
0.0
 40
3.0
  0
LINE
  5
181
100
AcDbEntity
  8
IMPORTED
  6
CONTINUOUS
 62
     7
100
AcDbLine
 10
221.0
 20
-253.000005
 30
0.0
 11
223.0
 21
-253.003565
 31
0.0
  0
LINE
  5
182
100
AcDbEntity
  8
IMPORTED
  6
CONTINUOUS
 62
     7
100
AcDbLine
 10
222.0
 20
-252.000005
 30
0.0
 11
222.0
 21
-254.000005
 31
0.0
  0
CIRCLE
  5
183
100
AcDbEntity
  8
IMPORTED
  6
CONTINUOUS
 62
     7
100
AcDbCircle
 10
222.0
 20
-171.000005
 30
0.0
 40
3.0
  0
LINE
  5
184
100
AcDbEntity
  8
IMPORTED
  6
CONTINUOUS
 62
     7
100
AcDbLine
 10
221.0
 20
-171.000005
 30
0.0
 11
223.0
 21
-171.003565
 31
0.0
  0
LINE
  5
185
100
AcDbEntity
  8
IMPORTED
  6
CONTINUOUS
 62
     7
100
AcDbLine
 10
222.0
 20
-170.000005
 30
0.0
 11
222.0
 21
-172.000005
 31
0.0
  0
POLYLINE
  5
186
100
AcDbEntity
  8
IMPORTED
  6
CONTINUOUS
 62
     7
100
AcDb2dPolyline
 66
     1
 10
0.0
 20
0.0
 30
0.0
 70
     1
 75
     5
  0
VERTEX
  5
187
100
AcDbEntity
  8
IMPORTED
  6
CONTINUOUS
 62
     7
100
AcDbVertex
100
AcDb2dVertex
 10
26.0
 20
-278.000005
 30
0.0
  0
VERTEX
  5
188
100
AcDbEntity
  8
IMPORTED
  6
CONTINUOUS
 62
     7
100
AcDbVertex
100
AcDb2dVertex
 10
53.0
 20
-278.000005
 30
0.0
  0
VERTEX
  5
189
100
AcDbEntity
  8
IMPORTED
  6
CONTINUOUS
 62
     7
100
AcDbVertex
100
AcDb2dVertex
 10
53.0
 20
-284.000005
 30
0.0
  0
VERTEX
  5
18A
100
AcDbEntity
  8
IMPORTED
  6
CONTINUOUS
 62
     7
100
AcDbVertex
100
AcDb2dVertex
 10
26.0
 20
-284.000005
 30
0.0
  0
VERTEX
  5
18B
100
AcDbEntity
  8
IMPORTED
  6
CONTINUOUS
 62
     7
100
AcDbVertex
100
AcDb2dVertex
 10
26.0
 20
-278.000005
 30
0.0
  0
SEQEND
  5
18C
100
AcDbEntity
  8
IMPORTED
  6
CONTINUOUS
  0
POLYLINE
  5
18D
100
AcDbEntity
  8
IMPORTED
  6
CONTINUOUS
 62
     7
100
AcDb2dPolyline
 66
     1
 10
0.0
 20
0.0
 30
0.0
 70
     1
 75
     5
  0
VERTEX
  5
18E
100
AcDbEntity
  8
IMPORTED
  6
CONTINUOUS
 62
     7
100
AcDbVertex
100
AcDb2dVertex
 10
208.0
 20
-278.000005
 30
0.0
  0
VERTEX
  5
18F
100
AcDbEntity
  8
IMPORTED
  6
CONTINUOUS
 62
     7
100
AcDbVertex
100
AcDb2dVertex
 10
235.0
 20
-278.000005
 30
0.0
  0
VERTEX
  5
190
100
AcDbEntity
  8
IMPORTED
  6
CONTINUOUS
 62
     7
100
AcDbVertex
100
AcDb2dVertex
 10
235.0
 20
-284.000005
 30
0.0
  0
VERTEX
  5
191
100
AcDbEntity
  8
IMPORTED
  6
CONTINUOUS
 62
     7
100
AcDbVertex
100
AcDb2dVertex
 10
208.0
 20
-284.000005
 30
0.0
  0
VERTEX
  5
192
100
AcDbEntity
  8
IMPORTED
  6
CONTINUOUS
 62
     7
100
AcDbVertex
100
AcDb2dVertex
 10
208.0
 20
-278.000005
 30
0.0
  0
SEQEND
  5
193
100
AcDbEntity
  8
IMPORTED
  6
CONTINUOUS
  0
LWPOLYLINE
  5
194
100
AcDbEntity
  8
IMPORTED
  6
CONTINUOUS
 62
     7
100
AcDbPolyline
 90
       12
 70
   129
 10
-34.5
 20
-166.500005
 10
-34.5
 20
-166.500005
 42
-0.414214
 10
-32.5
 20
-164.500005
 10
-32.5
 20
-164.500005
 10
-15.0
 20
-164.500005
 10
-15.0
 20
-207.500005
 10
-32.5
 20
-207.500005
 10
-32.5
 20
-207.500005
 42
-0.414214
 10
-34.5
 20
-205.500005
 10
-34.5
 20
-205.500005
 10
-34.5
 20
-166.500005
 10
-34.5
 20
-166.500005
  0
LWPOLYLINE
  5
195
100
AcDbEntity
  8
IMPORTED
  6
CONTINUOUS
 62
     7
100
AcDbPolyline
 90
       12
 70
   129
 10
-25.0
 20
-224.500005
 10
-25.0
 20
-224.500005
 42
-0.414214
 10
-24.0
 20
-223.500005
 10
-24.0
 20
-223.500005
 10
-15.0
 20
-223.500005
 10
-15.0
 20
-236.500005
 10
-24.0
 20
-236.500005
 10
-24.0
 20
-236.500005
 42
-0.414214
 10
-25.0
 20
-235.500005
 10
-25.0
 20
-235.500005
 10
-25.0
 20
-224.500005
 10
-25.0
 20
-224.500005
  0
LINE
  5
196
100
AcDbEntity
  8
IMPORTED
  6
CONTINUOUS
 62
     7
100
AcDbLine
 10
-17.0
 20
-158.001005
 30
0.0
 11
-15.0
 21
-158.001005
 31
0.0
  0
LINE
  5
197
100
AcDbEntity
  8
IMPORTED
  6
CONTINUOUS
 62
     7
100
AcDbLine
 10
-17.0
 20
-263.000005
 30
0.0
 11
-15.0
 21
-263.000005
 31
0.0
  0
LINE
  5
198
100
AcDbEntity
  8
IMPORTED
  6
CONTINUOUS
 62
     7
100
AcDbLine
 10
-19.0
 20
-236.500005
 30
0.0
 11
-19.0
 21
-261.000005
 31
0.0
  0
ARC
  5
199
100
AcDbEntity
  8
IMPORTED
  6
CONTINUOUS
 62
     7
100
AcDbCircle
 10
-17.0
 20
-160.001005
 30
0.0
 40
2.0
100
AcDbArc
 50
90.0
 51
180.0
  0
ARC
  5
19A
100
AcDbEntity
  8
IMPORTED
  6
CONTINUOUS
 62
     7
100
AcDbCircle
 10
-17.0
 20
-261.000005
 30
0.0
 40
2.0
100
AcDbArc
 50
180.0
 51
270.0
  0
LINE
  5
19B
100
AcDbEntity
  8
IMPORTED
  6
CONTINUOUS
 62
     7
100
AcDbLine
 10
-19.0
 20
-223.500005
 30
0.0
 11
-19.0
 21
-207.500005
 31
0.0
  0
LINE
  5
19C
100
AcDbEntity
  8
IMPORTED
  6
CONTINUOUS
 62
     7
100
AcDbLine
 10
-19.0
 20
-164.500005
 30
0.0
 11
-19.0
 21
-160.001005
 31
0.0
  0
POLYLINE
  5
19D
100
AcDbEntity
  8
IMPORTED
  6
CONTINUOUS
 62
     7
100
AcDb2dPolyline
 66
     1
 10
0.0
 20
0.0
 30
0.0
 70
     1
 75
     5
  0
VERTEX
  5
19E
100
AcDbEntity
  8
IMPORTED
  6
CONTINUOUS
 62
     7
100
AcDbVertex
100
AcDb2dVertex
 10
247.0
 20
-254.000005
 30
0.0
  0
VERTEX
  5
19F
100
AcDbEntity
  8
IMPORTED
  6
CONTINUOUS
 62
     7
100
AcDbVertex
100
AcDb2dVertex
 10
252.5
 20
-254.000005
 30
0.0
  0
VERTEX
  5
1A0
100
AcDbEntity
  8
IMPORTED
  6
CONTINUOUS
 62
     7
100
AcDbVertex
100
AcDb2dVertex
 10
252.5
 20
-262.000005
 30
0.0
  0
VERTEX
  5
1A1
100
AcDbEntity
  8
IMPORTED
  6
CONTINUOUS
 62
     7
100
AcDbVertex
100
AcDb2dVertex
 10
247.0
 20
-262.000005
 30
0.0
  0
VERTEX
  5
1A2
100
AcDbEntity
  8
IMPORTED
  6
CONTINUOUS
 62
     7
100
AcDbVertex
100
AcDb2dVertex
 10
247.0
 20
-254.000005
 30
0.0
  0
SEQEND
  5
1A3
100
AcDbEntity
  8
IMPORTED
  6
CONTINUOUS
  0
POLYLINE
  5
1A4
100
AcDbEntity
  8
IMPORTED
  6
CONTINUOUS
 62
     7
100
AcDb2dPolyline
 66
     1
 10
0.0
 20
0.0
 30
0.0
 70
     1
 75
     5
  0
VERTEX
  5
1A5
100
AcDbEntity
  8
IMPORTED
  6
CONTINUOUS
 62
     7
100
AcDbVertex
100
AcDb2dVertex
 10
247.0
 20
-239.000005
 30
0.0
  0
VERTEX
  5
1A6
100
AcDbEntity
  8
IMPORTED
  6
CONTINUOUS
 62
     7
100
AcDbVertex
100
AcDb2dVertex
 10
252.5
 20
-239.000005
 30
0.0
  0
VERTEX
  5
1A7
100
AcDbEntity
  8
IMPORTED
  6
CONTINUOUS
 62
     7
100
AcDbVertex
100
AcDb2dVertex
 10
252.5
 20
-247.000005
 30
0.0
  0
VERTEX
  5
1A8
100
AcDbEntity
  8
IMPORTED
  6
CONTINUOUS
 62
     7
100
AcDbVertex
100
AcDb2dVertex
 10
247.0
 20
-247.000005
 30
0.0
  0
VERTEX
  5
1A9
100
AcDbEntity
  8
IMPORTED
  6
CONTINUOUS
 62
     7
100
AcDbVertex
100
AcDb2dVertex
 10
247.0
 20
-239.000005
 30
0.0
  0
SEQEND
  5
1AA
100
AcDbEntity
  8
IMPORTED
  6
CONTINUOUS
  0
LINE
  5
1AB
100
AcDbEntity
  8
IMPORTED
  6
CONTINUOUS
 62
     7
100
AcDbLine
 10
-34.5
 20
-174.000005
 30
0.0
 11
-34.5
 21
-95.000005
 31
0.0
  0
LINE
  5
1AC
100
AcDbEntity
  8
IMPORTED
  6
CONTINUOUS
 62
     7
100
AcDbLine
 10
-15.0
 20
-150.000005
 30
0.0
 11
-15.0
 21
-95.000005
 31
0.0
  0
LINE
  5
1AD
100
AcDbEntity
  8
IMPORTED
  6
CONTINUOUS
 62
     7
100
AcDbLine
 10
-15.0
 20
-103.000005
 30
0.0
 11
-34.5
 21
-103.000005
 31
0.0
  0
LINE
  5
1AE
100
AcDbEntity
  8
IMPORTED
  6
CONTINUOUS
 62
     7
100
AcDbLine
 10
-34.5
 20
-103.000005
 30
0.0
 11
-47.2
 21
-106.402965
 31
0.0
  0
LINE
  5
1AF
100
AcDbEntity
  8
IMPORTED
  6
CONTINUOUS
 62
     7
100
AcDbLine
 10
-34.5
 20
-103.000005
 30
0.0
 11
-47.2
 21
-99.597055
 31
0.0
  0
LINE
  5
1B0
100
AcDbEntity
  8
IMPORTED
  6
CONTINUOUS
 62
     7
100
AcDbLine
 10
-34.5
 20
-103.000005
 30
0.0
 11
-62.5
 21
-103.000005
 31
0.0
  0
LINE
  5
1B1
100
AcDbEntity
  8
IMPORTED
  6
CONTINUOUS
 62
     7
100
AcDbLine
 10
-15.0
 20
-103.000005
 30
0.0
 11
-2.30001
 21
-99.597055
 31
0.0
  0
LINE
  5
1B2
100
AcDbEntity
  8
IMPORTED
  6
CONTINUOUS
 62
     7
100
AcDbLine
 10
-15.0
 20
-103.000005
 30
0.0
 11
-2.30001
 21
-106.402965
 31
0.0
  0
LINE
  5
1B3
100
AcDbEntity
  8
IMPORTED
  6
CONTINUOUS
 62
     7
100
AcDbLine
 10
-15.0
 20
-103.000005
 30
0.0
 11
13.0
 21
-103.000005
 31
0.0
  0
INSERT
  5
1B4
100
AcDbEntity
  8
IMPORTED
100
AcDbBlockReference
  2
*G5
 10
-191.25
 20
-165.538565
 30
0.0
  0
LINE
  5
1B5
100
AcDbEntity
  8
IMPORTED
  6
CONTINUOUS
 62
     7
100
AcDbLine
 10
-15.0
 20
-150.000005
 30
0.0
 11
-15.0
 21
-95.000005
 31
0.0
  0
LINE
  5
1B6
100
AcDbEntity
  8
IMPORTED
  6
CONTINUOUS
 62
     7
100
AcDbLine
 10
247.0
 20
-150.000005
 30
0.0
 11
247.0
 21
-95.000005
 31
0.0
  0
LINE
  5
1B7
100
AcDbEntity
  8
IMPORTED
  6
CONTINUOUS
 62
     7
100
AcDbLine
 10
-15.0
 20
-103.000005
 30
0.0
 11
-2.30001
 21
-99.597055
 31
0.0
  0
LINE
  5
1B8
100
AcDbEntity
  8
IMPORTED
  6
CONTINUOUS
 62
     7
100
AcDbLine
 10
-15.0
 20
-103.000005
 30
0.0
 11
-2.30001
 21
-106.402965
 31
0.0
  0
LINE
  5
1B9
100
AcDbEntity
  8
IMPORTED
  6
CONTINUOUS
 62
     7
100
AcDbLine
 10
247.0
 20
-103.000005
 30
0.0
 11
234.3
 21
-106.402965
 31
0.0
  0
LINE
  5
1BA
100
AcDbEntity
  8
IMPORTED
  6
CONTINUOUS
 62
     7
100
AcDbLine
 10
247.0
 20
-103.000005
 30
0.0
 11
234.3
 21
-99.597055
 31
0.0
  0
LINE
  5
1BB
100
AcDbEntity
  8
IMPORTED
  6
CONTINUOUS
 62
     7
100
AcDbLine
 10
-15.0
 20
-103.000005
 30
0.0
 11
247.0
 21
-103.000005
 31
0.0
  0
INSERT
  5
1BC
100
AcDbEntity
  8
IMPORTED
100
AcDbBlockReference
  2
*G6
 10
-191.25
 20
-165.538565
 30
0.0
  0
LINE
  5
1BD
100
AcDbEntity
  8
IMPORTED
  6
CONTINUOUS
 62
     7
100
AcDbLine
 10
247.0
 20
-147.000005
 30
0.0
 11
247.0
 21
-95.000005
 31
0.0
  0
LINE
  5
1BE
100
AcDbEntity
  8
IMPORTED
  6
CONTINUOUS
 62
     7
100
AcDbLine
 10
252.5
 20
-239.000005
 30
0.0
 11
252.5
 21
-95.000005
 31
0.0
  0
LINE
  5
1BF
100
AcDbEntity
  8
IMPORTED
  6
CONTINUOUS
 62
     7
100
AcDbLine
 10
252.5
 20
-103.000005
 30
0.0
 11
247.0
 21
-103.000005
 31
0.0
  0
LINE
  5
1C0
100
AcDbEntity
  8
IMPORTED
  6
CONTINUOUS
 62
     7
100
AcDbLine
 10
247.0
 20
-103.000005
 30
0.0
 11
234.3
 21
-106.402965
 31
0.0
  0
LINE
  5
1C1
100
AcDbEntity
  8
IMPORTED
  6
CONTINUOUS
 62
     7
100
AcDbLine
 10
247.0
 20
-103.000005
 30
0.0
 11
234.3
 21
-99.597055
 31
0.0
  0
LINE
  5
1C2
100
AcDbEntity
  8
IMPORTED
  6
CONTINUOUS
 62
     7
100
AcDbLine
 10
247.0
 20
-103.000005
 30
0.0
 11
219.0
 21
-103.000005
 31
0.0
  0
LINE
  5
1C3
100
AcDbEntity
  8
IMPORTED
  6
CONTINUOUS
 62
     7
100
AcDbLine
 10
252.49999
 20
-103.000005
 30
0.0
 11
265.19998
 21
-99.597055
 31
0.0
  0
LINE
  5
1C4
100
AcDbEntity
  8
IMPORTED
  6
CONTINUOUS
 62
     7
100
AcDbLine
 10
252.49999
 20
-103.000005
 30
0.0
 11
265.19998
 21
-106.402965
 31
0.0
  0
LINE
  5
1C5
100
AcDbEntity
  8
IMPORTED
  6
CONTINUOUS
 62
     7
100
AcDbLine
 10
252.5
 20
-103.000005
 30
0.0
 11
287.05
 21
-103.000005
 31
0.0
  0
INSERT
  5
1C6
100
AcDbEntity
  8
IMPORTED
100
AcDbBlockReference
  2
*G7
 10
-191.25
 20
-165.538565
 30
0.0
  0
TEXT
  5
1C7
100
AcDbEntity
  8
IMPORTED
 62
     7
100
AcDbText
 10
144.46855
 20
-467.961865
 30
0.0
 40
11.02636
  1
102MkⅡ外形寸法図
100
AcDbText
  0
TEXT
  5
1C8
100
AcDbEntity
  8
IMPORTED
 62
     7
100
AcDbText
 10
0.0
 20
0.0
 30
0.0
 40
9.45116
  1
正 面 図
 72
     1
 11
-440.5
 21
54.906965
 31
0.0
100
AcDbText
 73
     3
  0
TEXT
  5
1C9
100
AcDbEntity
  8
IMPORTED
 62
     7
100
AcDbText
 10
0.0
 20
0.0
 30
0.0
 40
9.45116
  1
側 面 図
 72
     1
 11
119.0
 21
48.813945
 31
0.0
100
AcDbText
 73
     3
  0
LINE
  5
1CA
100
AcDbEntity
  8
IMPORTED
  6
CONTINUOUS
 62
     7
100
AcDbLine
 10
10.0
 20
-145.650005
 30
0.0
 11
15.0
 21
-146.000005
 31
0.0
  0
LINE
  5
1CB
100
AcDbEntity
  8
IMPORTED
  6
CONTINUOUS
 62
     7
100
AcDbLine
 10
10.0
 20
-278.350005
 30
0.0
 11
15.0
 21
-278.000005
 31
0.0
  0
POLYLINE
  5
1CC
100
AcDbEntity
  8
IMPORTED
  6
CONTINUOUS
 62
     7
100
AcDb2dPolyline
 66
     1
 10
0.0
 20
0.0
 30
0.0
 70
     1
 75
     5
  0
VERTEX
  5
1CD
100
AcDbEntity
  8
IMPORTED
  6
CONTINUOUS
 62
     7
100
AcDbVertex
100
AcDb2dVertex
 10
-226.0
 20
-146.650005
 30
0.0
  0
VERTEX
  5
1CE
100
AcDbEntity
  8
IMPORTED
  6
CONTINUOUS
 62
     7
100
AcDbVertex
100
AcDb2dVertex
 10
-202.0
 20
-146.650005
 30
0.0
  0
VERTEX
  5
1CF
100
AcDbEntity
  8
IMPORTED
  6
CONTINUOUS
 62
     7
100
AcDbVertex
100
AcDb2dVertex
 10
-202.0
 20
-279.350005
 30
0.0
  0
VERTEX
  5
1D0
100
AcDbEntity
  8
IMPORTED
  6
CONTINUOUS
 62
     7
100
AcDbVertex
100
AcDb2dVertex
 10
-226.0
 20
-279.350005
 30
0.0
  0
VERTEX
  5
1D1
100
AcDbEntity
  8
IMPORTED
  6
CONTINUOUS
 62
     7
100
AcDbVertex
100
AcDb2dVertex
 10
-226.0
 20
-146.650005
 30
0.0
  0
SEQEND
  5
1D2
100
AcDbEntity
  8
IMPORTED
  6
CONTINUOUS
  0
LINE
  5
1D3
100
AcDbEntity
  8
IMPORTED
  6
CONTINUOUS
 62
     7
100
AcDbLine
 10
-229.5
 20
-147.000005
 30
0.0
 11
-151.5
 21
-147.000005
 31
0.0
  0
LINE
  5
1D4
100
AcDbEntity
  8
IMPORTED
  6
CONTINUOUS
 62
     7
100
AcDbLine
 10
-229.5
 20
-278.999005
 30
0.0
 11
-151.5
 21
-278.999005
 31
0.0
  0
LINE
  5
1D5
100
AcDbEntity
  8
IMPORTED
  6
CONTINUOUS
 62
     7
100
AcDbLine
 10
-157.50001
 20
-147.000005
 30
0.0
 11
-154.09705
 21
-159.700005
 31
0.0
  0
LINE
  5
1D6
100
AcDbEntity
  8
IMPORTED
  6
CONTINUOUS
 62
     7
100
AcDbLine
 10
-157.5
 20
-147.000005
 30
0.0
 11
-160.90296
 21
-159.700005
 31
0.0
  0
LINE
  5
1D7
100
AcDbEntity
  8
IMPORTED
  6
CONTINUOUS
 62
     7
100
AcDbLine
 10
-157.5
 20
-278.999005
 30
0.0
 11
-160.90296
 21
-266.299015
 31
0.0
  0
LINE
  5
1D8
100
AcDbEntity
  8
IMPORTED
  6
CONTINUOUS
 62
     7
100
AcDbLine
 10
-157.50001
 20
-278.999005
 30
0.0
 11
-154.09705
 21
-266.299015
 31
0.0
  0
LINE
  5
1D9
100
AcDbEntity
  8
IMPORTED
  6
CONTINUOUS
 62
     7
100
AcDbLine
 10
-157.5
 20
-147.000005
 30
0.0
 11
-157.5
 21
-278.999005
 31
0.0
  0
INSERT
  5
1DA
100
AcDbEntity
  8
IMPORTED
100
AcDbBlockReference
  2
*G8
 10
-191.25
 20
-165.538565
 30
0.0
  0
ARC
  5
1DB
100
AcDbEntity
  8
IMPORTED
  6
CONTINUOUS
 62
     7
100
AcDbCircle
 10
-677.5
 20
-184.401005
 30
0.0
 40
3.5
100
AcDbArc
 50
90.0
 51
270.0
  0
ARC
  5
1DC
100
AcDbEntity
  8
IMPORTED
  6
CONTINUOUS
 62
     7
100
AcDbCircle
 10
-674.5
 20
-184.401005
 30
0.0
 40
3.5
100
AcDbArc
 50
270.0
 51
90.0
  0
LINE
  5
1DD
100
AcDbEntity
  8
IMPORTED
  6
CONTINUOUS
 62
     7
100
AcDbLine
 10
-674.5
 20
-180.901005
 30
0.0
 11
-677.5
 21
-180.901005
 31
0.0
  0
LINE
  5
1DE
100
AcDbEntity
  8
IMPORTED
  6
CONTINUOUS
 62
     7
100
AcDbLine
 10
-674.5
 20
-187.901005
 30
0.0
 11
-677.5
 21
-187.901005
 31
0.0
  0
ARC
  5
1DF
100
AcDbEntity
  8
IMPORTED
  6
CONTINUOUS
 62
     7
100
AcDbCircle
 10
-677.5
 20
-241.599005
 30
0.0
 40
3.5
100
AcDbArc
 50
90.0
 51
270.0
  0
LINE
  5
1E0
100
AcDbEntity
  8
IMPORTED
  6
CONTINUOUS
 62
     7
100
AcDbLine
 10
-674.5
 20
-238.099005
 30
0.0
 11
-677.5
 21
-238.099005
 31
0.0
  0
ARC
  5
1E1
100
AcDbEntity
  8
IMPORTED
  6
CONTINUOUS
 62
     7
100
AcDbCircle
 10
-674.5
 20
-241.599005
 30
0.0
 40
3.5
100
AcDbArc
 50
270.0
 51
90.0
  0
LINE
  5
1E2
100
AcDbEntity
  8
IMPORTED
  6
CONTINUOUS
 62
     7
100
AcDbLine
 10
-674.5
 20
-245.099005
 30
0.0
 11
-677.5
 21
-245.099005
 31
0.0
  0
POLYLINE
  5
1E3
100
AcDbEntity
  8
IMPORTED
  6
CONTINUOUS
 62
     7
100
AcDb2dPolyline
 66
     1
 10
0.0
 20
0.0
 30
0.0
 70
     1
 75
     5
  0
VERTEX
  5
1E4
100
AcDbEntity
  8
IMPORTED
  6
CONTINUOUS
 62
     7
100
AcDbVertex
100
AcDb2dVertex
 10
-685.0
 20
-146.650005
 30
0.0
  0
VERTEX
  5
1E5
100
AcDbEntity
  8
IMPORTED
  6
CONTINUOUS
 62
     7
100
AcDbVertex
100
AcDb2dVertex
 10
-661.0
 20
-146.650005
 30
0.0
  0
VERTEX
  5
1E6
100
AcDbEntity
  8
IMPORTED
  6
CONTINUOUS
 62
     7
100
AcDbVertex
100
AcDb2dVertex
 10
-661.0
 20
-279.350005
 30
0.0
  0
VERTEX
  5
1E7
100
AcDbEntity
  8
IMPORTED
  6
CONTINUOUS
 62
     7
100
AcDbVertex
100
AcDb2dVertex
 10
-685.0
 20
-279.350005
 30
0.0
  0
VERTEX
  5
1E8
100
AcDbEntity
  8
IMPORTED
  6
CONTINUOUS
 62
     7
100
AcDbVertex
100
AcDb2dVertex
 10
-685.0
 20
-146.650005
 30
0.0
  0
SEQEND
  5
1E9
100
AcDbEntity
  8
IMPORTED
  6
CONTINUOUS
  0
LINE
  5
1EA
100
AcDbEntity
  8
IMPORTED
  6
CONTINUOUS
 62
     7
100
AcDbLine
 10
-15.0
 20
-145.650005
 30
0.0
 11
-69.5
 21
-145.650005
 31
0.0
  0
LINE
  5
1EB
100
AcDbEntity
  8
IMPORTED
  6
CONTINUOUS
 62
     7
100
AcDbLine
 10
-15.0
 20
-278.350005
 30
0.0
 11
-69.5
 21
-278.350005
 31
0.0
  0
LINE
  5
1EC
100
AcDbEntity
  8
IMPORTED
  6
CONTINUOUS
 62
     7
100
AcDbLine
 10
-63.49999
 20
-145.650005
 30
0.0
 11
-60.09704
 21
-158.350005
 31
0.0
  0
LINE
  5
1ED
100
AcDbEntity
  8
IMPORTED
  6
CONTINUOUS
 62
     7
100
AcDbLine
 10
-63.5
 20
-145.650005
 30
0.0
 11
-66.90296
 21
-158.350005
 31
0.0
  0
LINE
  5
1EE
100
AcDbEntity
  8
IMPORTED
  6
CONTINUOUS
 62
     7
100
AcDbLine
 10
-63.5
 20
-278.350015
 30
0.0
 11
-66.90296
 21
-265.650025
 31
0.0
  0
LINE
  5
1EF
100
AcDbEntity
  8
IMPORTED
  6
CONTINUOUS
 62
     7
100
AcDbLine
 10
-63.49999
 20
-278.350015
 30
0.0
 11
-60.09704
 21
-265.650025
 31
0.0
  0
LINE
  5
1F0
100
AcDbEntity
  8
IMPORTED
  6
CONTINUOUS
 62
     7
100
AcDbLine
 10
-63.5
 20
-145.650005
 30
0.0
 11
-63.5
 21
-278.350005
 31
0.0
  0
INSERT
  5
1F1
100
AcDbEntity
  8
IMPORTED
100
AcDbBlockReference
  2
*G9
 10
-191.25
 20
-165.538565
 30
0.0
  0
ENDSEC
  0
SECTION
  2
OBJECTS
  0
DICTIONARY
  5
19
100
AcDbDictionary
  3
ACAD_GROUP
350
1A
  3
ACAD_MLINESTYLE
350
1B
  0
DICTIONARY
  5
1A
102
{ACAD_REACTORS
330
19
102
}
100
AcDbDictionary
  0
DICTIONARY
  5
1B
102
{ACAD_REACTORS
330
19
102
}
100
AcDbDictionary
  3
STANDARD
350
1C
  0
MLINESTYLE
  5
1C
102
{ACAD_REACTORS
330
1B
102
}
100
AcDbMlineStyle
  2
STANDARD
 70
     0
  3

 62
     0
 51
90.0
 52
90.0
 71
     2
 49
0.5
 62
   256
  6
BYLAYER
 49
-0.5
 62
   256
  6
BYLAYER
  0
ENDSEC
  0
EOF
