  0
SECTION
  2
HEADER
  9
$ACADVER
  1
AC1015
  9
$ACADMAINTVER
 70
     6
  9
$DWGCODEPAGE
  3
ANSI_932
  9
$INSBASE
 10
0.0
 20
0.0
 30
0.0
  9
$EXTMIN
 10
-0.272852
 20
-20.931711
 30
1.000000E+20
  9
$EXTMAX
 10
137.579888
 20
27.357159
 30
-1.000000E+20
  9
$LIMMIN
 10
-0.272852
 20
-20.931711
  9
$LIMMAX
 10
137.579888
 20
27.357159
  9
$ORTHOMODE
 70
     0
  9
$REGENMODE
 70
     1
  9
$FILLMODE
 70
     1
  9
$QTEXTMODE
 70
     0
  9
$MIRRTEXT
 70
     1
  9
$LTSCALE
 40
1.0
  9
$ATTMODE
 70
     1
  9
$TEXTSIZE
 40
0.2
  9
$TRACEWID
 40
0.05
  9
$TEXTSTYLE
  7
Standard
  9
$CLAYER
  8
0
  9
$CELTYPE
  6
Continuous
  9
$CECOLOR
 62
   256
  9
$CELTSCALE
 40
1.0
  9
$DISPSILH
 70
     0
  9
$DIMSCALE
 40
1.0
  9
$DIMASZ
 40
0.18
  9
$DIMEXO
 40
0.0625
  9
$DIMDLI
 40
0.38
  9
$DIMRND
 40
0.0
  9
$DIMDLE
 40
0.0
  9
$DIMEXE
 40
0.18
  9
$DIMTP
 40
0.0
  9
$DIMTM
 40
0.0
  9
$DIMTXT
 40
0.18
  9
$DIMCEN
 40
0.09
  9
$DIMTSZ
 40
0.0
  9
$DIMTOL
 70
     0
  9
$DIMLIM
 70
     0
  9
$DIMTIH
 70
     1
  9
$DIMTOH
 70
     1
  9
$DIMSE1
 70
     0
  9
$DIMSE2
 70
     0
  9
$DIMTAD
 70
     0
  9
$DIMZIN
 70
     0
  9
$DIMBLK
  1

  9
$DIMASO
 70
     1
  9
$DIMSHO
 70
     1
  9
$DIMPOST
  1

  9
$DIMAPOST
  1

  9
$DIMALT
 70
     0
  9
$DIMALTD
 70
     2
  9
$DIMALTF
 40
25.4
  9
$DIMLFAC
 40
1.0
  9
$DIMTOFL
 70
     0
  9
$DIMTVP
 40
0.0
  9
$DIMTIX
 70
     0
  9
$DIMSOXD
 70
     0
  9
$DIMSAH
 70
     0
  9
$DIMBLK1
  1

  9
$DIMBLK2
  1

  9
$DIMSTYLE
  2
Standard
  9
$DIMCLRD
 70
     0
  9
$DIMCLRE
 70
     0
  9
$DIMCLRT
 70
     0
  9
$DIMTFAC
 40
1.0
  9
$DIMGAP
 40
0.09
  9
$DIMJUST
 70
     0
  9
$DIMSD1
 70
     0
  9
$DIMSD2
 70
     0
  9
$DIMTOLJ
 70
     1
  9
$DIMTZIN
 70
     0
  9
$DIMALTZ
 70
     0
  9
$DIMALTTZ
 70
     0
  9
$DIMUPT
 70
     0
  9
$DIMDEC
 70
     4
  9
$DIMTDEC
 70
     4
  9
$DIMALTU
 70
     2
  9
$DIMALTTD
 70
     2
  9
$DIMTXSTY
  7
Standard
  9
$DIMAUNIT
 70
     0
  9
$DIMADEC
 70
     0
  9
$DIMALTRND
 40
0.0
  9
$DIMAZIN
 70
     0
  9
$DIMDSEP
 70
     0
  9
$DIMATFIT
 70
     3
  9
$DIMFRAC
 70
     0
  9
$DIMLDRBLK
  1

  9
$DIMLUNIT
 70
     2
  9
$DIMLWD
 70
     0
  9
$DIMLWE
 70
     0
  9
$DIMTMOVE
 70
     0
  9
$LUNITS
 70
     2
  9
$LUPREC
 70
     4
  9
$SKETCHINC
 40
0.1
  9
$FILLETRAD
 40
0.0
  9
$AUNITS
 70
     0
  9
$AUPREC
 70
     0
  9
$MENU
  1
acad
  9
$ELEVATION
 40
0.0
  9
$PELEVATION
 40
0.0
  9
$THICKNESS
 40
0.0
  9
$LIMCHECK
 70
     0
  9
$CHAMFERA
 40
0.0
  9
$CHAMFERB
 40
0.0
  9
$CHAMFERC
 40
0.0
  9
$CHAMFERD
 40
0.0
  9
$SKPOLY
 70
     0
  9
$TDCREATE
 40
0.000000000
  9
$TDUCREATE
 40
0.000000000
  9
$TDUPDATE
 40
0.000000000
  9
$TDUUPDATE
 40
0.000000000
  9
$TDINDWG
 40
0.0000000000
  9
$TDUSRTIMER
 40
0.0000000000
  9
$USRTIMER
 70
     1
  9
$ANGBASE
 50
0.0
  9
$ANGDIR
 70
     0
  9
$PDMODE
 70
     0
  9
$PDSIZE
 40
0.0
  9
$PLINEWID
 40
0.0
  9
$SPLFRAME
 70
     0
  9
$SPLINETYPE
 70
     6
  9
$SPLINESEGS
 70
     8
  9
$HANDSEED
  5
F9
  9
$SURFTAB1
 70
     6
  9
$SURFTAB2
 70
     6
  9
$SURFTYPE
 70
     6
  9
$SURFU
 70
     6
  9
$SURFV
 70
     6
  9
$UCSBASE
  2

  9
$UCSNAME
  2

  9
$UCSORG
 10
0.0
 20
0.0
 30
0.0
  9
$UCSXDIR
 10
1.0
 20
0.0
 30
0.0
  9
$UCSYDIR
 10
0.0
 20
1.0
 30
0.0
  9
$UCSORTHOREF
  2

  9
$UCSORTHOVIEW
 70
     0
  9
$UCSORGTOP
 10
0.0
 20
0.0
 30
0.0
  9
$UCSORGBOTTOM
 10
0.0
 20
0.0
 30
0.0
  9
$UCSORGLEFT
 10
0.0
 20
0.0
 30
0.0
  9
$UCSORGRIGHT
 10
0.0
 20
0.0
 30
0.0
  9
$UCSORGFRONT
 10
0.0
 20
0.0
 30
0.0
  9
$UCSORGBACK
 10
0.0
 20
0.0
 30
0.0
  9
$PUCSBASE
  2

  9
$PUCSNAME
  2

  9
$PUCSORG
 10
0.0
 20
0.0
 30
0.0
  9
$PUCSXDIR
 10
1.0
 20
0.0
 30
0.0
  9
$PUCSYDIR
 10
0.0
 20
1.0
 30
0.0
  9
$PUCSORTHOREF
  2

  9
$PUCSORTHOVIEW
 70
     0
  9
$PUCSORGTOP
 10
0.0
 20
0.0
 30
0.0
  9
$PUCSORGBOTTOM
 10
0.0
 20
0.0
 30
0.0
  9
$PUCSORGLEFT
 10
0.0
 20
0.0
 30
0.0
  9
$PUCSORGRIGHT
 10
0.0
 20
0.0
 30
0.0
  9
$PUCSORGFRONT
 10
0.0
 20
0.0
 30
0.0
  9
$PUCSORGBACK
 10
0.0
 20
0.0
 30
0.0
  9
$USERI1
 70
     0
  9
$USERI2
 70
     0
  9
$USERI3
 70
     0
  9
$USERI4
 70
     0
  9
$USERI5
 70
     0
  9
$USERR1
 40
0.0
  9
$USERR2
 40
0.0
  9
$USERR3
 40
0.0
  9
$USERR4
 40
0.0
  9
$USERR5
 40
0.0
  9
$WORLDVIEW
 70
     1
  9
$SHADEDGE
 70
     3
  9
$SHADEDIF
 70
    70
  9
$TILEMODE
 70
     1
  9
$MAXACTVP
 70
    16
  9
$PINSBASE
 10
0.0
 20
0.0
 30
0.0
  9
$PLIMCHECK
 70
     0
  9
$PEXTMIN
 10
1.000000E+20
 20
1.000000E+20
 30
1.000000E+20
  9
$PEXTMAX
 10
-1.000000E+20
 20
-1.000000E+20
 30
-1.000000E+20
  9
$PLIMMIN
 10
0.0
 20
0.0
  9
$PLIMMAX
 10
12.0
 20
9.0
  9
$UNITMODE
 70
     0
  9
$VISRETAIN
 70
     0
  9
$PLINEGEN
 70
     1
  9
$PSLTSCALE
 70
     0
  9
$TREEDEPTH
 70
  3020
  9
$CMLSTYLE
  2
Standard
  9
$CMLJUST
 70
     0
  9
$CMLSCALE
 40
1.0
  9
$PROXYGRAPHICS
 70
     0
  9
$MEASUREMENT
 70
     1
  9
$CELWEIGHT
370
     0
  9
$ENDCAPS
280
     0
  9
$JOINSTYLE
280
     0
  9
$LWDISPLAY
290
     0
  9
$INSUNITS
 70
     0
  9
$HYPERLINKBASE
  1

  9
$STYLESHEET
  1

  9
$XEDIT
290
     1
  9
$CEPSNTYPE
380
     0
  9
$PSTYLEMODE
290
     1
  9
$FINGERPRINTGUID
  2

  9
$VERSIONGUID
  2

  9
$EXTNAMES
290
     1
  9
$PSVPSCALE
 40
0.0
  0
ENDSEC
  0
SECTION
  2
CLASSES
  0
CLASS
  1
LWPOLYLINE
  2
AcDbPolyline
  3
AutoCAD 2000
 90
        0
280
     0
281
     1
  0
CLASS
  1
IMAGE
  2
AcDbRasterImage
  3
ISM
 90
      127
280
     0
281
     1
  0
CLASS
  1
OLE2FRAME
  2
AcDbOle2Frame
  3
AutoCAD 2000
 90
        0
280
     0
281
     1
  0
CLASS
  1
HATCH
  2
AcDbHatch
  3
AutoCAD 2000
 90
        0
280
     0
281
     1
  0
CLASS
  1
DICTIONARYVAR
  2
AcDbDictionaryVar
  3
AutoCAD 2000
 90
        0
280
     0
281
     0
  0
CLASS
  1
RASTERVARIABLES
  2
AcDbRasterVariables
  3
ISM
 90
        0
280
     0
281
     0
  0
CLASS
  1
IMAGEDEF
  2
AcDbRasterImageDef
  3
ISM
 90
        0
280
     0
281
     0
  0
CLASS
  1
IMAGEDEF_REACTOR
  2
AcDbRasterImageDefReactor
  3
ISM
 90
        1
280
     0
281
     0
  0
CLASS
  1
IDBUFFER
  2
AcDbIdBuffer
  3
AutoCAD 2000
 90
        0
280
     0
281
     0
  0
CLASS
  1
SPATIAL_FILTER
  2
AcDbSpatialFilter
  3
AutoCAD 2000
 90
        0
280
     0
281
     0
  0
CLASS
  1
XRECORD
  2
AcDbXrecord
  3
AutoCAD 2000
 90
        0
280
     0
281
     0
  0
CLASS
  1
SORTENTSTABLE
  2
AcDbSortentsTable
  3
AutoCAD 2000
 90
        0
280
     0
281
     0
  0
CLASS
  1
LAYER_INDEX
  2
AcDbLayerIndex
  3
AutoCAD 2000
 90
        0
280
     0
281
     0
  0
CLASS
  1
SPATIAL_INDEX
  2
AcDbSpatialIndex
  3
AutoCAD 2000
 90
        0
280
     0
281
     0
  0
CLASS
  1
OBJECT_PTR
  2
CAseDLPNTableRecord
  3
"ASE-LPNTableRecord"
 90
        1
280
     0
281
     0
  0
CLASS
  1
LAYOUT
  2
AcDbLayout
  3
AutoCAD 2000
 90
        0
280
     0
281
     0
  0
CLASS
  1
PLOTSETTINGS
  2
AcDbPlotSettings
  3
AutoCAD 2000
 90
        0
280
     0
281
     0
  0
CLASS
  1
ACDBDICTIONARYWDFLT
  2
AcDbDictionaryWithDefault
  3
AutoCAD 2000
 90
        0
280
     0
281
     0
  0
CLASS
  1
ACDBPLACEHOLDER
  2
AcDbPlaceHolder
  3
AutoCAD 2000
 90
        0
280
     0
281
     0
  0
CLASS
  1
VBA_PROJECT
  2
AcDbVbaProject
  3
acadvba
 90
        0
280
     0
281
     0
  0
CLASS
  1
WIPEOUT
  2
AcDbWipeout
  3
WipeOut|AutoCAD Express Tool|expresstools@autodesk.com
 90
      127
280
     0
281
     1
  0
CLASS
  1
WIPEOUTVARIABLES
  2
AcDbWipeoutVariables
  3
WipeOut|AutoCAD Express Tool|expresstools@autodesk.com
 90
        0
280
     0
281
     0
  0
CLASS
  1
RTEXT
  2
RText
  3
RText|AutoCAD Express Tool|expresstools@autodesk.com
 90
        0
280
     0
281
     1
  0
CLASS
  1
ARCALIGNEDTEXT
  2
AcDbArcAlignedText
  3
ATEXT|AutoCAD Express Tool|expresstools@autodesk.com
 90
        0
280
     0
281
     1
  0
ENDSEC
  0
SECTION
  2
TABLES
  0
TABLE
  2
VPORT
  5
7
100
AcDbSymbolTable
 70
     1
  0
VPORT
  5
15
100
AcDbSymbolTableRecord
100
AcDbViewportTableRecord
  2
*ACTIVE
 70
     0
 10
0.0
 20
0.0
 11
1.0
 21
1.0
 12
6.591288
 22
4.579184
 13
0.0
 23
0.0
 14
1.0
 24
1.0
 15
0.0
 25
0.0
 16
0.0
 26
0.0
 36
1.0
 17
0.0
 27
0.0
 37
0.0
 40
9.158369
 41
0.688564
 42
50.0
 43
0.0
 44
0.0
 50
0.0
 51
0.0
 71
     0
 72
   100
 73
     1
 74
     1
 75
     0
 76
     0
 77
     0
 78
     0
281
     0
 65
     0
110
0.0
120
0.0
130
0.0
111
1.0
121
0.0
131
0.0
112
0.0
122
1.0
132
0.0
345
0
346
0
 79
     0
146
0.0
  0
ENDTAB
  0
TABLE
  2
LTYPE
  5
4
100
AcDbSymbolTable
 70
     3
  0
LTYPE
  5
11
100
AcDbSymbolTableRecord
100
AcDbLinetypeTableRecord
  2
ByBlock
 70
    64
  3

 72
    65
 73
     0
 40
0.0
  0
LTYPE
  5
12
100
AcDbSymbolTableRecord
100
AcDbLinetypeTableRecord
  2
ByLayer
 70
    64
  3

 72
    65
 73
     0
 40
0.0
  0
LTYPE
  5
13
100
AcDbSymbolTableRecord
100
AcDbLinetypeTableRecord
  2
Continuous
 70
    64
  3
Solid line
 72
    65
 73
     0
 40
0.0
  0
ENDTAB
  0
TABLE
  2
LAYER
  5
2
100
AcDbSymbolTable
 70
     4
  0
LAYER
  5
14
100
AcDbSymbolTableRecord
100
AcDbLayerTableRecord
  2
0
 70
     0
 62
     7
  6
Continuous
290
     1
370
    -3
390
1D
  0
LAYER
  5
28
100
AcDbSymbolTableRecord
100
AcDbLayerTableRecord
  2
COMENT
 70
     4
 62
    -1
  6
Continuous
290
     1
370
    -3
390
1D
  0
LAYER
  5
3D
100
AcDbSymbolTableRecord
100
AcDbLayerTableRecord
  2
FIX-SILK_091020
 70
     4
 62
     3
  6
Continuous
290
     1
370
    -3
390
1D
  0
LAYER
  5
48
100
AcDbSymbolTableRecord
100
AcDbLayerTableRecord
  2
DR-07_080910
 70
     4
 62
   160
  6
Continuous
290
     1
370
    -3
390
1D
  0
ENDTAB
  0
TABLE
  2
STYLE
  5
3
100
AcDbSymbolTable
 70
     5
  0
STYLE
  5
17
100
AcDbSymbolTableRecord
100
AcDbTextStyleTableRecord
  2
Standard
 70
     0
 40
0.0
 41
1.0
 50
0.0
 71
     0
 42
0.0
  3
txt
  4

  0
STYLE
  5
24
100
AcDbSymbolTableRecord
100
AcDbTextStyleTableRecord
  2
STD
 70
     0
 40
0.0
 41
1.0
 50
0.0
 71
     0
 42
0.0
  3
txt
  4

  0
STYLE
  5
25
100
AcDbSymbolTableRecord
100
AcDbTextStyleTableRecord
  2
TATESTD
 70
     4
 40
0.0
 41
1.0
 50
0.0
 71
     0
 42
0.0
  3
txt
  4

  0
STYLE
  5
26
100
AcDbSymbolTableRecord
100
AcDbTextStyleTableRecord
  2
KANJISTD
 70
     0
 40
0.0
 41
1.0
 50
0.0
 71
     0
 42
0.0
  3
txt
  4
extfont
  0
STYLE
  5
27
100
AcDbSymbolTableRecord
100
AcDbTextStyleTableRecord
  2
KANJITATE
 70
     4
 40
0.0
 41
1.0
 50
0.0
 71
     0
 42
0.0
  3
txt
  4
extfont
  0
ENDTAB
  0
TABLE
  2
VIEW
  5
5
100
AcDbSymbolTable
 70
     0
  0
ENDTAB
  0
TABLE
  2
UCS
  5
6
100
AcDbSymbolTable
 70
     0
  0
ENDTAB
  0
TABLE
  2
APPID
  5
8
100
AcDbSymbolTable
 70
     1
  0
APPID
  5
16
100
AcDbSymbolTableRecord
100
AcDbRegAppTableRecord
  2
ACAD
 70
     0
  0
ENDTAB
  0
TABLE
  2
DIMSTYLE
  5
9
100
AcDbSymbolTable
 70
     1
100
AcDbDimStyleTable
 71
     0
  0
DIMSTYLE
105
18
100
AcDbSymbolTableRecord
100
AcDbDimStyleTableRecord
  2
Standard
 70
     0
  3

  4

 40
1.0
 41
0.18
 42
0.0625
 43
0.38
 44
0.18
 45
0.0
 46
0.0
 47
0.0
 48
0.0
 71
     0
 72
     0
 73
     1
 74
     1
 75
     0
 76
     0
 77
     0
 78
     0
 79
     0
140
0.18
141
0.09
142
0.0
143
25.4
144
1.0
145
0.0
146
1.0
147
0.09
148
0.0
170
     0
171
     2
172
     0
173
     0
174
     0
175
     0
176
     0
177
     0
178
     0
179
     0
271
     4
272
     4
273
     2
274
     2
275
     0
276
     0
277
     2
278
    46
279
     0
280
     0
281
     0
282
     0
283
     1
284
     0
285
     0
286
     0
288
     0
289
     3
340
17
341
0
342
0
343
0
344
0
371
    -2
372
    -2
  0
ENDTAB
  0
TABLE
  2
BLOCK_RECORD
  5
1
100
AcDbSymbolTable
 70
     1
  0
BLOCK_RECORD
  5
A
100
AcDbSymbolTableRecord
100
AcDbBlockTableRecord
  2
*MODEL_SPACE
340
20
  0
BLOCK_RECORD
  5
B
100
AcDbSymbolTableRecord
100
AcDbBlockTableRecord
  2
*PAPER_SPACE
340
21
  0
BLOCK_RECORD
  5
3E
100
AcDbSymbolTableRecord
100
AcDbBlockTableRecord
  2
AI9-BLK1
340
0
102
{BLKREFS
331
3F
102
}
  0
ENDTAB
  0
ENDSEC
  0
SECTION
  2
BLOCKS
  0
BLOCK
  5
D
100
AcDbEntity
  8
0
390
0
100
AcDbBlockBegin
  2
*MODEL_SPACE
 70
     0
 10
0.0
 20
0.0
 30
0.0
  3
*MODEL_SPACE
  1

  0
ENDBLK
  5
E
100
AcDbEntity
  8
0
390
0
100
AcDbBlockEnd
  0
BLOCK
  5
F
100
AcDbEntity
 67
     1
  8
0
390
0
100
AcDbBlockBegin
  2
*PAPER_SPACE
 70
     0
 10
0.0
 20
0.0
 30
0.0
  3
*PAPER_SPACE
  1

  0
ENDBLK
  5
10
100
AcDbEntity
 67
     1
  8
0
390
0
100
AcDbBlockEnd
  0
BLOCK
  5
40
100
AcDbEntity
  8
FIX-SILK_091020
390
0
 62
     7
100
AcDbBlockBegin
  2
AI9-BLK1
 70
     0
 10
0.0
 20
0.0
 30
0.0
  3
AI9-BLK1
  1

  0
HATCH
  5
41
100
AcDbEntity
  8
FIX-SILK_091020
390
0
 62
     7
100
AcDbHatch
 10
0.0
 20
0.0
 30
0.0
210
0.0
220
0.0
230
1.0
  2
SOLID
 70
     1
 71
     0
 91
        1
 92
        3
 72
     0
 73
     1
 93
        6
 10
2.4997612847222221
 20
-0.0499538845486111
 10
2.4997612847222221
 20
-0.3999755859375
 10
-2.4997612847222221
 20
-0.3999755859375
 10
-2.4997612847222221
 20
-0.2373670789930555
 10
-0.7000434027777778
 20
0.3999755859375
 10
-0.7000434027777778
 20
-0.0499538845486111
 97
        0
 75
     2
 76
     1
 98
        1
 10
0.0
 20
0.0
  0
ENDBLK
  5
42
100
AcDbEntity
  8
FIX-SILK_091020
390
0
100
AcDbBlockEnd
  0
ENDSEC
  0
SECTION
  2
ENTITIES
  0
SPLINE
  5
F8
100
AcDbEntity
  8
DR-07_080910
390
0
 62
     7
100
AcDbSpline
210
0.0
220
0.0
230
1.0
 70
     8
 71
     3
 72
    11
 73
     7
 74
     0
 42
0.00000001
 43
0.00000001
 40
0.0
 40
0.0
 40
0.0
 40
0.0
 40
1.0
 40
1.0
 40
1.0
 40
2.0
 40
2.0
 40
2.0
 40
2.0
 10
120.5494032118055401
 20
0.0685574001736111
 30
0.0
 10
120.9304307725694372
 20
-0.5401909722222221
 30
0.0
 10
121.5980902777777715
 20
-0.9098497178819444
 30
0.0
 10
122.3160481770833172
 20
-0.9095052083333333
 30
0.0
 10
123.0346950954861001
 20
-0.9095052083333333
 30
0.0
 10
123.7016655815972115
 20
-0.5395019531249999
 30
0.0
 10
124.0820041232638715
 20
0.0695909288194444
 30
0.0
  0
SPLINE
  5
F7
100
AcDbEntity
  8
DR-07_080910
390
0
 62
     7
100
AcDbSpline
210
0.0
220
0.0
230
1.0
 70
     8
 71
     3
 72
    11
 73
     7
 74
     0
 42
0.00000001
 43
0.00000001
 40
0.0
 40
0.0
 40
0.0
 40
0.0
 40
1.0
 40
1.0
 40
1.0
 40
2.0
 40
2.0
 40
2.0
 40
2.0
 10
13.5493882921006925
 20
0.0685574001736111
 30
0.0
 10
13.9300713433159711
 20
-0.5401909722222221
 30
0.0
 10
14.5973863389756939
 20
-0.9095052083333333
 30
0.0
 10
15.3153442382812486
 20
-0.9095052083333333
 30
0.0
 10
16.033302137586805
 20
-0.9095052083333333
 30
0.0
 10
16.7007893880208336
 20
-0.5401909722222221
 30
0.0
 10
17.0813001844618029
 20
0.0685574001736111
 30
0.0
  0
LINE
  5
F6
100
AcDbEntity
  8
DR-07_080910
390
0
 62
     7
100
AcDbLine
 10
125.014936
 20
15.092274
 30
0.0
 11
137.315305
 21
15.092274
 31
0.0
  0
LINE
  5
F5
100
AcDbEntity
  8
DR-07_080910
390
0
 62
     7
100
AcDbLine
 10
125.014936
 20
14.792206
 30
0.0
 11
137.315305
 21
14.792206
 31
0.0
  0
SPLINE
  5
F4
100
AcDbEntity
  8
DR-07_080910
390
0
 62
     7
100
AcDbSpline
210
0.0
220
0.0
230
1.0
 70
     8
 71
     3
 72
    17
 73
    13
 74
     0
 42
0.00000001
 43
0.00000001
 40
0.0
 40
0.0
 40
0.0
 40
0.0
 40
1.0
 40
1.0
 40
1.0
 40
2.0
 40
2.0
 40
2.0
 40
3.0
 40
3.0
 40
3.0
 40
4.0
 40
4.0
 40
4.0
 40
4.0
 10
8.815482584635415
 20
24.39024251302083
 30
0.0
 10
5.3359361436631936
 20
24.39024251302083
 30
0.0
 10
2.5156087239583331
 20
21.5697428385416643
 30
0.0
 10
2.5156087239583331
 20
18.0901963975694429
 30
0.0
 10
2.5156087239583331
 20
14.6109944661458329
 30
0.0
 10
5.3359361436631936
 20
11.7904947916666654
 30
0.0
 10
8.815482584635415
 20
11.7904947916666654
 30
0.0
 10
12.2950290256076382
 20
11.7904947916666654
 30
0.0
 10
15.1151841905381925
 20
14.6109944661458329
 30
0.0
 10
15.1151841905381925
 20
18.0901963975694429
 30
0.0
 10
15.1151841905381925
 20
21.5697428385416643
 30
0.0
 10
12.2950290256076382
 20
24.39024251302083
 30
0.0
 10
8.815482584635415
 20
24.39024251302083
 30
0.0
  0
SPLINE
  5
F3
100
AcDbEntity
  8
DR-07_080910
390
0
 62
     7
100
AcDbSpline
210
0.0
220
0.0
230
1.0
 70
     8
 71
     3
 72
    17
 73
    13
 74
     0
 42
0.00000001
 43
0.00000001
 40
0.0
 40
0.0
 40
0.0
 40
0.0
 40
1.0
 40
1.0
 40
1.0
 40
2.0
 40
2.0
 40
2.0
 40
3.0
 40
3.0
 40
3.0
 40
4.0
 40
4.0
 40
4.0
 40
4.0
 10
8.815482584635415
 20
26.5906249999999993
 30
0.0
 10
4.1210232204861104
 20
26.5906249999999993
 30
0.0
 10
0.3153984917534722
 20
22.784828016493055
 30
0.0
 10
0.3153984917534722
 20
18.0901963975694429
 30
0.0
 10
0.3153984917534722
 20
13.3959092881944439
 30
0.0
 10
4.1210232204861104
 20
9.5904568142361111
 30
0.0
 10
8.815482584635415
 20
9.5904568142361111
 30
0.0
 10
13.5099419487847214
 20
9.5904568142361111
 30
0.0
 10
17.3152221679687486
 20
13.3959092881944439
 30
0.0
 10
17.3152221679687486
 20
18.0901963975694429
 30
0.0
 10
17.3152221679687486
 20
22.784828016493055
 30
0.0
 10
13.5099419487847214
 20
26.5906249999999993
 30
0.0
 10
8.815482584635415
 20
26.5906249999999993
 30
0.0
  0
SPLINE
  5
F2
100
AcDbEntity
  8
DR-07_080910
390
0
 62
     7
100
AcDbSpline
210
0.0
220
0.0
230
1.0
 70
     8
 71
     3
 72
    17
 73
    13
 74
     0
 42
0.00000001
 43
0.00000001
 40
0.0
 40
0.0
 40
0.0
 40
0.0
 40
1.0
 40
1.0
 40
1.0
 40
2.0
 40
2.0
 40
2.0
 40
3.0
 40
3.0
 40
3.0
 40
4.0
 40
4.0
 40
4.0
 40
4.0
 10
8.815482584635415
 20
24.6903103298611093
 30
0.0
 10
5.1705715603298605
 20
24.6903103298611093
 30
0.0
 10
2.2157131618923609
 20
21.7354519314236079
 30
0.0
 10
2.2157131618923609
 20
18.0901963975694429
 30
0.0
 10
2.2157131618923609
 20
14.4452853732638875
 30
0.0
 10
5.1705715603298605
 20
11.4907714843749993
 30
0.0
 10
8.815482584635415
 20
11.4907714843749993
 30
0.0
 10
12.4603936089409704
 20
11.4907714843749993
 30
0.0
 10
15.41525200737847
 20
14.4452853732638875
 30
0.0
 10
15.41525200737847
 20
18.0901963975694429
 30
0.0
 10
15.41525200737847
 20
21.7354519314236079
 30
0.0
 10
12.4603936089409704
 20
24.6903103298611093
 30
0.0
 10
8.815482584635415
 20
24.6903103298611093
 30
0.0
  0
SPLINE
  5
F1
100
AcDbEntity
  8
DR-07_080910
390
0
 62
     7
100
AcDbSpline
210
0.0
220
0.0
230
1.0
 70
     8
 71
     3
 72
     8
 73
     4
 74
     0
 42
0.00000001
 43
0.00000001
 40
0.0
 40
0.0
 40
0.0
 40
0.0
 40
1.0
 40
1.0
 40
1.0
 40
1.0
 10
9.7149970160590264
 20
9.1357042100694432
 30
0.0
 10
14.3138549804687489
 20
9.5976915147569439
 30
0.0
 10
17.8151055230034707
 20
13.4682562934027761
 30
0.0
 10
17.8147610134548593
 20
18.0901963975694429
 30
0.0
  0
SPLINE
  5
F0
100
AcDbEntity
  8
DR-07_080910
390
0
 62
     7
100
AcDbSpline
210
0.0
220
0.0
230
1.0
 70
     8
 71
     3
 72
     8
 73
     4
 74
     0
 42
0.00000001
 43
0.00000001
 40
0.0
 40
0.0
 40
0.0
 40
0.0
 40
1.0
 40
1.0
 40
1.0
 40
1.0
 10
9.7149970160590264
 20
9.1357042100694432
 30
0.0
 10
9.2039171006944436
 20
9.0840277777777771
 30
0.0
 10
8.8153103298611111
 20
8.6540798611111107
 30
0.0
 10
8.8153103298611111
 20
8.1400716145833325
 30
0.0
  0
LINE
  5
EF
100
AcDbEntity
  8
DR-07_080910
390
0
 62
     7
100
AcDbLine
 10
0.981335
 20
14.792551
 30
0.0
 11
0.314882
 21
14.792551
 31
0.0
  0
LINE
  5
EE
100
AcDbEntity
  8
DR-07_080910
390
0
 62
     7
100
AcDbLine
 10
0.861791
 20
15.092274
 30
0.0
 11
0.314882
 21
15.092274
 31
0.0
  0
LINE
  5
ED
100
AcDbEntity
  8
DR-07_080910
390
0
 62
     7
100
AcDbLine
 10
0.315398
 20
17.592036
 30
0.0
 11
0.015331
 21
17.592036
 31
0.0
  0
LINE
  5
EC
100
AcDbEntity
  8
DR-07_080910
390
0
 62
     7
100
AcDbLine
 10
-0.184657
 20
17.39222
 30
0.0
 11
0.015331
 21
17.592036
 31
0.0
  0
LINE
  5
EB
100
AcDbEntity
  8
DR-07_080910
390
0
 62
     7
100
AcDbLine
 10
0.015331
 20
12.592169
 30
0.0
 11
0.015331
 21
17.592036
 31
0.0
  0
LINE
  5
EA
100
AcDbEntity
  8
DR-07_080910
390
0
 62
     7
100
AcDbLine
 10
-0.184657
 20
12.792329
 30
0.0
 11
0.015331
 21
12.592169
 31
0.0
  0
LINE
  5
E9
100
AcDbEntity
  8
DR-07_080910
390
0
 62
     7
100
AcDbLine
 10
-0.184657
 20
12.792673
 30
0.0
 11
-0.184657
 21
17.391876
 31
0.0
  0
LINE
  5
E8
100
AcDbEntity
  8
DR-07_080910
390
0
 62
     7
100
AcDbLine
 10
0.315398
 20
12.592169
 30
0.0
 11
0.015331
 21
12.592169
 31
0.0
  0
LINE
  5
E7
100
AcDbEntity
  8
DR-07_080910
390
0
 62
     7
100
AcDbLine
 10
8.81531
 20
0.692464
 30
0.0
 11
8.81531
 21
8.140072
 31
0.0
  0
SPLINE
  5
E6
100
AcDbEntity
  8
DR-07_080910
390
0
 62
     7
100
AcDbSpline
210
0.0
220
0.0
230
1.0
 70
     8
 71
     3
 72
    11
 73
     7
 74
     0
 42
0.00000001
 43
0.00000001
 40
0.0
 40
0.0
 40
0.0
 40
0.0
 40
1.0
 40
1.0
 40
1.0
 40
2.0
 40
2.0
 40
2.0
 40
2.0
 10
8.8153103298611111
 20
0.6924641927083333
 30
0.0
 10
8.8153103298611111
 20
0.5333007812499999
 30
0.0
 10
8.8781833224826379
 20
0.3806830512152777
 30
0.0
 10
8.9908379448784714
 20
0.2680284288194444
 30
0.0
 10
9.1031480577256936
 20
0.1557183159722222
 30
0.0
 10
9.2557657877604154
 20
0.0923285590277778
 30
0.0
 10
9.4151014539930546
 20
0.0923285590277778
 30
0.0
  0
LINE
  5
E5
100
AcDbEntity
  8
DR-07_080910
390
0
 62
     7
100
AcDbLine
 10
17.815106
 20
18.090196
 30
0.0
 11
17.815106
 21
26.492784
 31
0.0
  0
SPLINE
  5
E4
100
AcDbEntity
  8
DR-07_080910
390
0
 62
     7
100
AcDbSpline
210
0.0
220
0.0
230
1.0
 70
     8
 71
     3
 72
    11
 73
     7
 74
     0
 42
0.00000001
 43
0.00000001
 40
0.0
 40
0.0
 40
0.0
 40
0.0
 40
1.0
 40
1.0
 40
1.0
 40
2.0
 40
2.0
 40
2.0
 40
2.0
 10
18.4148966471354143
 20
27.0925754123263864
 30
0.0
 10
18.2557332356770807
 20
27.0925754123263864
 30
0.0
 10
18.1032877604166664
 20
27.0295301649305522
 30
0.0
 10
17.9908053927951386
 20
26.9168755425347186
 30
0.0
 10
17.8784952799479164
 20
26.8045654296874964
 30
0.0
 10
17.8151055230034707
 20
26.6519476996527764
 30
0.0
 10
17.8151055230034707
 20
26.4927842881944429
 30
0.0
  0
LINE
  5
E3
100
AcDbEntity
  8
DR-07_080910
390
0
 62
     7
100
AcDbLine
 10
127.567752
 20
0.092329
 30
0.0
 11
5.31561
 21
0.092329
 31
0.0
  0
SPLINE
  5
E2
100
AcDbEntity
  8
DR-07_080910
390
0
 62
     7
100
AcDbSpline
210
0.0
220
0.0
230
1.0
 70
     8
 71
     3
 72
    11
 73
     7
 74
     0
 42
0.00000001
 43
0.00000001
 40
0.0
 40
0.0
 40
0.0
 40
0.0
 40
1.0
 40
1.0
 40
1.0
 40
2.0
 40
2.0
 40
2.0
 40
2.0
 10
0.3153984917534722
 20
5.0925401475694443
 30
0.0
 10
0.3153984917534722
 20
3.7661783854166662
 30
0.0
 10
0.842153591579861
 20
2.4942491319444442
 30
0.0
 10
1.780080837673611
 20
1.5568386501736109
 30
0.0
 10
2.7176635742187498
 20
0.6190836588541666
 30
0.0
 10
3.9894205729166665
 20
0.0923285590277778
 30
0.0
 10
5.315610080295138
 20
0.0923285590277778
 30
0.0
  0
LINE
  5
E1
100
AcDbEntity
  8
DR-07_080910
390
0
 62
     7
100
AcDbLine
 10
0.315398
 20
5.09254
 30
0.0
 11
0.315398
 21
18.592491
 31
0.0
  0
LINE
  5
E0
100
AcDbEntity
  8
DR-07_080910
390
0
 62
     7
100
AcDbLine
 10
129.78157
 20
27.092575
 30
0.0
 11
8.815483
 21
27.092575
 31
0.0
  0
SPLINE
  5
DF
100
AcDbEntity
  8
DR-07_080910
390
0
 62
     7
100
AcDbSpline
210
0.0
220
0.0
230
1.0
 70
     8
 71
     3
 72
    11
 73
     7
 74
     0
 42
0.00000001
 43
0.00000001
 40
0.0
 40
0.0
 40
0.0
 40
0.0
 40
1.0
 40
1.0
 40
1.0
 40
2.0
 40
2.0
 40
2.0
 40
2.0
 10
8.815482584635415
 20
27.0925754123263864
 30
0.0
 10
6.5611843532986107
 20
27.0925754123263864
 30
0.0
 10
4.399042426215277
 20
26.1971950954861086
 30
0.0
 10
2.8048244900173609
 20
24.602804904513885
 30
0.0
 10
1.2109510633680554
 20
23.0091037326388879
 30
0.0
 10
0.3153984917534722
 20
20.846961805555555
 30
0.0
 10
0.3153984917534722
 20
18.5924913194444414
 30
0.0
  0
SPLINE
  5
DE
100
AcDbEntity
  8
DR-07_080910
390
0
 62
     7
100
AcDbSpline
210
0.0
220
0.0
230
1.0
 70
     8
 71
     3
 72
    17
 73
    13
 74
     0
 42
0.00000001
 43
0.00000001
 40
0.0
 40
0.0
 40
0.0
 40
0.0
 40
1.0
 40
1.0
 40
1.0
 40
2.0
 40
2.0
 40
2.0
 40
3.0
 40
3.0
 40
3.0
 40
4.0
 40
4.0
 40
4.0
 40
4.0
 10
25.3152506510416657
 20
17.2905897352430529
 30
0.0
 10
24.100165473090275
 20
17.2905897352430529
 30
0.0
 10
23.1152126736111079
 20
16.3056369357638857
 30
0.0
 10
23.1152126736111079
 20
15.0902072482638872
 30
0.0
 10
23.1152126736111079
 20
13.8754665798611097
 30
0.0
 10
24.100165473090275
 20
12.8905137803819425
 30
0.0
 10
25.3152506510416657
 20
12.8905137803819425
 30
0.0
 10
26.5305080837673586
 20
12.8905137803819425
 30
0.0
 10
27.5154608832465257
 20
13.8754665798611097
 30
0.0
 10
27.5154608832465257
 20
15.0902072482638872
 30
0.0
 10
27.5154608832465257
 20
16.3056369357638857
 30
0.0
 10
26.5305080837673586
 20
17.2905897352430529
 30
0.0
 10
25.3152506510416657
 20
17.2905897352430529
 30
0.0
  0
SPLINE
  5
DD
100
AcDbEntity
  8
DR-07_080910
390
0
 62
     7
100
AcDbSpline
210
0.0
220
0.0
230
1.0
 70
     8
 71
     3
 72
    17
 73
    13
 74
     0
 42
0.00000001
 43
0.00000001
 40
0.0
 40
0.0
 40
0.0
 40
0.0
 40
1.0
 40
1.0
 40
1.0
 40
2.0
 40
2.0
 40
2.0
 40
3.0
 40
3.0
 40
3.0
 40
4.0
 40
4.0
 40
4.0
 40
4.0
 10
25.3152506510416657
 20
15.9156521267361093
 30
0.0
 10
24.8599812825520807
 20
15.9156521267361093
 30
0.0
 10
24.4904947916666629
 20
15.5463378906249989
 30
0.0
 10
24.4904947916666629
 20
15.0902072482638872
 30
0.0
 10
24.4904947916666629
 20
14.6347656249999982
 30
0.0
 10
24.8599812825520807
 20
14.2654513888888879
 30
0.0
 10
25.3152506510416657
 20
14.2654513888888879
 30
0.0
 10
25.7710367838541643
 20
14.2654513888888879
 30
0.0
 10
26.1403510199652764
 20
14.6347656249999982
 30
0.0
 10
26.1403510199652764
 20
15.0902072482638872
 30
0.0
 10
26.1403510199652764
 20
15.5463378906249989
 30
0.0
 10
25.7710367838541643
 20
15.9156521267361093
 30
0.0
 10
25.3152506510416657
 20
15.9156521267361093
 30
0.0
  0
SPLINE
  5
DC
100
AcDbEntity
  8
DR-07_080910
390
0
 62
     7
100
AcDbSpline
210
0.0
220
0.0
230
1.0
 70
     8
 71
     3
 72
    17
 73
    13
 74
     0
 42
0.00000001
 43
0.00000001
 40
0.0
 40
0.0
 40
0.0
 40
0.0
 40
1.0
 40
1.0
 40
1.0
 40
2.0
 40
2.0
 40
2.0
 40
3.0
 40
3.0
 40
3.0
 40
4.0
 40
4.0
 40
4.0
 40
4.0
 10
25.3152506510416657
 20
17.790473090277775
 30
0.0
 10
23.8240410698784686
 20
17.790473090277775
 30
0.0
 10
22.6153293185763857
 20
16.5815890842013864
 30
0.0
 10
22.6153293185763857
 20
15.0902072482638872
 30
0.0
 10
22.6153293185763857
 20
13.5991699218749993
 30
0.0
 10
23.8240410698784686
 20
12.3906304253472204
 30
0.0
 10
25.3152506510416657
 20
12.3906304253472204
 30
0.0
 10
26.8069769965277764
 20
12.3906304253472204
 30
0.0
 10
28.0153442382812479
 20
13.5991699218749993
 30
0.0
 10
28.0153442382812479
 20
15.0902072482638872
 30
0.0
 10
28.0153442382812479
 20
16.5815890842013864
 30
0.0
 10
26.8069769965277764
 20
17.790473090277775
 30
0.0
 10
25.3152506510416657
 20
17.790473090277775
 30
0.0
  0
LINE
  5
DB
100
AcDbEntity
  8
DR-07_080910
390
0
 62
     7
100
AcDbLine
 10
22.590869
 20
15.092274
 30
0.0
 11
17.276465
 21
15.092274
 31
0.0
  0
LINE
  5
DA
100
AcDbEntity
  8
DR-07_080910
390
0
 62
     7
100
AcDbLine
 10
30.815001
 20
15.092447
 30
0.0
 11
28.058236
 21
15.092447
 31
0.0
  0
LINE
  5
D9
100
AcDbEntity
  8
DR-07_080910
390
0
 62
     7
100
AcDbLine
 10
22.657015
 20
14.792551
 30
0.0
 11
17.178969
 21
14.792551
 31
0.0
  0
LINE
  5
D8
100
AcDbEntity
  8
DR-07_080910
390
0
 62
     7
100
AcDbLine
 10
30.815001
 20
14.792723
 30
0.0
 11
28.048934
 21
14.792723
 31
0.0
  0
SPLINE
  5
D7
100
AcDbEntity
  8
DR-07_080910
390
0
 62
     7
100
AcDbSpline
210
0.0
220
0.0
230
1.0
 70
     8
 71
     3
 72
     8
 73
     4
 74
     0
 42
0.00000001
 43
0.00000001
 40
0.0
 40
0.0
 40
0.0
 40
0.0
 40
1.0
 40
1.0
 40
1.0
 40
1.0
 10
127.5677517361111057
 20
0.0923285590277778
 30
0.0
 10
131.3614908854166572
 20
0.0923285590277778
 30
0.0
 10
134.9319878472222172
 20
1.8865342881944442
 30
0.0
 10
137.1967936197916629
 20
4.9302761501736105
 30
0.0
  0
SPLINE
  5
D6
100
AcDbEntity
  8
DR-07_080910
390
0
 62
     7
100
AcDbSpline
210
0.0
220
0.0
230
1.0
 70
     8
 71
     3
 72
     8
 73
     4
 74
     0
 42
0.00000001
 43
0.00000001
 40
0.0
 40
0.0
 40
0.0
 40
0.0
 40
1.0
 40
1.0
 40
1.0
 40
1.0
 10
137.1967936197916629
 20
4.930620659722222
 30
0.0
 10
137.2732747395833144
 20
5.033973524305555
 30
0.0
 10
137.31530490451388
 20
5.1597195095486104
 30
0.0
 10
137.31530490451388
 20
5.2885660807291659
 30
0.0
  0
LINE
  5
D5
100
AcDbEntity
  8
DR-07_080910
390
0
 62
     7
100
AcDbLine
 10
137.315305
 20
24.559397
 30
0.0
 11
137.315305
 21
5.288566
 31
0.0
  0
SPLINE
  5
D4
100
AcDbEntity
  8
DR-07_080910
390
0
 62
     7
100
AcDbSpline
210
0.0
220
0.0
230
1.0
 70
     8
 71
     3
 72
     8
 73
     4
 74
     0
 42
0.00000001
 43
0.00000001
 40
0.0
 40
0.0
 40
0.0
 40
0.0
 40
1.0
 40
1.0
 40
1.0
 40
1.0
 10
137.0252278645833144
 20
25.0727159288194414
 30
0.0
 10
134.8403483072916629
 20
26.3942545572916636
 30
0.0
 10
132.3350748697916686
 20
27.0925754123263864
 30
0.0
 10
129.7815700954861029
 20
27.0925754123263864
 30
0.0
  0
SPLINE
  5
D3
100
AcDbEntity
  8
DR-07_080910
390
0
 62
     7
100
AcDbSpline
210
0.0
220
0.0
230
1.0
 70
     8
 71
     3
 72
     8
 73
     4
 74
     0
 42
0.00000001
 43
0.00000001
 40
0.0
 40
0.0
 40
0.0
 40
0.0
 40
1.0
 40
1.0
 40
1.0
 40
1.0
 10
137.31530490451388
 20
24.5593967013888879
 30
0.0
 10
137.31530490451388
 20
24.769203016493055
 30
0.0
 10
137.2050618489583087
 20
24.96385091145833
 30
0.0
 10
137.0252278645833144
 20
25.0727159288194414
 30
0.0
  0
SPLINE
  5
D2
100
AcDbEntity
  8
DR-07_080910
390
0
 62
     7
100
AcDbSpline
210
0.0
220
0.0
230
1.0
 70
     8
 71
     3
 72
    11
 73
     7
 74
     0
 42
0.00000001
 43
0.00000001
 40
0.0
 40
0.0
 40
0.0
 40
0.0
 40
1.0
 40
1.0
 40
1.0
 40
2.0
 40
2.0
 40
2.0
 40
2.0
 10
33.8151624891493015
 20
20.2923014322916657
 30
0.0
 10
33.0989271375868057
 20
20.2923014322916657
 30
0.0
 10
32.4119750976562457
 20
20.0077365451388864
 30
0.0
 10
31.9057183159722193
 20
19.5013075086805543
 30
0.0
 10
31.3996337890624986
 20
18.99522298177083
 30
0.0
 10
31.1148966471354136
 20
18.3086154513888886
 30
0.0
 10
31.1148966471354136
 20
17.5920355902777779
 30
0.0
  0
SPLINE
  5
D1
100
AcDbEntity
  8
DR-07_080910
390
0
 62
     7
100
AcDbSpline
210
0.0
220
0.0
230
1.0
 70
     8
 71
     3
 72
    11
 73
     7
 74
     0
 42
0.00000001
 43
0.00000001
 40
0.0
 40
0.0
 40
0.0
 40
0.0
 40
1.0
 40
1.0
 40
1.0
 40
2.0
 40
2.0
 40
2.0
 40
2.0
 10
33.8151624891493015
 20
20.5923692491319414
 30
0.0
 10
33.0195176866319429
 20
20.5923692491319414
 30
0.0
 10
32.2566012912326343
 20
20.2761094835069429
 30
0.0
 10
31.6938449435763872
 20
19.7135253906249979
 30
0.0
 10
31.1310885959201364
 20
19.1505967881944414
 30
0.0
 10
30.81500108506944
 20
18.3878526475694422
 30
0.0
 10
30.81500108506944
 20
17.5920355902777779
 30
0.0
  0
LINE
  5
D0
100
AcDbEntity
  8
DR-07_080910
390
0
 62
     7
100
AcDbLine
 10
73.615489
 20
20.292301
 30
0.0
 11
33.815162
 21
20.292301
 31
0.0
  0
LINE
  5
CF
100
AcDbEntity
  8
DR-07_080910
390
0
 62
     7
100
AcDbLine
 10
73.615489
 20
20.592369
 30
0.0
 11
33.815162
 21
20.592369
 31
0.0
  0
LINE
  5
CE
100
AcDbEntity
  8
DR-07_080910
390
0
 62
     7
100
AcDbLine
 10
31.115241
 20
9.092641
 30
0.0
 11
31.115241
 21
17.592036
 31
0.0
  0
LINE
  5
CD
100
AcDbEntity
  8
DR-07_080910
390
0
 62
     7
100
AcDbLine
 10
30.815001
 20
9.092641
 30
0.0
 11
30.815001
 21
17.592036
 31
0.0
  0
SPLINE
  5
CC
100
AcDbEntity
  8
DR-07_080910
390
0
 62
     7
100
AcDbSpline
210
0.0
220
0.0
230
1.0
 70
     8
 71
     3
 72
    11
 73
     7
 74
     0
 42
0.00000001
 43
0.00000001
 40
0.0
 40
0.0
 40
0.0
 40
0.0
 40
1.0
 40
1.0
 40
1.0
 40
2.0
 40
2.0
 40
2.0
 40
2.0
 10
31.115241156684025
 20
9.0926405164930539
 30
0.0
 10
31.115241156684025
 20
8.3760606553819432
 30
0.0
 10
31.3996337890624986
 20
7.6894531249999991
 30
0.0
 10
31.9057183159722193
 20
7.1833685980902775
 30
0.0
 10
32.4119750976562457
 20
6.6769395616319436
 30
0.0
 10
33.0989271375868057
 20
6.3927191840277775
 30
0.0
 10
33.8151624891493015
 20
6.3927191840277775
 30
0.0
  0
SPLINE
  5
CB
100
AcDbEntity
  8
DR-07_080910
390
0
 62
     7
100
AcDbSpline
210
0.0
220
0.0
230
1.0
 70
     8
 71
     3
 72
    11
 73
     7
 74
     0
 42
0.00000001
 43
0.00000001
 40
0.0
 40
0.0
 40
0.0
 40
0.0
 40
1.0
 40
1.0
 40
1.0
 40
2.0
 40
2.0
 40
2.0
 40
2.0
 10
30.81500108506944
 20
9.0926405164930539
 30
0.0
 10
30.81500108506944
 20
8.2971679687499993
 30
0.0
 10
31.1310885959201364
 20
7.5340793185763886
 30
0.0
 10
31.6938449435763872
 20
6.971150716145833
 30
0.0
 10
32.2566012912326343
 20
6.408566623263888
 30
0.0
 10
33.0195176866319429
 20
6.0923068576388886
 30
0.0
 10
33.8151624891493015
 20
6.0923068576388886
 30
0.0
  0
LINE
  5
CA
100
AcDbEntity
  8
DR-07_080910
390
0
 62
     7
100
AcDbLine
 10
72.615723
 20
6.392719
 30
0.0
 11
33.815162
 21
6.392719
 31
0.0
  0
LINE
  5
C9
100
AcDbEntity
  8
DR-07_080910
390
0
 62
     7
100
AcDbLine
 10
72.615723
 20
6.092307
 30
0.0
 11
33.815162
 21
6.092307
 31
0.0
  0
SPLINE
  5
C8
100
AcDbEntity
  8
DR-07_080910
390
0
 62
     7
100
AcDbSpline
210
0.0
220
0.0
230
1.0
 70
     8
 71
     3
 72
     8
 73
     4
 74
     0
 42
0.00000001
 43
0.00000001
 40
0.0
 40
0.0
 40
0.0
 40
0.0
 40
1.0
 40
1.0
 40
1.0
 40
1.0
 10
72.61572265625
 20
6.3927191840277775
 30
0.0
 10
73.4439236111111029
 20
6.3927191840277775
 30
0.0
 10
74.1157172309027743
 20
7.064168294270833
 30
0.0
 10
74.1157172309027743
 20
7.8927137586805545
 30
0.0
  0
SPLINE
  5
C7
100
AcDbEntity
  8
DR-07_080910
390
0
 62
     7
100
AcDbSpline
210
0.0
220
0.0
230
1.0
 70
     8
 71
     3
 72
     8
 73
     4
 74
     0
 42
0.00000001
 43
0.00000001
 40
0.0
 40
0.0
 40
0.0
 40
0.0
 40
1.0
 40
1.0
 40
1.0
 40
1.0
 10
72.61572265625
 20
6.0923068576388886
 30
0.0
 10
73.6092881944444315
 20
6.0923068576388886
 30
0.0
 10
74.4154405381944315
 20
6.8981146918402771
 30
0.0
 10
74.4154405381944315
 20
7.8927137586805545
 30
0.0
  0
LINE
  5
C6
100
AcDbEntity
  8
DR-07_080910
390
0
 62
     7
100
AcDbLine
 10
74.115717
 20
7.892714
 30
0.0
 11
74.115717
 21
19.792763
 31
0.0
  0
LINE
  5
C5
100
AcDbEntity
  8
DR-07_080910
390
0
 62
     7
100
AcDbLine
 10
74.415441
 20
7.892714
 30
0.0
 11
74.415441
 21
19.792074
 31
0.0
  0
LINE
  5
C4
100
AcDbEntity
  8
DR-07_080910
390
0
 62
     7
100
AcDbLine
 10
75.714931
 20
8.892136
 30
0.0
 11
75.714931
 21
19.792763
 31
0.0
  0
LINE
  5
C3
100
AcDbEntity
  8
DR-07_080910
390
0
 62
     7
100
AcDbLine
 10
122.315359
 20
8.392253
 30
0.0
 11
76.215158
 21
8.392253
 31
0.0
  0
SPLINE
  5
C2
100
AcDbEntity
  8
DR-07_080910
390
0
 62
     7
100
AcDbSpline
210
0.0
220
0.0
230
1.0
 70
     8
 71
     3
 72
    11
 73
     7
 74
     0
 42
0.00000001
 43
0.00000001
 40
0.0
 40
0.0
 40
0.0
 40
0.0
 40
1.0
 40
1.0
 40
1.0
 40
2.0
 40
2.0
 40
2.0
 40
2.0
 10
75.7149305555555543
 20
8.8921359592013882
 30
0.0
 10
75.7149305555555543
 20
8.7598442925347211
 30
0.0
 10
75.7679850260416572
 20
8.6323757595486104
 30
0.0
 10
75.86169162326388
 20
8.5383246527777779
 30
0.0
 10
75.9553982204861029
 20
8.444618055555555
 30
0.0
 10
76.0821777343749943
 20
8.3922526041666661
 30
0.0
 10
76.2151584201388772
 20
8.3922526041666661
 30
0.0
  0
LINE
  5
C1
100
AcDbEntity
  8
DR-07_080910
390
0
 62
     7
100
AcDbLine
 10
75.415207
 20
8.89248
 30
0.0
 11
75.415207
 21
19.792074
 31
0.0
  0
LINE
  5
C0
100
AcDbEntity
  8
DR-07_080910
390
0
 62
     7
100
AcDbLine
 10
122.315359
 20
8.092529
 30
0.0
 11
76.215158
 21
8.092529
 31
0.0
  0
SPLINE
  5
BF
100
AcDbEntity
  8
DR-07_080910
390
0
 62
     7
100
AcDbSpline
210
0.0
220
0.0
230
1.0
 70
     8
 71
     3
 72
    11
 73
     7
 74
     0
 42
0.00000001
 43
0.00000001
 40
0.0
 40
0.0
 40
0.0
 40
0.0
 40
1.0
 40
1.0
 40
1.0
 40
2.0
 40
2.0
 40
2.0
 40
2.0
 10
75.4152072482638829
 20
8.8924804687499996
 30
0.0
 10
75.4152072482638829
 20
8.6802625868055543
 30
0.0
 10
75.499267578125
 20
8.4766574435763875
 30
0.0
 10
75.64947374131944
 20
8.3267957899305554
 30
0.0
 10
75.79967990451388
 20
8.17658962673611
 30
0.0
 10
76.0029405381944372
 20
8.092529296875
 30
0.0
 10
76.2151584201388772
 20
8.092529296875
 30
0.0
  0
SPLINE
  5
BE
100
AcDbEntity
  8
DR-07_080910
390
0
 62
     7
100
AcDbSpline
210
0.0
220
0.0
230
1.0
 70
     8
 71
     3
 72
     8
 73
     4
 74
     0
 42
0.00000001
 43
0.00000001
 40
0.0
 40
0.0
 40
0.0
 40
0.0
 40
1.0
 40
1.0
 40
1.0
 40
1.0
 10
74.1157172309027743
 20
19.792762586805555
 30
0.0
 10
74.1157172309027743
 20
20.0683702256944443
 30
0.0
 10
73.8910970052083229
 20
20.2923014322916657
 30
0.0
 10
73.6154893663194372
 20
20.2923014322916657
 30
0.0
  0
LINE
  5
BD
100
AcDbEntity
  8
DR-07_080910
390
0
 62
     7
100
AcDbLine
 10
122.315359
 20
20.292301
 30
0.0
 11
76.215158
 21
20.292301
 31
0.0
  0
SPLINE
  5
BC
100
AcDbEntity
  8
DR-07_080910
390
0
 62
     7
100
AcDbSpline
210
0.0
220
0.0
230
1.0
 70
     8
 71
     3
 72
    11
 73
     7
 74
     0
 42
0.00000001
 43
0.00000001
 40
0.0
 40
0.0
 40
0.0
 40
0.0
 40
1.0
 40
1.0
 40
1.0
 40
2.0
 40
2.0
 40
2.0
 40
2.0
 10
76.2151584201388772
 20
20.2923014322916657
 30
0.0
 10
76.0821777343749943
 20
20.2923014322916657
 30
0.0
 10
75.9553982204861029
 20
20.239935980902775
 30
0.0
 10
75.86169162326388
 20
20.1462293836805522
 30
0.0
 10
75.7679850260416572
 20
20.0521782769097214
 30
0.0
 10
75.7149305555555543
 20
19.9250542534722221
 30
0.0
 10
75.7149305555555543
 20
19.792762586805555
 30
0.0
  0
SPLINE
  5
BB
100
AcDbEntity
  8
DR-07_080910
390
0
 62
     7
100
AcDbSpline
210
0.0
220
0.0
230
1.0
 70
     8
 71
     3
 72
     8
 73
     4
 74
     0
 42
0.00000001
 43
0.00000001
 40
0.0
 40
0.0
 40
0.0
 40
0.0
 40
1.0
 40
1.0
 40
1.0
 40
1.0
 10
74.4154405381944315
 20
19.7920735677083321
 30
0.0
 10
74.4154405381944315
 20
20.2340793185763879
 30
0.0
 10
74.0571506076388886
 20
20.5923692491319414
 30
0.0
 10
73.6154893663194372
 20
20.5923692491319414
 30
0.0
  0
LINE
  5
BA
100
AcDbEntity
  8
DR-07_080910
390
0
 62
     7
100
AcDbLine
 10
122.315359
 20
20.592369
 30
0.0
 11
76.215158
 21
20.592369
 31
0.0
  0
SPLINE
  5
B9
100
AcDbEntity
  8
DR-07_080910
390
0
 62
     7
100
AcDbSpline
210
0.0
220
0.0
230
1.0
 70
     8
 71
     3
 72
    11
 73
     7
 74
     0
 42
0.00000001
 43
0.00000001
 40
0.0
 40
0.0
 40
0.0
 40
0.0
 40
1.0
 40
1.0
 40
1.0
 40
2.0
 40
2.0
 40
2.0
 40
2.0
 10
76.2151584201388772
 20
20.5923692491319414
 30
0.0
 10
76.0029405381944372
 20
20.5923692491319414
 30
0.0
 10
75.79967990451388
 20
20.50796440972222
 30
0.0
 10
75.64947374131944
 20
20.3581027560763879
 30
0.0
 10
75.499267578125
 20
20.2075520833333329
 30
0.0
 10
75.4152072482638829
 20
20.0046359592013872
 30
0.0
 10
75.4152072482638829
 20
19.7920735677083321
 30
0.0
  0
SPLINE
  5
B8
100
AcDbEntity
  8
DR-07_080910
390
0
 62
     7
100
AcDbSpline
210
0.0
220
0.0
230
1.0
 70
     8
 71
     3
 72
     8
 73
     4
 74
     0
 42
0.00000001
 43
0.00000001
 40
0.0
 40
0.0
 40
0.0
 40
0.0
 40
1.0
 40
1.0
 40
1.0
 40
1.0
 10
125.0149359809027629
 20
17.5920355902777779
 30
0.0
 10
125.0149359809027629
 20
19.0834174262152771
 30
0.0
 10
123.8063964843749858
 20
20.2923014322916657
 30
0.0
 10
122.3153591579860944
 20
20.2923014322916657
 30
0.0
  0
SPLINE
  5
B7
100
AcDbEntity
  8
DR-07_080910
390
0
 62
     7
100
AcDbSpline
210
0.0
220
0.0
230
1.0
 70
     8
 71
     3
 72
     8
 73
     4
 74
     0
 42
0.00000001
 43
0.00000001
 40
0.0
 40
0.0
 40
0.0
 40
0.0
 40
1.0
 40
1.0
 40
1.0
 40
1.0
 10
125.3153483072916572
 20
17.5920355902777779
 30
0.0
 10
125.3153483072916572
 20
19.2494710286458321
 30
0.0
 10
123.9717610677083286
 20
20.5923692491319414
 30
0.0
 10
122.3153591579860944
 20
20.5923692491319414
 30
0.0
  0
SPLINE
  5
B6
100
AcDbEntity
  8
DR-07_080910
390
0
 62
     7
100
AcDbSpline
210
0.0
220
0.0
230
1.0
 70
     8
 71
     3
 72
     8
 73
     4
 74
     0
 42
0.00000001
 43
0.00000001
 40
0.0
 40
0.0
 40
0.0
 40
0.0
 40
1.0
 40
1.0
 40
1.0
 40
1.0
 10
122.3153591579860944
 20
8.3922526041666661
 30
0.0
 10
123.8063964843749858
 20
8.3922526041666661
 30
0.0
 10
125.0149359809027629
 20
9.6011366102430546
 30
0.0
 10
125.0149359809027629
 20
11.0921739366319443
 30
0.0
  0
SPLINE
  5
B5
100
AcDbEntity
  8
DR-07_080910
390
0
 62
     7
100
AcDbSpline
210
0.0
220
0.0
230
1.0
 70
     8
 71
     3
 72
     8
 73
     4
 74
     0
 42
0.00000001
 43
0.00000001
 40
0.0
 40
0.0
 40
0.0
 40
0.0
 40
1.0
 40
1.0
 40
1.0
 40
1.0
 10
122.3153591579860944
 20
8.092529296875
 30
0.0
 10
123.9717610677083286
 20
8.092529296875
 30
0.0
 10
125.3153483072916572
 20
9.4354275173611111
 30
0.0
 10
125.3153483072916572
 20
11.0921739366319443
 30
0.0
  0
LINE
  5
B4
100
AcDbEntity
  8
DR-07_080910
390
0
 62
     7
100
AcDbLine
 10
125.014936
 20
17.592036
 30
0.0
 11
125.014936
 21
11.092174
 31
0.0
  0
LINE
  5
B3
100
AcDbEntity
  8
DR-07_080910
390
0
 62
     7
100
AcDbLine
 10
125.315348
 20
17.592036
 30
0.0
 11
125.315348
 21
11.092174
 31
0.0
  0
LINE
  5
B2
100
AcDbEntity
  8
DR-07_080910
390
0
 62
     7
100
AcDbLine
 10
75.714931
 20
15.092274
 30
0.0
 11
74.115717
 21
15.092274
 31
0.0
  0
LINE
  5
B1
100
AcDbEntity
  8
DR-07_080910
390
0
 62
     7
100
AcDbLine
 10
75.714931
 20
14.792551
 30
0.0
 11
74.115717
 21
14.792551
 31
0.0
  0
SPLINE
  5
B0
100
AcDbEntity
  8
DR-07_080910
390
0
 62
     7
100
AcDbSpline
210
0.0
220
0.0
230
1.0
 70
     8
 71
     3
 72
    11
 73
     7
 74
     0
 42
0.00000001
 43
0.00000001
 40
0.0
 40
0.0
 40
0.0
 40
0.0
 40
1.0
 40
1.0
 40
1.0
 40
2.0
 40
2.0
 40
2.0
 40
2.0
 10
48.1147203233506886
 20
21.792640516493055
 30
0.0
 10
47.98208414713541
 20
21.792640516493055
 30
0.0
 10
47.8553046332465257
 20
21.7395860460069414
 30
0.0
 10
47.7615980360243029
 20
21.6458794487847186
 30
0.0
 10
47.6677191840277743
 20
21.5521728515624993
 30
0.0
 10
47.61483696831597
 20
21.4250488281249964
 30
0.0
 10
47.61483696831597
 20
21.2924126519097214
 30
0.0
  0
LINE
  5
AF
100
AcDbEntity
  8
DR-07_080910
390
0
 62
     7
100
AcDbLine
 10
57.11486
 20
21.792641
 30
0.0
 11
48.11472
 21
21.792641
 31
0.0
  0
SPLINE
  5
AE
100
AcDbEntity
  8
DR-07_080910
390
0
 62
     7
100
AcDbSpline
210
0.0
220
0.0
230
1.0
 70
     8
 71
     3
 72
     8
 73
     4
 74
     0
 42
0.00000001
 43
0.00000001
 40
0.0
 40
0.0
 40
0.0
 40
0.0
 40
1.0
 40
1.0
 40
1.0
 40
1.0
 10
57.6149156358506858
 20
21.2924126519097214
 30
0.0
 10
57.6149156358506858
 20
21.5683648003472186
 30
0.0
 10
57.39115668402777
 20
21.792640516493055
 30
0.0
 10
57.1148600260416615
 20
21.792640516493055
 30
0.0
  0
LINE
  5
AD
100
AcDbEntity
  8
DR-07_080910
390
0
 62
     7
100
AcDbLine
 10
47.614837
 20
21.292413
 30
0.0
 11
47.614837
 21
20.592369
 31
0.0
  0
LINE
  5
AC
100
AcDbEntity
  8
DR-07_080910
390
0
 62
     7
100
AcDbLine
 10
57.614916
 20
21.292413
 30
0.0
 11
57.614916
 21
20.592369
 31
0.0
  0
SPLINE
  5
AB
100
AcDbEntity
  8
DR-07_080910
390
0
 62
     7
100
AcDbSpline
210
0.0
220
0.0
230
1.0
 70
     8
 71
     3
 72
    17
 73
    13
 74
     0
 42
0.00000001
 43
0.00000001
 40
0.0
 40
0.0
 40
0.0
 40
0.0
 40
1.0
 40
1.0
 40
1.0
 40
2.0
 40
2.0
 40
2.0
 40
3.0
 40
3.0
 40
3.0
 40
4.0
 40
4.0
 40
4.0
 40
4.0
 10
94.3156901041666629
 20
17.5906575520833321
 30
0.0
 10
92.9348958333333286
 20
17.5906575520833321
 30
0.0
 10
91.8152398003472143
 20
16.4713460286458329
 30
0.0
 10
91.8152398003472143
 20
15.0902072482638872
 30
0.0
 10
91.8152398003472143
 20
13.7097574869791661
 30
0.0
 10
92.9348958333333286
 20
12.5907904730902764
 30
0.0
 10
94.3156901041666629
 20
12.5907904730902764
 30
0.0
 10
95.6964843749999972
 20
12.5907904730902764
 30
0.0
 10
96.8154513888888744
 20
13.7097574869791661
 30
0.0
 10
96.8154513888888744
 20
15.0902072482638872
 30
0.0
 10
96.8154513888888744
 20
16.4713460286458329
 30
0.0
 10
95.6964843749999972
 20
17.5906575520833321
 30
0.0
 10
94.3156901041666629
 20
17.5906575520833321
 30
0.0
  0
SPLINE
  5
AA
100
AcDbEntity
  8
DR-07_080910
390
0
 62
     7
100
AcDbSpline
210
0.0
220
0.0
230
1.0
 70
     8
 71
     3
 72
    17
 73
    13
 74
     0
 42
0.00000001
 43
0.00000001
 40
0.0
 40
0.0
 40
0.0
 40
0.0
 40
1.0
 40
1.0
 40
1.0
 40
2.0
 40
2.0
 40
2.0
 40
3.0
 40
3.0
 40
3.0
 40
4.0
 40
4.0
 40
4.0
 40
4.0
 10
109.0152235243055401
 20
15.6403889973958314
 30
0.0
 10
108.7113661024305458
 20
15.6403889973958314
 30
0.0
 10
108.4653862847222143
 20
15.3940646701388868
 30
0.0
 10
108.4653862847222143
 20
15.0902072482638872
 30
0.0
 10
108.4653862847222143
 20
14.7866943359374989
 30
0.0
 10
108.7113661024305458
 20
14.5403700086805543
 30
0.0
 10
109.0152235243055401
 20
14.5403700086805543
 30
0.0
 10
109.3190809461805486
 20
14.5403700086805543
 30
0.0
 10
109.5657497829861029
 20
14.7866943359374989
 30
0.0
 10
109.5657497829861029
 20
15.0902072482638872
 30
0.0
 10
109.5657497829861029
 20
15.3940646701388868
 30
0.0
 10
109.3190809461805486
 20
15.6403889973958314
 30
0.0
 10
109.0152235243055401
 20
15.6403889973958314
 30
0.0
  0
SPLINE
  5
A9
100
AcDbEntity
  8
DR-07_080910
390
0
 62
     7
100
AcDbSpline
210
0.0
220
0.0
230
1.0
 70
     8
 71
     3
 72
    11
 73
     7
 74
     0
 42
0.00000001
 43
0.00000001
 40
0.0
 40
0.0
 40
0.0
 40
0.0
 40
1.0
 40
1.0
 40
1.0
 40
2.0
 40
2.0
 40
2.0
 40
2.0
 10
112.51544053819444
 20
13.5905571831597207
 30
0.0
 10
113.3436414930555429
 20
13.5905571831597207
 30
0.0
 10
114.0154351128472143
 20
14.2620062934027771
 30
0.0
 10
114.0154351128472143
 20
15.0902072482638872
 30
0.0
 10
114.0154351128472143
 20
15.91909722222222
 30
0.0
 10
113.3436414930555429
 20
16.5905463324652764
 30
0.0
 10
112.51544053819444
 20
16.5905463324652764
 30
0.0
  0
LINE
  5
A8
100
AcDbEntity
  8
DR-07_080910
390
0
 62
     7
100
AcDbLine
 10
112.515441
 20
16.590546
 30
0.0
 11
105.515696
 21
16.590546
 31
0.0
  0
SPLINE
  5
A7
100
AcDbEntity
  8
DR-07_080910
390
0
 62
     7
100
AcDbSpline
210
0.0
220
0.0
230
1.0
 70
     8
 71
     3
 72
    14
 73
    10
 74
     0
 42
0.00000001
 43
0.00000001
 40
0.0
 40
0.0
 40
0.0
 40
0.0
 40
1.0
 40
1.0
 40
1.0
 40
2.0
 40
2.0
 40
2.0
 40
3.0
 40
3.0
 40
3.0
 40
3.0
 10
105.5156955295138772
 20
16.5905463324652764
 30
0.0
 10
104.9796386718749943
 20
16.5905463324652764
 30
0.0
 10
104.4842339409722172
 20
16.304603407118055
 30
0.0
 10
104.2162055121527686
 20
15.8405490451388875
 30
0.0
 10
103.9481770833333201
 20
15.37649468315972
 30
0.0
 10
103.9481770833333201
 20
14.8046088324652771
 30
0.0
 10
104.2162055121527686
 20
14.3405544704861097
 30
0.0
 10
104.4842339409722172
 20
13.8765001085069439
 30
0.0
 10
104.9796386718749943
 20
13.5905571831597207
 30
0.0
 10
105.5156955295138772
 20
13.5905571831597207
 30
0.0
  0
LINE
  5
A6
100
AcDbEntity
  8
DR-07_080910
390
0
 62
     7
100
AcDbLine
 10
105.515696
 20
13.590557
 30
0.0
 11
112.515441
 21
13.590557
 31
0.0
  0
SPLINE
  5
A5
100
AcDbEntity
  8
DR-07_080910
390
0
 62
     7
100
AcDbSpline
210
0.0
220
0.0
230
1.0
 70
     8
 71
     3
 72
    17
 73
    13
 74
     0
 42
0.00000001
 43
0.00000001
 40
0.0
 40
0.0
 40
0.0
 40
0.0
 40
1.0
 40
1.0
 40
1.0
 40
2.0
 40
2.0
 40
2.0
 40
3.0
 40
3.0
 40
3.0
 40
4.0
 40
4.0
 40
4.0
 40
4.0
 10
94.3156901041666629
 20
17.890380859375
 30
0.0
 10
92.7688422309027629
 20
17.890380859375
 30
0.0
 10
91.5155164930555429
 20
16.636710611979165
 30
0.0
 10
91.5155164930555429
 20
15.0902072482638872
 30
0.0
 10
91.5155164930555429
 20
13.5440483940972207
 30
0.0
 10
92.7688422309027629
 20
12.2903781467013875
 30
0.0
 10
94.3156901041666629
 20
12.2903781467013875
 30
0.0
 10
95.8618489583333258
 20
12.2903781467013875
 30
0.0
 10
97.1151746961805458
 20
13.5440483940972207
 30
0.0
 10
97.1151746961805458
 20
15.0902072482638872
 30
0.0
 10
97.1151746961805458
 20
16.636710611979165
 30
0.0
 10
95.8618489583333258
 20
17.890380859375
 30
0.0
 10
94.3156901041666629
 20
17.890380859375
 30
0.0
  0
SPLINE
  5
A4
100
AcDbEntity
  8
DR-07_080910
390
0
 62
     7
100
AcDbSpline
210
0.0
220
0.0
230
1.0
 70
     8
 71
     3
 72
    11
 73
     7
 74
     0
 42
0.00000001
 43
0.00000001
 40
0.0
 40
0.0
 40
0.0
 40
0.0
 40
1.0
 40
1.0
 40
1.0
 40
2.0
 40
2.0
 40
2.0
 40
2.0
 10
112.51544053819444
 20
13.3907416449652761
 30
0.0
 10
113.4538845486111001
 20
13.3907416449652761
 30
0.0
 10
114.2152506510416572
 20
14.1517632378472218
 30
0.0
 10
114.2152506510416572
 20
15.0902072482638872
 30
0.0
 10
114.2152506510416572
 20
16.0293402777777771
 30
0.0
 10
113.4538845486111001
 20
16.7903618706597193
 30
0.0
 10
112.51544053819444
 20
16.7903618706597193
 30
0.0
  0
LINE
  5
A3
100
AcDbEntity
  8
DR-07_080910
390
0
 62
     7
100
AcDbLine
 10
112.515441
 20
16.790362
 30
0.0
 11
103.115842
 21
16.790362
 31
0.0
  0
SPLINE
  5
A2
100
AcDbEntity
  8
DR-07_080910
390
0
 62
     7
100
AcDbSpline
210
0.0
220
0.0
230
1.0
 70
     8
 71
     3
 72
    11
 73
     7
 74
     0
 42
0.00000001
 43
0.00000001
 40
0.0
 40
0.0
 40
0.0
 40
0.0
 40
1.0
 40
1.0
 40
1.0
 40
2.0
 40
2.0
 40
2.0
 40
2.0
 10
103.11584201388888
 20
16.7903618706597193
 30
0.0
 10
102.17739800347222
 20
16.7903618706597193
 30
0.0
 10
101.4167209201388857
 20
16.0307183159722193
 30
0.0
 10
101.41534288194444
 20
15.0929633246527768
 30
0.0
 10
101.4139648437499943
 20
14.1548638237847211
 30
0.0
 10
102.17257486979166
 20
13.3931532118055543
 30
0.0
 10
103.1103298611110972
 20
13.3907416449652761
 30
0.0
  0
LINE
  5
A1
100
AcDbEntity
  8
DR-07_080910
390
0
 62
     7
100
AcDbLine
 10
103.11033
 20
13.390742
 30
0.0
 11
112.515441
 21
13.390742
 31
0.0
  0
SPLINE
  5
A0
100
AcDbEntity
  8
DR-07_080910
390
0
 62
     7
100
AcDbSpline
210
0.0
220
0.0
230
1.0
 70
     8
 71
     3
 72
    11
 73
     7
 74
     0
 42
0.00000001
 43
0.00000001
 40
0.0
 40
0.0
 40
0.0
 40
0.0
 40
1.0
 40
1.0
 40
1.0
 40
2.0
 40
2.0
 40
2.0
 40
2.0
 10
77.2156141493055515
 20
6.1922146267361109
 30
0.0
 10
77.0033962673610972
 20
6.1922146267361109
 30
0.0
 10
76.7994466145833314
 20
6.1081542968749991
 30
0.0
 10
76.6499294704861001
 20
5.9579481336805546
 30
0.0
 10
76.49972330729166
 20
5.8080864800347216
 30
0.0
 10
76.4156629774305429
 20
5.6044813368055548
 30
0.0
 10
76.4156629774305429
 20
5.3922634548611104
 30
0.0
  0
SPLINE
  5
9F
100
AcDbEntity
  8
DR-07_080910
390
0
 62
     7
100
AcDbSpline
210
0.0
220
0.0
230
1.0
 70
     8
 71
     3
 72
    11
 73
     7
 74
     0
 42
0.00000001
 43
0.00000001
 40
0.0
 40
0.0
 40
0.0
 40
0.0
 40
1.0
 40
1.0
 40
1.0
 40
2.0
 40
2.0
 40
2.0
 40
2.0
 10
77.2156141493055515
 20
6.0923068576388886
 30
0.0
 10
77.0295789930555515
 20
6.0923068576388886
 30
0.0
 10
76.8518120659722115
 20
6.0185818142361107
 30
0.0
 10
76.7208984374999972
 20
5.8876681857638884
 30
0.0
 10
76.5892957899305458
 20
5.7560655381944441
 30
0.0
 10
76.5155707465277715
 20
5.5779541015624998
 30
0.0
 10
76.5155707465277715
 20
5.3922634548611104
 30
0.0
  0
LINE
  5
9E
100
AcDbEntity
  8
DR-07_080910
390
0
 62
     7
100
AcDbLine
 10
76.515571
 20
5.392263
 30
0.0
 11
76.515571
 21
0.092329
 31
0.0
  0
LINE
  5
9D
100
AcDbEntity
  8
DR-07_080910
390
0
 62
     7
100
AcDbLine
 10
76.415663
 20
5.392263
 30
0.0
 11
76.415663
 21
0.092329
 31
0.0
  0
LINE
  5
9C
100
AcDbEntity
  8
DR-07_080910
390
0
 62
     7
100
AcDbLine
 10
137.315305
 20
6.192215
 30
0.0
 11
77.215614
 21
6.192215
 31
0.0
  0
LINE
  5
9B
100
AcDbEntity
  8
DR-07_080910
390
0
 62
     7
100
AcDbLine
 10
137.315305
 20
6.092307
 30
0.0
 11
77.215614
 21
6.092307
 31
0.0
  0
LINE
  5
9A
100
AcDbEntity
  8
DR-07_080910
390
0
 62
     7
100
AcDbLine
 10
79.865582
 20
-0.257693
 30
0.0
 11
79.865582
 21
0.092673
 31
0.0
  0
LINE
  5
99
100
AcDbEntity
  8
DR-07_080910
390
0
 62
     7
100
AcDbLine
 10
78.765218
 20
0.092673
 30
0.0
 11
78.765218
 21
-0.257693
 31
0.0
  0
LINE
  5
98
100
AcDbEntity
  8
DR-07_080910
390
0
 62
     7
100
AcDbLine
 10
79.865582
 20
-0.257693
 30
0.0
 11
78.765218
 21
-0.257693
 31
0.0
  0
SPLINE
  5
97
100
AcDbEntity
  8
DR-07_080910
390
0
 62
     7
100
AcDbSpline
210
0.0
220
0.0
230
1.0
 70
     8
 71
     3
 72
    11
 73
     7
 74
     0
 42
0.00000001
 43
0.00000001
 40
0.0
 40
0.0
 40
0.0
 40
0.0
 40
1.0
 40
1.0
 40
1.0
 40
2.0
 40
2.0
 40
2.0
 40
2.0
 10
48.1131700303819372
 20
21.80125325520833
 30
0.0
 10
47.9805338541666657
 20
21.80125325520833
 30
0.0
 10
47.8537543402777743
 20
21.7488878038194429
 30
0.0
 10
47.7600477430555515
 20
21.65518120659722
 30
0.0
 10
47.6661688910590229
 20
21.5611300998263857
 30
0.0
 10
47.6132866753472186
 20
21.4340060763888864
 30
0.0
 10
47.6132866753472186
 20
21.3017144097222193
 30
0.0
  0
LINE
  5
96
100
AcDbEntity
  8
DR-07_080910
390
0
 62
     7
100
AcDbLine
 10
57.11331
 20
21.801253
 30
0.0
 11
48.11317
 21
21.801253
 31
0.0
  0
SPLINE
  5
95
100
AcDbEntity
  8
DR-07_080910
390
0
 62
     7
100
AcDbSpline
210
0.0
220
0.0
230
1.0
 70
     8
 71
     3
 72
     8
 73
     4
 74
     0
 42
0.00000001
 43
0.00000001
 40
0.0
 40
0.0
 40
0.0
 40
0.0
 40
1.0
 40
1.0
 40
1.0
 40
1.0
 10
57.6133653428819414
 20
21.3017144097222193
 30
0.0
 10
57.6133653428819414
 20
21.57766655815972
 30
0.0
 10
57.3896063910590257
 20
21.80125325520833
 30
0.0
 10
57.11330973307291
 20
21.80125325520833
 30
0.0
  0
LINE
  5
94
100
AcDbEntity
  8
DR-07_080910
390
0
 62
     7
100
AcDbLine
 10
47.613287
 20
21.301714
 30
0.0
 11
47.613287
 21
20.601671
 31
0.0
  0
LINE
  5
93
100
AcDbEntity
  8
DR-07_080910
390
0
 62
     7
100
AcDbLine
 10
57.613365
 20
21.301714
 30
0.0
 11
57.613365
 21
20.601671
 31
0.0
  0
SPLINE
  5
92
100
AcDbEntity
  8
DR-07_080910
390
0
 62
     7
100
AcDbSpline
210
0.0
220
0.0
230
1.0
 70
     8
 71
     3
 72
    11
 73
     7
 74
     0
 42
0.00000001
 43
0.00000001
 40
0.0
 40
0.0
 40
0.0
 40
0.0
 40
1.0
 40
1.0
 40
1.0
 40
2.0
 40
2.0
 40
2.0
 40
2.0
 10
9.8875962999131932
 20
12.0054687499999986
 30
0.0
 10
9.7794203016493046
 20
12.1239800347222211
 30
0.0
 10
9.6199123806423597
 20
12.1825466579861104
 30
0.0
 10
9.4604044596354164
 20
12.1639431423611093
 30
0.0
 10
9.3008965386284714
 20
12.14533962673611
 30
0.0
 10
9.1596476236979161
 20
12.0509440104166661
 30
0.0
 10
9.0817884657118046
 20
11.9096950954861107
 30
0.0
  0
SPLINE
  5
91
100
AcDbEntity
  8
DR-07_080910
390
0
 62
     7
100
AcDbSpline
210
0.0
220
0.0
230
1.0
 70
     8
 71
     3
 72
    11
 73
     7
 74
     0
 42
0.00000001
 43
0.00000001
 40
0.0
 40
0.0
 40
0.0
 40
0.0
 40
1.0
 40
1.0
 40
1.0
 40
2.0
 40
2.0
 40
2.0
 40
2.0
 10
8.4565036349826386
 20
11.9096950954861107
 30
0.0
 10
8.3786444769965271
 20
12.0502549913194432
 30
0.0
 10
8.2377400716145832
 20
12.1446506076388872
 30
0.0
 10
8.0782321506076382
 20
12.1639431423611093
 30
0.0
 10
7.9183797200520827
 20
12.1825466579861104
 30
0.0
 10
7.7595608181423605
 20
12.1239800347222211
 30
0.0
 10
7.6510403103298605
 20
12.0054687499999986
 30
0.0
  0
SPLINE
  5
90
100
AcDbEntity
  8
DR-07_080910
390
0
 62
     7
100
AcDbSpline
210
0.0
220
0.0
230
1.0
 70
     8
 71
     3
 72
    11
 73
     7
 74
     0
 42
0.00000001
 43
0.00000001
 40
0.0
 40
0.0
 40
0.0
 40
0.0
 40
1.0
 40
1.0
 40
1.0
 40
2.0
 40
2.0
 40
2.0
 40
2.0
 10
14.0196438259548604
 20
14.7655069986979157
 30
0.0
 10
13.8546237521701379
 20
14.7658515082465271
 30
0.0
 10
13.6999389648437493
 20
14.684547254774305
 30
0.0
 10
13.6062323676215264
 20
14.5481214735243043
 30
0.0
 10
13.5132147894965264
 20
14.4116956922743036
 30
0.0
 10
13.4932332356770814
 20
14.23823513454861
 30
0.0
 10
13.5531778971354147
 20
14.0844116210937482
 30
0.0
  0
SPLINE
  5
8F
100
AcDbEntity
  8
DR-07_080910
390
0
 62
     7
100
AcDbSpline
210
0.0
220
0.0
230
1.0
 70
     8
 71
     3
 72
    11
 73
     7
 74
     0
 42
0.00000001
 43
0.00000001
 40
0.0
 40
0.0
 40
0.0
 40
0.0
 40
1.0
 40
1.0
 40
1.0
 40
2.0
 40
2.0
 40
2.0
 40
2.0
 10
14.6459621853298589
 20
16.0491495768229164
 30
0.0
 10
14.4867987738715271
 20
16.008841959635415
 30
0.0
 10
14.3576076931423593
 20
15.8927422417534707
 30
0.0
 10
14.3004191080729157
 20
15.7382297092013879
 30
0.0
 10
14.2432305230034704
 20
15.5840616861979147
 30
0.0
 10
14.2656236436631936
 20
15.4114624023437479
 30
0.0
 10
14.3600192599826375
 20
15.2771036783854157
 30
0.0
  0
SPLINE
  5
8E
100
AcDbEntity
  8
DR-07_080910
390
0
 62
     7
100
AcDbSpline
210
0.0
220
0.0
230
1.0
 70
     8
 71
     3
 72
    17
 73
    13
 74
     0
 42
0.00000001
 43
0.00000001
 40
0.0
 40
0.0
 40
0.0
 40
0.0
 40
1.0
 40
1.0
 40
1.0
 40
2.0
 40
2.0
 40
2.0
 40
3.0
 40
3.0
 40
3.0
 40
4.0
 40
4.0
 40
4.0
 40
4.0
 10
10.2693128797743043
 20
13.4667060004340264
 30
0.0
 10
9.9930162217881939
 20
13.4667060004340264
 30
0.0
 10
9.7690850151909707
 20
13.242774793836805
 30
0.0
 10
9.7690850151909707
 20
12.9666503906249986
 30
0.0
 10
9.7690850151909707
 20
12.6903537326388882
 30
0.0
 10
9.9930162217881939
 20
12.466422526041665
 30
0.0
 10
10.2693128797743043
 20
12.466422526041665
 30
0.0
 10
10.545265028211805
 20
12.466422526041665
 30
0.0
 10
10.768851725260415
 20
12.6903537326388882
 30
0.0
 10
10.768851725260415
 20
12.9666503906249986
 30
0.0
 10
10.768851725260415
 20
13.242774793836805
 30
0.0
 10
10.545265028211805
 20
13.4667060004340264
 30
0.0
 10
10.2693128797743043
 20
13.4667060004340264
 30
0.0
  0
SPLINE
  5
8D
100
AcDbEntity
  8
DR-07_080910
390
0
 62
     7
100
AcDbSpline
210
0.0
220
0.0
230
1.0
 70
     8
 71
     3
 72
    17
 73
    13
 74
     0
 42
0.00000001
 43
0.00000001
 40
0.0
 40
0.0
 40
0.0
 40
0.0
 40
1.0
 40
1.0
 40
1.0
 40
2.0
 40
2.0
 40
2.0
 40
3.0
 40
3.0
 40
3.0
 40
4.0
 40
4.0
 40
4.0
 40
4.0
 10
8.7693183051215264
 20
13.4667060004340264
 30
0.0
 10
8.4930216471354161
 20
13.4667060004340264
 30
0.0
 10
8.2690904405381929
 20
13.242774793836805
 30
0.0
 10
8.2690904405381929
 20
12.9666503906249986
 30
0.0
 10
8.2690904405381929
 20
12.6903537326388882
 30
0.0
 10
8.4930216471354161
 20
12.466422526041665
 30
0.0
 10
8.7693183051215264
 20
12.466422526041665
 30
0.0
 10
9.0452704535590271
 20
12.466422526041665
 30
0.0
 10
9.2688571506076389
 20
12.6903537326388882
 30
0.0
 10
9.2688571506076389
 20
12.9666503906249986
 30
0.0
 10
9.2688571506076389
 20
13.242774793836805
 30
0.0
 10
9.0452704535590271
 20
13.4667060004340264
 30
0.0
 10
8.7693183051215264
 20
13.4667060004340264
 30
0.0
  0
SPLINE
  5
8C
100
AcDbEntity
  8
DR-07_080910
390
0
 62
     7
100
AcDbSpline
210
0.0
220
0.0
230
1.0
 70
     8
 71
     3
 72
    14
 73
    10
 74
     0
 42
0.00000001
 43
0.00000001
 40
0.0
 40
0.0
 40
0.0
 40
0.0
 40
1.0
 40
1.0
 40
1.0
 40
2.0
 40
2.0
 40
2.0
 40
3.0
 40
3.0
 40
3.0
 40
3.0
 10
12.2681572808159718
 20
12.9321994357638879
 30
0.0
 10
12.2850382486979157
 20
13.1773179796006925
 30
0.0
 10
12.1207071940104161
 20
13.3984931098090261
 30
0.0
 10
11.8812730577256929
 20
13.4536146375868046
 30
0.0
 10
11.6418389214409714
 20
13.5090806749131929
 30
0.0
 10
11.3975816514756936
 20
13.3819566514756936
 30
0.0
 10
11.3055976019965261
 20
13.1540635850694425
 30
0.0
 10
11.2136135525173604
 20
12.9259982638888875
 30
0.0
 10
11.3007744683159714
 20
12.6648600260416657
 30
0.0
 10
11.5112698025173597
 20
12.5380805121527761
 30
0.0
  0
SPLINE
  5
8B
100
AcDbEntity
  8
DR-07_080910
390
0
 62
     7
100
AcDbSpline
210
0.0
220
0.0
230
1.0
 70
     8
 71
     3
 72
    17
 73
    13
 74
     0
 42
0.00000001
 43
0.00000001
 40
0.0
 40
0.0
 40
0.0
 40
0.0
 40
1.0
 40
1.0
 40
1.0
 40
2.0
 40
2.0
 40
2.0
 40
3.0
 40
3.0
 40
3.0
 40
4.0
 40
4.0
 40
4.0
 40
4.0
 10
7.2693237304687495
 20
13.4667060004340264
 30
0.0
 10
6.9930270724826382
 20
13.4667060004340264
 30
0.0
 10
6.7690958658854159
 20
13.242774793836805
 30
0.0
 10
6.7690958658854159
 20
12.9666503906249986
 30
0.0
 10
6.7690958658854159
 20
12.6903537326388882
 30
0.0
 10
6.9930270724826382
 20
12.466422526041665
 30
0.0
 10
7.2693237304687495
 20
12.466422526041665
 30
0.0
 10
7.5452758789062493
 20
12.466422526041665
 30
0.0
 10
7.7692070855034716
 20
12.6903537326388882
 30
0.0
 10
7.7692070855034716
 20
12.9666503906249986
 30
0.0
 10
7.7692070855034716
 20
13.242774793836805
 30
0.0
 10
7.5452758789062493
 20
13.4667060004340264
 30
0.0
 10
7.2693237304687495
 20
13.4667060004340264
 30
0.0
  0
SPLINE
  5
8A
100
AcDbEntity
  8
DR-07_080910
390
0
 62
     7
100
AcDbSpline
210
0.0
220
0.0
230
1.0
 70
     8
 71
     3
 72
    14
 73
    10
 74
     0
 42
0.00000001
 43
0.00000001
 40
0.0
 40
0.0
 40
0.0
 40
0.0
 40
1.0
 40
1.0
 40
1.0
 40
2.0
 40
2.0
 40
2.0
 40
3.0
 40
3.0
 40
3.0
 40
3.0
 10
6.0270222981770827
 20
12.5380805121527761
 30
0.0
 10
6.2375176323784718
 20
12.6648600260416657
 30
0.0
 10
6.3246785481770829
 20
12.9259982638888875
 30
0.0
 10
6.2326944986979163
 20
13.1547526041666654
 30
0.0
 10
6.1400214301215268
 20
13.382301161024305
 30
0.0
 10
5.8957641601562498
 20
13.5092529296874986
 30
0.0
 10
5.6563300238715275
 20
13.4536146375868046
 30
0.0
 10
5.4165513780381938
 20
13.3981486002604147
 30
0.0
 10
5.2529093424479161
 20
13.17628445095486
 30
0.0
 10
5.2704793294270829
 20
12.931510416666665
 30
0.0
  0
SPLINE
  5
89
100
AcDbEntity
  8
DR-07_080910
390
0
 62
     7
100
AcDbSpline
210
0.0
220
0.0
230
1.0
 70
     8
 71
     3
 72
    17
 73
    13
 74
     0
 42
0.00000001
 43
0.00000001
 40
0.0
 40
0.0
 40
0.0
 40
0.0
 40
1.0
 40
1.0
 40
1.0
 40
2.0
 40
2.0
 40
2.0
 40
3.0
 40
3.0
 40
3.0
 40
4.0
 40
4.0
 40
4.0
 40
4.0
 10
8.7693183051215264
 20
16.0646525065104164
 30
0.0
 10
8.4930216471354161
 20
16.0646525065104164
 30
0.0
 10
8.2690904405381929
 20
15.8407212999131932
 30
0.0
 10
8.2690904405381929
 20
15.5647691514756925
 30
0.0
 10
8.2690904405381929
 20
15.2884724934895821
 30
0.0
 10
8.4930216471354161
 20
15.0648857964409704
 30
0.0
 10
8.7693183051215264
 20
15.0648857964409704
 30
0.0
 10
9.0452704535590271
 20
15.0648857964409704
 30
0.0
 10
9.2688571506076389
 20
15.2884724934895821
 30
0.0
 10
9.2688571506076389
 20
15.5647691514756925
 30
0.0
 10
9.2688571506076389
 20
15.8407212999131932
 30
0.0
 10
9.0452704535590271
 20
16.0646525065104164
 30
0.0
 10
8.7693183051215264
 20
16.0646525065104164
 30
0.0
  0
SPLINE
  5
88
100
AcDbEntity
  8
DR-07_080910
390
0
 62
     7
100
AcDbSpline
210
0.0
220
0.0
230
1.0
 70
     8
 71
     3
 72
    17
 73
    13
 74
     0
 42
0.00000001
 43
0.00000001
 40
0.0
 40
0.0
 40
0.0
 40
0.0
 40
1.0
 40
1.0
 40
1.0
 40
2.0
 40
2.0
 40
2.0
 40
3.0
 40
3.0
 40
3.0
 40
4.0
 40
4.0
 40
4.0
 40
4.0
 10
10.2693128797743043
 20
16.0646525065104164
 30
0.0
 10
9.9930162217881939
 20
16.0646525065104164
 30
0.0
 10
9.7690850151909707
 20
15.8407212999131932
 30
0.0
 10
9.7690850151909707
 20
15.5647691514756925
 30
0.0
 10
9.7690850151909707
 20
15.2884724934895821
 30
0.0
 10
9.9930162217881939
 20
15.0648857964409704
 30
0.0
 10
10.2693128797743043
 20
15.0648857964409704
 30
0.0
 10
10.545265028211805
 20
15.0648857964409704
 30
0.0
 10
10.768851725260415
 20
15.2884724934895821
 30
0.0
 10
10.768851725260415
 20
15.5647691514756925
 30
0.0
 10
10.768851725260415
 20
15.8407212999131932
 30
0.0
 10
10.545265028211805
 20
16.0646525065104164
 30
0.0
 10
10.2693128797743043
 20
16.0646525065104164
 30
0.0
  0
SPLINE
  5
87
100
AcDbEntity
  8
DR-07_080910
390
0
 62
     7
100
AcDbSpline
210
0.0
220
0.0
230
1.0
 70
     8
 71
     3
 72
    17
 73
    13
 74
     0
 42
0.00000001
 43
0.00000001
 40
0.0
 40
0.0
 40
0.0
 40
0.0
 40
1.0
 40
1.0
 40
1.0
 40
2.0
 40
2.0
 40
2.0
 40
3.0
 40
3.0
 40
3.0
 40
4.0
 40
4.0
 40
4.0
 40
4.0
 10
11.7693074544270821
 20
16.0646525065104164
 30
0.0
 10
11.4930107964409718
 20
16.0646525065104164
 30
0.0
 10
11.2690795898437486
 20
15.8407212999131932
 30
0.0
 10
11.2690795898437486
 20
15.5647691514756925
 30
0.0
 10
11.2690795898437486
 20
15.2884724934895821
 30
0.0
 10
11.4930107964409718
 20
15.0648857964409704
 30
0.0
 10
11.7693074544270821
 20
15.0648857964409704
 30
0.0
 10
12.0452596028645829
 20
15.0648857964409704
 30
0.0
 10
12.2688462999131929
 20
15.2884724934895821
 30
0.0
 10
12.2688462999131929
 20
15.5647691514756925
 30
0.0
 10
12.2688462999131929
 20
15.8407212999131932
 30
0.0
 10
12.0452596028645829
 20
16.0646525065104164
 30
0.0
 10
11.7693074544270821
 20
16.0646525065104164
 30
0.0
  0
SPLINE
  5
86
100
AcDbEntity
  8
DR-07_080910
390
0
 62
     7
100
AcDbSpline
210
0.0
220
0.0
230
1.0
 70
     8
 71
     3
 72
    17
 73
    13
 74
     0
 42
0.00000001
 43
0.00000001
 40
0.0
 40
0.0
 40
0.0
 40
0.0
 40
1.0
 40
1.0
 40
1.0
 40
2.0
 40
2.0
 40
2.0
 40
3.0
 40
3.0
 40
3.0
 40
4.0
 40
4.0
 40
4.0
 40
4.0
 10
9.5189710828993039
 20
14.7655069986979157
 30
0.0
 10
9.243018934461805
 20
14.7655069986979157
 30
0.0
 10
9.0194322374131932
 20
14.5419203016493039
 30
0.0
 10
9.0194322374131932
 20
14.2656236436631936
 30
0.0
 10
9.0194322374131932
 20
13.9896714952256929
 30
0.0
 10
9.243018934461805
 20
13.76539577907986
 30
0.0
 10
9.5189710828993039
 20
13.76539577907986
 30
0.0
 10
9.7952677408854161
 20
13.76539577907986
 30
0.0
 10
10.0191989474826375
 20
13.9896714952256929
 30
0.0
 10
10.0191989474826375
 20
14.2656236436631936
 30
0.0
 10
10.0191989474826375
 20
14.5419203016493039
 30
0.0
 10
9.7952677408854161
 20
14.7655069986979157
 30
0.0
 10
9.5189710828993039
 20
14.7655069986979157
 30
0.0
  0
SPLINE
  5
85
100
AcDbEntity
  8
DR-07_080910
390
0
 62
     7
100
AcDbSpline
210
0.0
220
0.0
230
1.0
 70
     8
 71
     3
 72
    17
 73
    13
 74
     0
 42
0.00000001
 43
0.00000001
 40
0.0
 40
0.0
 40
0.0
 40
0.0
 40
1.0
 40
1.0
 40
1.0
 40
2.0
 40
2.0
 40
2.0
 40
3.0
 40
3.0
 40
3.0
 40
4.0
 40
4.0
 40
4.0
 40
4.0
 10
11.0189656575520818
 20
14.7655069986979157
 30
0.0
 10
10.7430135091145829
 20
14.7655069986979157
 30
0.0
 10
10.5194268120659711
 20
14.5419203016493039
 30
0.0
 10
10.5194268120659711
 20
14.2656236436631936
 30
0.0
 10
10.5194268120659711
 20
13.9896714952256929
 30
0.0
 10
10.7430135091145829
 20
13.76539577907986
 30
0.0
 10
11.0189656575520818
 20
13.76539577907986
 30
0.0
 10
11.2952623155381939
 20
13.76539577907986
 30
0.0
 10
11.5188490125868039
 20
13.9896714952256929
 30
0.0
 10
11.5188490125868039
 20
14.2656236436631936
 30
0.0
 10
11.5188490125868039
 20
14.5419203016493039
 30
0.0
 10
11.2952623155381939
 20
14.7655069986979157
 30
0.0
 10
11.0189656575520818
 20
14.7655069986979157
 30
0.0
  0
SPLINE
  5
84
100
AcDbEntity
  8
DR-07_080910
390
0
 62
     7
100
AcDbSpline
210
0.0
220
0.0
230
1.0
 70
     8
 71
     3
 72
    17
 73
    13
 74
     0
 42
0.00000001
 43
0.00000001
 40
0.0
 40
0.0
 40
0.0
 40
0.0
 40
1.0
 40
1.0
 40
1.0
 40
2.0
 40
2.0
 40
2.0
 40
3.0
 40
3.0
 40
3.0
 40
4.0
 40
4.0
 40
4.0
 40
4.0
 10
12.5189602322048597
 20
14.7655069986979157
 30
0.0
 10
12.2430080837673607
 20
14.7655069986979157
 30
0.0
 10
12.0187323676215261
 20
14.5419203016493039
 30
0.0
 10
12.0187323676215261
 20
14.2656236436631936
 30
0.0
 10
12.0187323676215261
 20
13.9896714952256929
 30
0.0
 10
12.2430080837673607
 20
13.76539577907986
 30
0.0
 10
12.5189602322048597
 20
13.76539577907986
 30
0.0
 10
12.7952568901909718
 20
13.76539577907986
 30
0.0
 10
13.0191880967881932
 20
13.9896714952256929
 30
0.0
 10
13.0191880967881932
 20
14.2656236436631936
 30
0.0
 10
13.0191880967881932
 20
14.5419203016493039
 30
0.0
 10
12.7952568901909718
 20
14.7655069986979157
 30
0.0
 10
12.5189602322048597
 20
14.7655069986979157
 30
0.0
  0
SPLINE
  5
83
100
AcDbEntity
  8
DR-07_080910
390
0
 62
     7
100
AcDbSpline
210
0.0
220
0.0
230
1.0
 70
     8
 71
     3
 72
    17
 73
    13
 74
     0
 42
0.00000001
 43
0.00000001
 40
0.0
 40
0.0
 40
0.0
 40
0.0
 40
1.0
 40
1.0
 40
1.0
 40
2.0
 40
2.0
 40
2.0
 40
3.0
 40
3.0
 40
3.0
 40
4.0
 40
4.0
 40
4.0
 40
4.0
 10
13.26930202907986
 20
16.0646525065104164
 30
0.0
 10
12.9930053710937496
 20
16.0646525065104164
 30
0.0
 10
12.7690741644965264
 20
15.8407212999131932
 30
0.0
 10
12.7690741644965264
 20
15.5647691514756925
 30
0.0
 10
12.7690741644965264
 20
15.2884724934895821
 30
0.0
 10
12.9930053710937496
 20
15.0648857964409704
 30
0.0
 10
13.26930202907986
 20
15.0648857964409704
 30
0.0
 10
13.5455986870659704
 20
15.0648857964409704
 30
0.0
 10
13.7688408745659707
 20
15.2884724934895821
 30
0.0
 10
13.7688408745659707
 20
15.5647691514756925
 30
0.0
 10
13.7688408745659707
 20
15.8407212999131932
 30
0.0
 10
13.5455986870659704
 20
16.0646525065104164
 30
0.0
 10
13.26930202907986
 20
16.0646525065104164
 30
0.0
  0
SPLINE
  5
82
100
AcDbEntity
  8
DR-07_080910
390
0
 62
     7
100
AcDbSpline
210
0.0
220
0.0
230
1.0
 70
     8
 71
     3
 72
    17
 73
    13
 74
     0
 42
0.00000001
 43
0.00000001
 40
0.0
 40
0.0
 40
0.0
 40
0.0
 40
1.0
 40
1.0
 40
1.0
 40
2.0
 40
2.0
 40
2.0
 40
3.0
 40
3.0
 40
3.0
 40
4.0
 40
4.0
 40
4.0
 40
4.0
 10
7.2693237304687495
 20
16.0646525065104164
 30
0.0
 10
6.9930270724826382
 20
16.0646525065104164
 30
0.0
 10
6.7690958658854159
 20
15.8407212999131932
 30
0.0
 10
6.7690958658854159
 20
15.5647691514756925
 30
0.0
 10
6.7690958658854159
 20
15.2884724934895821
 30
0.0
 10
6.9930270724826382
 20
15.0648857964409704
 30
0.0
 10
7.2693237304687495
 20
15.0648857964409704
 30
0.0
 10
7.5452758789062493
 20
15.0648857964409704
 30
0.0
 10
7.7692070855034716
 20
15.2884724934895821
 30
0.0
 10
7.7692070855034716
 20
15.5647691514756925
 30
0.0
 10
7.7692070855034716
 20
15.8407212999131932
 30
0.0
 10
7.5452758789062493
 20
16.0646525065104164
 30
0.0
 10
7.2693237304687495
 20
16.0646525065104164
 30
0.0
  0
SPLINE
  5
81
100
AcDbEntity
  8
DR-07_080910
390
0
 62
     7
100
AcDbSpline
210
0.0
220
0.0
230
1.0
 70
     8
 71
     3
 72
    17
 73
    13
 74
     0
 42
0.00000001
 43
0.00000001
 40
0.0
 40
0.0
 40
0.0
 40
0.0
 40
1.0
 40
1.0
 40
1.0
 40
2.0
 40
2.0
 40
2.0
 40
3.0
 40
3.0
 40
3.0
 40
4.0
 40
4.0
 40
4.0
 40
4.0
 10
5.7693291558159716
 20
16.0646525065104164
 30
0.0
 10
5.4930324978298604
 20
16.0646525065104164
 30
0.0
 10
5.269101291232638
 20
15.8407212999131932
 30
0.0
 10
5.269101291232638
 20
15.5647691514756925
 30
0.0
 10
5.269101291232638
 20
15.2884724934895821
 30
0.0
 10
5.4930324978298604
 20
15.0648857964409704
 30
0.0
 10
5.7693291558159716
 20
15.0648857964409704
 30
0.0
 10
6.0452813042534714
 20
15.0648857964409704
 30
0.0
 10
6.2688680013020823
 20
15.2884724934895821
 30
0.0
 10
6.2688680013020823
 20
15.5647691514756925
 30
0.0
 10
6.2688680013020823
 20
15.8407212999131932
 30
0.0
 10
6.0452813042534714
 20
16.0646525065104164
 30
0.0
 10
5.7693291558159716
 20
16.0646525065104164
 30
0.0
  0
SPLINE
  5
80
100
AcDbEntity
  8
DR-07_080910
390
0
 62
     7
100
AcDbSpline
210
0.0
220
0.0
230
1.0
 70
     8
 71
     3
 72
    17
 73
    13
 74
     0
 42
0.00000001
 43
0.00000001
 40
0.0
 40
0.0
 40
0.0
 40
0.0
 40
1.0
 40
1.0
 40
1.0
 40
2.0
 40
2.0
 40
2.0
 40
3.0
 40
3.0
 40
3.0
 40
4.0
 40
4.0
 40
4.0
 40
4.0
 10
8.0189765082465279
 20
14.7655069986979157
 30
0.0
 10
7.7430243598090271
 20
14.7655069986979157
 30
0.0
 10
7.5194376627604163
 20
14.5419203016493039
 30
0.0
 10
7.5194376627604163
 20
14.2656236436631936
 30
0.0
 10
7.5194376627604163
 20
13.9896714952256929
 30
0.0
 10
7.7430243598090271
 20
13.76539577907986
 30
0.0
 10
8.0189765082465279
 20
13.76539577907986
 30
0.0
 10
8.2952731662326382
 20
13.76539577907986
 30
0.0
 10
8.5192043728298597
 20
13.9896714952256929
 30
0.0
 10
8.5192043728298597
 20
14.2656236436631936
 30
0.0
 10
8.5192043728298597
 20
14.5419203016493039
 30
0.0
 10
8.2952731662326382
 20
14.7655069986979157
 30
0.0
 10
8.0189765082465279
 20
14.7655069986979157
 30
0.0
  0
SPLINE
  5
7F
100
AcDbEntity
  8
DR-07_080910
390
0
 62
     7
100
AcDbSpline
210
0.0
220
0.0
230
1.0
 70
     8
 71
     3
 72
    17
 73
    13
 74
     0
 42
0.00000001
 43
0.00000001
 40
0.0
 40
0.0
 40
0.0
 40
0.0
 40
1.0
 40
1.0
 40
1.0
 40
2.0
 40
2.0
 40
2.0
 40
3.0
 40
3.0
 40
3.0
 40
4.0
 40
4.0
 40
4.0
 40
4.0
 10
6.5189819335937491
 20
14.7655069986979157
 30
0.0
 10
6.2426852756076388
 20
14.7655069986979157
 30
0.0
 10
6.0194430881076384
 20
14.5419203016493039
 30
0.0
 10
6.0194430881076384
 20
14.2656236436631936
 30
0.0
 10
6.0194430881076384
 20
13.9896714952256929
 30
0.0
 10
6.2426852756076388
 20
13.76539577907986
 30
0.0
 10
6.5189819335937491
 20
13.76539577907986
 30
0.0
 10
6.7952785915798604
 20
13.76539577907986
 30
0.0
 10
7.0192097981770827
 20
13.9896714952256929
 30
0.0
 10
7.0192097981770827
 20
14.2656236436631936
 30
0.0
 10
7.0192097981770827
 20
14.5419203016493039
 30
0.0
 10
6.7952785915798604
 20
14.7655069986979157
 30
0.0
 10
6.5189819335937491
 20
14.7655069986979157
 30
0.0
  0
SPLINE
  5
7E
100
AcDbEntity
  8
DR-07_080910
390
0
 62
     7
100
AcDbSpline
210
0.0
220
0.0
230
1.0
 70
     8
 71
     3
 72
    17
 73
    13
 74
     0
 42
0.00000001
 43
0.00000001
 40
0.0
 40
0.0
 40
0.0
 40
0.0
 40
1.0
 40
1.0
 40
1.0
 40
2.0
 40
2.0
 40
2.0
 40
3.0
 40
3.0
 40
3.0
 40
4.0
 40
4.0
 40
4.0
 40
4.0
 10
5.0189873589409721
 20
14.7655069986979157
 30
0.0
 10
4.7426907009548609
 20
14.7655069986979157
 30
0.0
 10
4.51910400390625
 20
14.5419203016493039
 30
0.0
 10
4.51910400390625
 20
14.2656236436631936
 30
0.0
 10
4.51910400390625
 20
13.9896714952256929
 30
0.0
 10
4.7426907009548609
 20
13.76539577907986
 30
0.0
 10
5.0189873589409721
 20
13.76539577907986
 30
0.0
 10
5.2952840169270825
 20
13.76539577907986
 30
0.0
 10
5.5188707139756943
 20
13.9896714952256929
 30
0.0
 10
5.5188707139756943
 20
14.2656236436631936
 30
0.0
 10
5.5188707139756943
 20
14.5419203016493039
 30
0.0
 10
5.2952840169270825
 20
14.7655069986979157
 30
0.0
 10
5.0189873589409721
 20
14.7655069986979157
 30
0.0
  0
SPLINE
  5
7D
100
AcDbEntity
  8
DR-07_080910
390
0
 62
     7
100
AcDbSpline
210
0.0
220
0.0
230
1.0
 70
     8
 71
     3
 72
    17
 73
    13
 74
     0
 42
0.00000001
 43
0.00000001
 40
0.0
 40
0.0
 40
0.0
 40
0.0
 40
1.0
 40
1.0
 40
1.0
 40
2.0
 40
2.0
 40
2.0
 40
3.0
 40
3.0
 40
3.0
 40
4.0
 40
4.0
 40
4.0
 40
4.0
 10
4.2689900716145832
 20
16.0646525065104164
 30
0.0
 10
3.9930379231770829
 20
16.0646525065104164
 30
0.0
 10
3.7691067165798606
 20
15.8407212999131932
 30
0.0
 10
3.7691067165798606
 20
15.5647691514756925
 30
0.0
 10
3.7691067165798606
 20
15.2884724934895821
 30
0.0
 10
3.9930379231770829
 20
15.0648857964409704
 30
0.0
 10
4.2689900716145832
 20
15.0648857964409704
 30
0.0
 10
4.5452867296006945
 20
15.0648857964409704
 30
0.0
 10
4.7688734266493054
 20
15.2884724934895821
 30
0.0
 10
4.7688734266493054
 20
15.5647691514756925
 30
0.0
 10
4.7688734266493054
 20
15.8407212999131932
 30
0.0
 10
4.5452867296006945
 20
16.0646525065104164
 30
0.0
 10
4.2689900716145832
 20
16.0646525065104164
 30
0.0
  0
SPLINE
  5
7C
100
AcDbEntity
  8
DR-07_080910
390
0
 62
     7
100
AcDbSpline
210
0.0
220
0.0
230
1.0
 70
     8
 71
     3
 72
    11
 73
     7
 74
     0
 42
0.00000001
 43
0.00000001
 40
0.0
 40
0.0
 40
0.0
 40
0.0
 40
1.0
 40
1.0
 40
1.0
 40
2.0
 40
2.0
 40
2.0
 40
2.0
 10
3.9854587131076387
 20
14.0851006401909711
 30
0.0
 10
4.0450588650173609
 20
14.2389241536458329
 30
0.0
 10
4.0250773111979159
 20
14.412040201822915
 30
0.0
 10
3.9313707139756939
 20
14.5484659830729157
 30
0.0
 10
3.8383531358506939
 20
14.684547254774305
 30
0.0
 10
3.6843573676215273
 20
14.7655069986979157
 30
0.0
 10
3.5189927842881943
 20
14.7655069986979157
 30
0.0
  0
SPLINE
  5
7B
100
AcDbEntity
  8
DR-07_080910
390
0
 62
     7
100
AcDbSpline
210
0.0
220
0.0
230
1.0
 70
     8
 71
     3
 72
    11
 73
     7
 74
     0
 42
0.00000001
 43
0.00000001
 40
0.0
 40
0.0
 40
0.0
 40
0.0
 40
1.0
 40
1.0
 40
1.0
 40
2.0
 40
2.0
 40
2.0
 40
2.0
 10
3.1779283311631943
 20
15.2767591688368043
 30
0.0
 10
3.2723239474826387
 20
15.4111178927951382
 30
0.0
 10
3.295061577690972
 20
15.583717176649305
 30
0.0
 10
3.2382175021701385
 20
15.7377129448784707
 30
0.0
 10
3.181028917100694
 20
15.8923977322048593
 30
0.0
 10
3.0518378363715275
 20
16.008841959635415
 30
0.0
 10
2.8923299153645829
 20
16.0491495768229164
 30
0.0
  0
SPLINE
  5
7A
100
AcDbEntity
  8
DR-07_080910
390
0
 62
     7
100
AcDbSpline
210
0.0
220
0.0
230
1.0
 70
     8
 71
     3
 72
    17
 73
    13
 74
     0
 42
0.00000001
 43
0.00000001
 40
0.0
 40
0.0
 40
0.0
 40
0.0
 40
1.0
 40
1.0
 40
1.0
 40
2.0
 40
2.0
 40
2.0
 40
3.0
 40
3.0
 40
3.0
 40
4.0
 40
4.0
 40
4.0
 40
4.0
 10
14.0192993164062489
 20
19.9617445203993036
 30
0.0
 10
13.7430026584201368
 20
19.9617445203993036
 30
0.0
 10
13.5187269422743039
 20
19.7378133138020821
 30
0.0
 10
13.5187269422743039
 20
19.4618611653645814
 30
0.0
 10
13.5187269422743039
 20
19.1855645073784693
 30
0.0
 10
13.7430026584201368
 20
18.9616333007812479
 30
0.0
 10
14.0192993164062489
 20
18.9616333007812479
 30
0.0
 10
14.2955959743923593
 20
18.9616333007812479
 30
0.0
 10
14.5191826714409711
 20
19.1855645073784693
 30
0.0
 10
14.5191826714409711
 20
19.4618611653645814
 30
0.0
 10
14.5191826714409711
 20
19.7378133138020821
 30
0.0
 10
14.2955959743923593
 20
19.9617445203993036
 30
0.0
 10
14.0192993164062489
 20
19.9617445203993036
 30
0.0
  0
SPLINE
  5
79
100
AcDbEntity
  8
DR-07_080910
390
0
 62
     7
100
AcDbSpline
210
0.0
220
0.0
230
1.0
 70
     8
 71
     3
 72
    17
 73
    13
 74
     0
 42
0.00000001
 43
0.00000001
 40
0.0
 40
0.0
 40
0.0
 40
0.0
 40
1.0
 40
1.0
 40
1.0
 40
2.0
 40
2.0
 40
2.0
 40
3.0
 40
3.0
 40
3.0
 40
4.0
 40
4.0
 40
4.0
 40
4.0
 10
14.0192993164062489
 20
17.3637980143229136
 30
0.0
 10
13.7430026584201368
 20
17.3637980143229136
 30
0.0
 10
13.5187269422743039
 20
17.1398668077256922
 30
0.0
 10
13.5187269422743039
 20
16.8635701497395836
 30
0.0
 10
13.5187269422743039
 20
16.5872734917534714
 30
0.0
 10
13.7430026584201368
 20
16.3636867947048579
 30
0.0
 10
14.0192993164062489
 20
16.3636867947048579
 30
0.0
 10
14.2955959743923593
 20
16.3636867947048579
 30
0.0
 10
14.5191826714409711
 20
16.5872734917534714
 30
0.0
 10
14.5191826714409711
 20
16.8635701497395836
 30
0.0
 10
14.5191826714409711
 20
17.1398668077256922
 30
0.0
 10
14.2955959743923593
 20
17.3637980143229136
 30
0.0
 10
14.0192993164062489
 20
17.3637980143229136
 30
0.0
  0
SPLINE
  5
78
100
AcDbEntity
  8
DR-07_080910
390
0
 62
     7
100
AcDbSpline
210
0.0
220
0.0
230
1.0
 70
     8
 71
     3
 72
    14
 73
    10
 74
     0
 42
0.00000001
 43
0.00000001
 40
0.0
 40
0.0
 40
0.0
 40
0.0
 40
1.0
 40
1.0
 40
1.0
 40
2.0
 40
2.0
 40
2.0
 40
3.0
 40
3.0
 40
3.0
 40
3.0
 10
15.0190660264756932
 20
18.59576416015625
 30
0.0
 10
14.808570692274305
 20
18.7170315212673586
 30
0.0
 10
14.5419203016493039
 20
18.6698337131076357
 30
0.0
 10
14.3862019856770829
 20
18.4837985568576357
 30
0.0
 10
14.2301391601562486
 20
18.2977634006076357
 30
0.0
 10
14.2301391601562486
 20
18.0269788953993029
 30
0.0
 10
14.3862019856770829
 20
17.8416327582465257
 30
0.0
 10
14.5419203016493039
 20
17.6555976019965257
 30
0.0
 10
14.808570692274305
 20
17.6083997938368029
 30
0.0
 10
15.0190660264756932
 20
17.729667154947915
 30
0.0
  0
SPLINE
  5
77
100
AcDbEntity
  8
DR-07_080910
390
0
 62
     7
100
AcDbSpline
210
0.0
220
0.0
230
1.0
 70
     8
 71
     3
 72
    17
 73
    13
 74
     0
 42
0.00000001
 43
0.00000001
 40
0.0
 40
0.0
 40
0.0
 40
0.0
 40
1.0
 40
1.0
 40
1.0
 40
2.0
 40
2.0
 40
2.0
 40
3.0
 40
3.0
 40
3.0
 40
4.0
 40
4.0
 40
4.0
 40
4.0
 10
9.5189710828993039
 20
17.3637980143229136
 30
0.0
 10
9.243018934461805
 20
17.3637980143229136
 30
0.0
 10
9.0194322374131932
 20
17.1398668077256922
 30
0.0
 10
9.0194322374131932
 20
16.8635701497395836
 30
0.0
 10
9.0194322374131932
 20
16.5872734917534714
 30
0.0
 10
9.243018934461805
 20
16.3636867947048579
 30
0.0
 10
9.5189710828993039
 20
16.3636867947048579
 30
0.0
 10
9.7952677408854161
 20
16.3636867947048579
 30
0.0
 10
10.0191989474826375
 20
16.5872734917534714
 30
0.0
 10
10.0191989474826375
 20
16.8635701497395836
 30
0.0
 10
10.0191989474826375
 20
17.1398668077256922
 30
0.0
 10
9.7952677408854161
 20
17.3637980143229136
 30
0.0
 10
9.5189710828993039
 20
17.3637980143229136
 30
0.0
  0
SPLINE
  5
76
100
AcDbEntity
  8
DR-07_080910
390
0
 62
     7
100
AcDbSpline
210
0.0
220
0.0
230
1.0
 70
     8
 71
     3
 72
    17
 73
    13
 74
     0
 42
0.00000001
 43
0.00000001
 40
0.0
 40
0.0
 40
0.0
 40
0.0
 40
1.0
 40
1.0
 40
1.0
 40
2.0
 40
2.0
 40
2.0
 40
3.0
 40
3.0
 40
3.0
 40
4.0
 40
4.0
 40
4.0
 40
4.0
 10
11.0189656575520818
 20
17.3637980143229136
 30
0.0
 10
10.7430135091145829
 20
17.3637980143229136
 30
0.0
 10
10.5194268120659711
 20
17.1398668077256922
 30
0.0
 10
10.5194268120659711
 20
16.8635701497395836
 30
0.0
 10
10.5194268120659711
 20
16.5872734917534714
 30
0.0
 10
10.7430135091145829
 20
16.3636867947048579
 30
0.0
 10
11.0189656575520818
 20
16.3636867947048579
 30
0.0
 10
11.2952623155381939
 20
16.3636867947048579
 30
0.0
 10
11.5188490125868039
 20
16.5872734917534714
 30
0.0
 10
11.5188490125868039
 20
16.8635701497395836
 30
0.0
 10
11.5188490125868039
 20
17.1398668077256922
 30
0.0
 10
11.2952623155381939
 20
17.3637980143229136
 30
0.0
 10
11.0189656575520818
 20
17.3637980143229136
 30
0.0
  0
SPLINE
  5
75
100
AcDbEntity
  8
DR-07_080910
390
0
 62
     7
100
AcDbSpline
210
0.0
220
0.0
230
1.0
 70
     8
 71
     3
 72
    17
 73
    13
 74
     0
 42
0.00000001
 43
0.00000001
 40
0.0
 40
0.0
 40
0.0
 40
0.0
 40
1.0
 40
1.0
 40
1.0
 40
2.0
 40
2.0
 40
2.0
 40
3.0
 40
3.0
 40
3.0
 40
4.0
 40
4.0
 40
4.0
 40
4.0
 10
12.5189602322048597
 20
17.3637980143229136
 30
0.0
 10
12.2430080837673607
 20
17.3637980143229136
 30
0.0
 10
12.0187323676215261
 20
17.1398668077256922
 30
0.0
 10
12.0187323676215261
 20
16.8635701497395836
 30
0.0
 10
12.0187323676215261
 20
16.5872734917534714
 30
0.0
 10
12.2430080837673607
 20
16.3636867947048579
 30
0.0
 10
12.5189602322048597
 20
16.3636867947048579
 30
0.0
 10
12.7952568901909718
 20
16.3636867947048579
 30
0.0
 10
13.0191880967881932
 20
16.5872734917534714
 30
0.0
 10
13.0191880967881932
 20
16.8635701497395836
 30
0.0
 10
13.0191880967881932
 20
17.1398668077256922
 30
0.0
 10
12.7952568901909718
 20
17.3637980143229136
 30
0.0
 10
12.5189602322048597
 20
17.3637980143229136
 30
0.0
  0
SPLINE
  5
74
100
AcDbEntity
  8
DR-07_080910
390
0
 62
     7
100
AcDbSpline
210
0.0
220
0.0
230
1.0
 70
     8
 71
     3
 72
    17
 73
    13
 74
     0
 42
0.00000001
 43
0.00000001
 40
0.0
 40
0.0
 40
0.0
 40
0.0
 40
1.0
 40
1.0
 40
1.0
 40
2.0
 40
2.0
 40
2.0
 40
3.0
 40
3.0
 40
3.0
 40
4.0
 40
4.0
 40
4.0
 40
4.0
 10
8.0189765082465279
 20
17.3637980143229136
 30
0.0
 10
7.7430243598090271
 20
17.3637980143229136
 30
0.0
 10
7.5194376627604163
 20
17.1398668077256922
 30
0.0
 10
7.5194376627604163
 20
16.8635701497395836
 30
0.0
 10
7.5194376627604163
 20
16.5872734917534714
 30
0.0
 10
7.7430243598090271
 20
16.3636867947048579
 30
0.0
 10
8.0189765082465279
 20
16.3636867947048579
 30
0.0
 10
8.2952731662326382
 20
16.3636867947048579
 30
0.0
 10
8.5192043728298597
 20
16.5872734917534714
 30
0.0
 10
8.5192043728298597
 20
16.8635701497395836
 30
0.0
 10
8.5192043728298597
 20
17.1398668077256922
 30
0.0
 10
8.2952731662326382
 20
17.3637980143229136
 30
0.0
 10
8.0189765082465279
 20
17.3637980143229136
 30
0.0
  0
SPLINE
  5
73
100
AcDbEntity
  8
DR-07_080910
390
0
 62
     7
100
AcDbSpline
210
0.0
220
0.0
230
1.0
 70
     8
 71
     3
 72
    17
 73
    13
 74
     0
 42
0.00000001
 43
0.00000001
 40
0.0
 40
0.0
 40
0.0
 40
0.0
 40
1.0
 40
1.0
 40
1.0
 40
2.0
 40
2.0
 40
2.0
 40
3.0
 40
3.0
 40
3.0
 40
4.0
 40
4.0
 40
4.0
 40
4.0
 10
6.5189819335937491
 20
17.3637980143229136
 30
0.0
 10
6.2426852756076388
 20
17.3637980143229136
 30
0.0
 10
6.0194430881076384
 20
17.1398668077256922
 30
0.0
 10
6.0194430881076384
 20
16.8635701497395836
 30
0.0
 10
6.0194430881076384
 20
16.5872734917534714
 30
0.0
 10
6.2426852756076388
 20
16.3636867947048579
 30
0.0
 10
6.5189819335937491
 20
16.3636867947048579
 30
0.0
 10
6.7952785915798604
 20
16.3636867947048579
 30
0.0
 10
7.0192097981770827
 20
16.5872734917534714
 30
0.0
 10
7.0192097981770827
 20
16.8635701497395836
 30
0.0
 10
7.0192097981770827
 20
17.1398668077256922
 30
0.0
 10
6.7952785915798604
 20
17.3637980143229136
 30
0.0
 10
6.5189819335937491
 20
17.3637980143229136
 30
0.0
  0
SPLINE
  5
72
100
AcDbEntity
  8
DR-07_080910
390
0
 62
     7
100
AcDbSpline
210
0.0
220
0.0
230
1.0
 70
     8
 71
     3
 72
    17
 73
    13
 74
     0
 42
0.00000001
 43
0.00000001
 40
0.0
 40
0.0
 40
0.0
 40
0.0
 40
1.0
 40
1.0
 40
1.0
 40
2.0
 40
2.0
 40
2.0
 40
3.0
 40
3.0
 40
3.0
 40
4.0
 40
4.0
 40
4.0
 40
4.0
 10
5.0189873589409721
 20
17.3637980143229136
 30
0.0
 10
4.7426907009548609
 20
17.3637980143229136
 30
0.0
 10
4.51910400390625
 20
17.1398668077256922
 30
0.0
 10
4.51910400390625
 20
16.8635701497395836
 30
0.0
 10
4.51910400390625
 20
16.5872734917534714
 30
0.0
 10
4.7426907009548609
 20
16.3636867947048579
 30
0.0
 10
5.0189873589409721
 20
16.3636867947048579
 30
0.0
 10
5.2952840169270825
 20
16.3636867947048579
 30
0.0
 10
5.5188707139756943
 20
16.5872734917534714
 30
0.0
 10
5.5188707139756943
 20
16.8635701497395836
 30
0.0
 10
5.5188707139756943
 20
17.1398668077256922
 30
0.0
 10
5.2952840169270825
 20
17.3637980143229136
 30
0.0
 10
5.0189873589409721
 20
17.3637980143229136
 30
0.0
  0
SPLINE
  5
71
100
AcDbEntity
  8
DR-07_080910
390
0
 62
     7
100
AcDbSpline
210
0.0
220
0.0
230
1.0
 70
     8
 71
     3
 72
    17
 73
    13
 74
     0
 42
0.00000001
 43
0.00000001
 40
0.0
 40
0.0
 40
0.0
 40
0.0
 40
1.0
 40
1.0
 40
1.0
 40
2.0
 40
2.0
 40
2.0
 40
3.0
 40
3.0
 40
3.0
 40
4.0
 40
4.0
 40
4.0
 40
4.0
 10
3.5189927842881943
 20
17.3637980143229136
 30
0.0
 10
3.242696126302083
 20
17.3637980143229136
 30
0.0
 10
3.0191094292534721
 20
17.1398668077256922
 30
0.0
 10
3.0191094292534721
 20
16.8635701497395836
 30
0.0
 10
3.0191094292534721
 20
16.5872734917534714
 30
0.0
 10
3.242696126302083
 20
16.3636867947048579
 30
0.0
 10
3.5189927842881943
 20
16.3636867947048579
 30
0.0
 10
3.7952894422743051
 20
16.3636867947048579
 30
0.0
 10
4.0188761393229164
 20
16.5872734917534714
 30
0.0
 10
4.0188761393229164
 20
16.8635701497395836
 30
0.0
 10
4.0188761393229164
 20
17.1398668077256922
 30
0.0
 10
3.7952894422743051
 20
17.3637980143229136
 30
0.0
 10
3.5189927842881943
 20
17.3637980143229136
 30
0.0
  0
SPLINE
  5
70
100
AcDbEntity
  8
DR-07_080910
390
0
 62
     7
100
AcDbSpline
210
0.0
220
0.0
230
1.0
 70
     8
 71
     3
 72
    17
 73
    13
 74
     0
 42
0.00000001
 43
0.00000001
 40
0.0
 40
0.0
 40
0.0
 40
0.0
 40
1.0
 40
1.0
 40
1.0
 40
2.0
 40
2.0
 40
2.0
 40
3.0
 40
3.0
 40
3.0
 40
4.0
 40
4.0
 40
4.0
 40
4.0
 10
8.7693183051215264
 20
24.4627617730034714
 30
0.0
 10
5.289771864149305
 20
24.4627617730034714
 30
0.0
 10
2.4692721896701388
 20
21.6419175889756907
 30
0.0
 10
2.4692721896701388
 20
18.1627156575520807
 30
0.0
 10
2.4692721896701388
 20
14.6835137261284707
 30
0.0
 10
5.289771864149305
 20
11.8628417968749993
 30
0.0
 10
8.7693183051215264
 20
11.8628417968749993
 30
0.0
 10
12.2488647460937496
 20
11.8628417968749993
 30
0.0
 10
15.0690199110243039
 20
14.6835137261284707
 30
0.0
 10
15.0690199110243039
 20
18.1627156575520807
 30
0.0
 10
15.0690199110243039
 20
21.6419175889756907
 30
0.0
 10
12.2488647460937496
 20
24.4627617730034714
 30
0.0
 10
8.7693183051215264
 20
24.4627617730034714
 30
0.0
  0
SPLINE
  5
6F
100
AcDbEntity
  8
DR-07_080910
390
0
 62
     7
100
AcDbSpline
210
0.0
220
0.0
230
1.0
 70
     8
 71
     3
 72
    17
 73
    13
 74
     0
 42
0.00000001
 43
0.00000001
 40
0.0
 40
0.0
 40
0.0
 40
0.0
 40
1.0
 40
1.0
 40
1.0
 40
2.0
 40
2.0
 40
2.0
 40
3.0
 40
3.0
 40
3.0
 40
4.0
 40
4.0
 40
4.0
 40
4.0
 10
8.7693183051215264
 20
18.6627712673611086
 30
0.0
 10
8.4930216471354161
 20
18.6627712673611086
 30
0.0
 10
8.2690904405381929
 20
18.4386678059895814
 30
0.0
 10
8.2690904405381929
 20
18.1627156575520807
 30
0.0
 10
8.2690904405381929
 20
17.8864189995659721
 30
0.0
 10
8.4930216471354161
 20
17.6624877929687472
 30
0.0
 10
8.7693183051215264
 20
17.6624877929687472
 30
0.0
 10
9.0452704535590271
 20
17.6624877929687472
 30
0.0
 10
9.2688571506076389
 20
17.8864189995659721
 30
0.0
 10
9.2688571506076389
 20
18.1627156575520807
 30
0.0
 10
9.2688571506076389
 20
18.4386678059895814
 30
0.0
 10
9.0452704535590271
 20
18.6627712673611086
 30
0.0
 10
8.7693183051215264
 20
18.6627712673611086
 30
0.0
  0
SPLINE
  5
6E
100
AcDbEntity
  8
DR-07_080910
390
0
 62
     7
100
AcDbSpline
210
0.0
220
0.0
230
1.0
 70
     8
 71
     3
 72
    17
 73
    13
 74
     0
 42
0.00000001
 43
0.00000001
 40
0.0
 40
0.0
 40
0.0
 40
0.0
 40
1.0
 40
1.0
 40
1.0
 40
2.0
 40
2.0
 40
2.0
 40
3.0
 40
3.0
 40
3.0
 40
4.0
 40
4.0
 40
4.0
 40
4.0
 10
10.2693128797743043
 20
18.6627712673611086
 30
0.0
 10
9.9930162217881939
 20
18.6627712673611086
 30
0.0
 10
9.7690850151909707
 20
18.4386678059895814
 30
0.0
 10
9.7690850151909707
 20
18.1627156575520807
 30
0.0
 10
9.7690850151909707
 20
17.8864189995659721
 30
0.0
 10
9.9930162217881939
 20
17.6624877929687472
 30
0.0
 10
10.2693128797743043
 20
17.6624877929687472
 30
0.0
 10
10.545265028211805
 20
17.6624877929687472
 30
0.0
 10
10.768851725260415
 20
17.8864189995659721
 30
0.0
 10
10.768851725260415
 20
18.1627156575520807
 30
0.0
 10
10.768851725260415
 20
18.4386678059895814
 30
0.0
 10
10.545265028211805
 20
18.6627712673611086
 30
0.0
 10
10.2693128797743043
 20
18.6627712673611086
 30
0.0
  0
SPLINE
  5
6D
100
AcDbEntity
  8
DR-07_080910
390
0
 62
     7
100
AcDbSpline
210
0.0
220
0.0
230
1.0
 70
     8
 71
     3
 72
    17
 73
    13
 74
     0
 42
0.00000001
 43
0.00000001
 40
0.0
 40
0.0
 40
0.0
 40
0.0
 40
1.0
 40
1.0
 40
1.0
 40
2.0
 40
2.0
 40
2.0
 40
3.0
 40
3.0
 40
3.0
 40
4.0
 40
4.0
 40
4.0
 40
4.0
 10
9.5189710828993039
 20
19.9617445203993036
 30
0.0
 10
9.243018934461805
 20
19.9617445203993036
 30
0.0
 10
9.0194322374131932
 20
19.7378133138020821
 30
0.0
 10
9.0194322374131932
 20
19.4618611653645814
 30
0.0
 10
9.0194322374131932
 20
19.1855645073784693
 30
0.0
 10
9.243018934461805
 20
18.9616333007812479
 30
0.0
 10
9.5189710828993039
 20
18.9616333007812479
 30
0.0
 10
9.7952677408854161
 20
18.9616333007812479
 30
0.0
 10
10.0191989474826375
 20
19.1855645073784693
 30
0.0
 10
10.0191989474826375
 20
19.4618611653645814
 30
0.0
 10
10.0191989474826375
 20
19.7378133138020821
 30
0.0
 10
9.7952677408854161
 20
19.9617445203993036
 30
0.0
 10
9.5189710828993039
 20
19.9617445203993036
 30
0.0
  0
SPLINE
  5
6C
100
AcDbEntity
  8
DR-07_080910
390
0
 62
     7
100
AcDbSpline
210
0.0
220
0.0
230
1.0
 70
     8
 71
     3
 72
    17
 73
    13
 74
     0
 42
0.00000001
 43
0.00000001
 40
0.0
 40
0.0
 40
0.0
 40
0.0
 40
1.0
 40
1.0
 40
1.0
 40
2.0
 40
2.0
 40
2.0
 40
3.0
 40
3.0
 40
3.0
 40
4.0
 40
4.0
 40
4.0
 40
4.0
 10
11.0189656575520818
 20
19.9617445203993036
 30
0.0
 10
10.7430135091145829
 20
19.9617445203993036
 30
0.0
 10
10.5194268120659711
 20
19.7378133138020821
 30
0.0
 10
10.5194268120659711
 20
19.4618611653645814
 30
0.0
 10
10.5194268120659711
 20
19.1855645073784693
 30
0.0
 10
10.7430135091145829
 20
18.9616333007812479
 30
0.0
 10
11.0189656575520818
 20
18.9616333007812479
 30
0.0
 10
11.2952623155381939
 20
18.9616333007812479
 30
0.0
 10
11.5188490125868039
 20
19.1855645073784693
 30
0.0
 10
11.5188490125868039
 20
19.4618611653645814
 30
0.0
 10
11.5188490125868039
 20
19.7378133138020821
 30
0.0
 10
11.2952623155381939
 20
19.9617445203993036
 30
0.0
 10
11.0189656575520818
 20
19.9617445203993036
 30
0.0
  0
SPLINE
  5
6B
100
AcDbEntity
  8
DR-07_080910
390
0
 62
     7
100
AcDbSpline
210
0.0
220
0.0
230
1.0
 70
     8
 71
     3
 72
    17
 73
    13
 74
     0
 42
0.00000001
 43
0.00000001
 40
0.0
 40
0.0
 40
0.0
 40
0.0
 40
1.0
 40
1.0
 40
1.0
 40
2.0
 40
2.0
 40
2.0
 40
3.0
 40
3.0
 40
3.0
 40
4.0
 40
4.0
 40
4.0
 40
4.0
 10
11.7693074544270821
 20
18.6627712673611086
 30
0.0
 10
11.4930107964409718
 20
18.6627712673611086
 30
0.0
 10
11.2690795898437486
 20
18.4386678059895814
 30
0.0
 10
11.2690795898437486
 20
18.1627156575520807
 30
0.0
 10
11.2690795898437486
 20
17.8864189995659721
 30
0.0
 10
11.4930107964409718
 20
17.6624877929687472
 30
0.0
 10
11.7693074544270821
 20
17.6624877929687472
 30
0.0
 10
12.0452596028645829
 20
17.6624877929687472
 30
0.0
 10
12.2688462999131929
 20
17.8864189995659721
 30
0.0
 10
12.2688462999131929
 20
18.1627156575520807
 30
0.0
 10
12.2688462999131929
 20
18.4386678059895814
 30
0.0
 10
12.0452596028645829
 20
18.6627712673611086
 30
0.0
 10
11.7693074544270821
 20
18.6627712673611086
 30
0.0
  0
SPLINE
  5
6A
100
AcDbEntity
  8
DR-07_080910
390
0
 62
     7
100
AcDbSpline
210
0.0
220
0.0
230
1.0
 70
     8
 71
     3
 72
    17
 73
    13
 74
     0
 42
0.00000001
 43
0.00000001
 40
0.0
 40
0.0
 40
0.0
 40
0.0
 40
1.0
 40
1.0
 40
1.0
 40
2.0
 40
2.0
 40
2.0
 40
3.0
 40
3.0
 40
3.0
 40
4.0
 40
4.0
 40
4.0
 40
4.0
 10
13.26930202907986
 20
18.6627712673611086
 30
0.0
 10
12.9930053710937496
 20
18.6627712673611086
 30
0.0
 10
12.7690741644965264
 20
18.4386678059895814
 30
0.0
 10
12.7690741644965264
 20
18.1627156575520807
 30
0.0
 10
12.7690741644965264
 20
17.8864189995659721
 30
0.0
 10
12.9930053710937496
 20
17.6624877929687472
 30
0.0
 10
13.26930202907986
 20
17.6624877929687472
 30
0.0
 10
13.5455986870659704
 20
17.6624877929687472
 30
0.0
 10
13.7688408745659707
 20
17.8864189995659721
 30
0.0
 10
13.7688408745659707
 20
18.1627156575520807
 30
0.0
 10
13.7688408745659707
 20
18.4386678059895814
 30
0.0
 10
13.5455986870659704
 20
18.6627712673611086
 30
0.0
 10
13.26930202907986
 20
18.6627712673611086
 30
0.0
  0
SPLINE
  5
69
100
AcDbEntity
  8
DR-07_080910
390
0
 62
     7
100
AcDbSpline
210
0.0
220
0.0
230
1.0
 70
     8
 71
     3
 72
    17
 73
    13
 74
     0
 42
0.00000001
 43
0.00000001
 40
0.0
 40
0.0
 40
0.0
 40
0.0
 40
1.0
 40
1.0
 40
1.0
 40
2.0
 40
2.0
 40
2.0
 40
3.0
 40
3.0
 40
3.0
 40
4.0
 40
4.0
 40
4.0
 40
4.0
 10
12.5189602322048597
 20
19.9617445203993036
 30
0.0
 10
12.2430080837673607
 20
19.9617445203993036
 30
0.0
 10
12.0187323676215261
 20
19.7378133138020821
 30
0.0
 10
12.0187323676215261
 20
19.4618611653645814
 30
0.0
 10
12.0187323676215261
 20
19.1855645073784693
 30
0.0
 10
12.2430080837673607
 20
18.9616333007812479
 30
0.0
 10
12.5189602322048597
 20
18.9616333007812479
 30
0.0
 10
12.7952568901909718
 20
18.9616333007812479
 30
0.0
 10
13.0191880967881932
 20
19.1855645073784693
 30
0.0
 10
13.0191880967881932
 20
19.4618611653645814
 30
0.0
 10
13.0191880967881932
 20
19.7378133138020821
 30
0.0
 10
12.7952568901909718
 20
19.9617445203993036
 30
0.0
 10
12.5189602322048597
 20
19.9617445203993036
 30
0.0
  0
SPLINE
  5
68
100
AcDbEntity
  8
DR-07_080910
390
0
 62
     7
100
AcDbSpline
210
0.0
220
0.0
230
1.0
 70
     8
 71
     3
 72
    17
 73
    13
 74
     0
 42
0.00000001
 43
0.00000001
 40
0.0
 40
0.0
 40
0.0
 40
0.0
 40
1.0
 40
1.0
 40
1.0
 40
2.0
 40
2.0
 40
2.0
 40
3.0
 40
3.0
 40
3.0
 40
4.0
 40
4.0
 40
4.0
 40
4.0
 10
7.2693237304687495
 20
18.6627712673611086
 30
0.0
 10
6.9930270724826382
 20
18.6627712673611086
 30
0.0
 10
6.7690958658854159
 20
18.4386678059895814
 30
0.0
 10
6.7690958658854159
 20
18.1627156575520807
 30
0.0
 10
6.7690958658854159
 20
17.8864189995659721
 30
0.0
 10
6.9930270724826382
 20
17.6624877929687472
 30
0.0
 10
7.2693237304687495
 20
17.6624877929687472
 30
0.0
 10
7.5452758789062493
 20
17.6624877929687472
 30
0.0
 10
7.7692070855034716
 20
17.8864189995659721
 30
0.0
 10
7.7692070855034716
 20
18.1627156575520807
 30
0.0
 10
7.7692070855034716
 20
18.4386678059895814
 30
0.0
 10
7.5452758789062493
 20
18.6627712673611086
 30
0.0
 10
7.2693237304687495
 20
18.6627712673611086
 30
0.0
  0
SPLINE
  5
67
100
AcDbEntity
  8
DR-07_080910
390
0
 62
     7
100
AcDbSpline
210
0.0
220
0.0
230
1.0
 70
     8
 71
     3
 72
    17
 73
    13
 74
     0
 42
0.00000001
 43
0.00000001
 40
0.0
 40
0.0
 40
0.0
 40
0.0
 40
1.0
 40
1.0
 40
1.0
 40
2.0
 40
2.0
 40
2.0
 40
3.0
 40
3.0
 40
3.0
 40
4.0
 40
4.0
 40
4.0
 40
4.0
 10
8.0189765082465279
 20
19.9617445203993036
 30
0.0
 10
7.7430243598090271
 20
19.9617445203993036
 30
0.0
 10
7.5194376627604163
 20
19.7378133138020821
 30
0.0
 10
7.5194376627604163
 20
19.4618611653645814
 30
0.0
 10
7.5194376627604163
 20
19.1855645073784693
 30
0.0
 10
7.7430243598090271
 20
18.9616333007812479
 30
0.0
 10
8.0189765082465279
 20
18.9616333007812479
 30
0.0
 10
8.2952731662326382
 20
18.9616333007812479
 30
0.0
 10
8.5192043728298597
 20
19.1855645073784693
 30
0.0
 10
8.5192043728298597
 20
19.4618611653645814
 30
0.0
 10
8.5192043728298597
 20
19.7378133138020821
 30
0.0
 10
8.2952731662326382
 20
19.9617445203993036
 30
0.0
 10
8.0189765082465279
 20
19.9617445203993036
 30
0.0
  0
SPLINE
  5
66
100
AcDbEntity
  8
DR-07_080910
390
0
 62
     7
100
AcDbSpline
210
0.0
220
0.0
230
1.0
 70
     8
 71
     3
 72
    17
 73
    13
 74
     0
 42
0.00000001
 43
0.00000001
 40
0.0
 40
0.0
 40
0.0
 40
0.0
 40
1.0
 40
1.0
 40
1.0
 40
2.0
 40
2.0
 40
2.0
 40
3.0
 40
3.0
 40
3.0
 40
4.0
 40
4.0
 40
4.0
 40
4.0
 10
6.5189819335937491
 20
19.9617445203993036
 30
0.0
 10
6.2426852756076388
 20
19.9617445203993036
 30
0.0
 10
6.0194430881076384
 20
19.7378133138020821
 30
0.0
 10
6.0194430881076384
 20
19.4618611653645814
 30
0.0
 10
6.0194430881076384
 20
19.1855645073784693
 30
0.0
 10
6.2426852756076388
 20
18.9616333007812479
 30
0.0
 10
6.5189819335937491
 20
18.9616333007812479
 30
0.0
 10
6.7952785915798604
 20
18.9616333007812479
 30
0.0
 10
7.0192097981770827
 20
19.1855645073784693
 30
0.0
 10
7.0192097981770827
 20
19.4618611653645814
 30
0.0
 10
7.0192097981770827
 20
19.7378133138020821
 30
0.0
 10
6.7952785915798604
 20
19.9617445203993036
 30
0.0
 10
6.5189819335937491
 20
19.9617445203993036
 30
0.0
  0
SPLINE
  5
65
100
AcDbEntity
  8
DR-07_080910
390
0
 62
     7
100
AcDbSpline
210
0.0
220
0.0
230
1.0
 70
     8
 71
     3
 72
    17
 73
    13
 74
     0
 42
0.00000001
 43
0.00000001
 40
0.0
 40
0.0
 40
0.0
 40
0.0
 40
1.0
 40
1.0
 40
1.0
 40
2.0
 40
2.0
 40
2.0
 40
3.0
 40
3.0
 40
3.0
 40
4.0
 40
4.0
 40
4.0
 40
4.0
 10
5.7693291558159716
 20
18.6627712673611086
 30
0.0
 10
5.4930324978298604
 20
18.6627712673611086
 30
0.0
 10
5.269101291232638
 20
18.4386678059895814
 30
0.0
 10
5.269101291232638
 20
18.1627156575520807
 30
0.0
 10
5.269101291232638
 20
17.8864189995659721
 30
0.0
 10
5.4930324978298604
 20
17.6624877929687472
 30
0.0
 10
5.7693291558159716
 20
17.6624877929687472
 30
0.0
 10
6.0452813042534714
 20
17.6624877929687472
 30
0.0
 10
6.2688680013020823
 20
17.8864189995659721
 30
0.0
 10
6.2688680013020823
 20
18.1627156575520807
 30
0.0
 10
6.2688680013020823
 20
18.4386678059895814
 30
0.0
 10
6.0452813042534714
 20
18.6627712673611086
 30
0.0
 10
5.7693291558159716
 20
18.6627712673611086
 30
0.0
  0
SPLINE
  5
64
100
AcDbEntity
  8
DR-07_080910
390
0
 62
     7
100
AcDbSpline
210
0.0
220
0.0
230
1.0
 70
     8
 71
     3
 72
    17
 73
    13
 74
     0
 42
0.00000001
 43
0.00000001
 40
0.0
 40
0.0
 40
0.0
 40
0.0
 40
1.0
 40
1.0
 40
1.0
 40
2.0
 40
2.0
 40
2.0
 40
3.0
 40
3.0
 40
3.0
 40
4.0
 40
4.0
 40
4.0
 40
4.0
 10
4.2689900716145832
 20
18.6627712673611086
 30
0.0
 10
3.9930379231770829
 20
18.6627712673611086
 30
0.0
 10
3.7691067165798606
 20
18.4386678059895814
 30
0.0
 10
3.7691067165798606
 20
18.1627156575520807
 30
0.0
 10
3.7691067165798606
 20
17.8864189995659721
 30
0.0
 10
3.9930379231770829
 20
17.6624877929687472
 30
0.0
 10
4.2689900716145832
 20
17.6624877929687472
 30
0.0
 10
4.5452867296006945
 20
17.6624877929687472
 30
0.0
 10
4.7688734266493054
 20
17.8864189995659721
 30
0.0
 10
4.7688734266493054
 20
18.1627156575520807
 30
0.0
 10
4.7688734266493054
 20
18.4386678059895814
 30
0.0
 10
4.5452867296006945
 20
18.6627712673611086
 30
0.0
 10
4.2689900716145832
 20
18.6627712673611086
 30
0.0
  0
SPLINE
  5
63
100
AcDbEntity
  8
DR-07_080910
390
0
 62
     7
100
AcDbSpline
210
0.0
220
0.0
230
1.0
 70
     8
 71
     3
 72
    17
 73
    13
 74
     0
 42
0.00000001
 43
0.00000001
 40
0.0
 40
0.0
 40
0.0
 40
0.0
 40
1.0
 40
1.0
 40
1.0
 40
2.0
 40
2.0
 40
2.0
 40
3.0
 40
3.0
 40
3.0
 40
4.0
 40
4.0
 40
4.0
 40
4.0
 10
5.0189873589409721
 20
19.9617445203993036
 30
0.0
 10
4.7426907009548609
 20
19.9617445203993036
 30
0.0
 10
4.51910400390625
 20
19.7378133138020821
 30
0.0
 10
4.51910400390625
 20
19.4618611653645814
 30
0.0
 10
4.51910400390625
 20
19.1855645073784693
 30
0.0
 10
4.7426907009548609
 20
18.9616333007812479
 30
0.0
 10
5.0189873589409721
 20
18.9616333007812479
 30
0.0
 10
5.2952840169270825
 20
18.9616333007812479
 30
0.0
 10
5.5188707139756943
 20
19.1855645073784693
 30
0.0
 10
5.5188707139756943
 20
19.4618611653645814
 30
0.0
 10
5.5188707139756943
 20
19.7378133138020821
 30
0.0
 10
5.2952840169270825
 20
19.9617445203993036
 30
0.0
 10
5.0189873589409721
 20
19.9617445203993036
 30
0.0
  0
SPLINE
  5
62
100
AcDbEntity
  8
DR-07_080910
390
0
 62
     7
100
AcDbSpline
210
0.0
220
0.0
230
1.0
 70
     8
 71
     3
 72
    17
 73
    13
 74
     0
 42
0.00000001
 43
0.00000001
 40
0.0
 40
0.0
 40
0.0
 40
0.0
 40
1.0
 40
1.0
 40
1.0
 40
2.0
 40
2.0
 40
2.0
 40
3.0
 40
3.0
 40
3.0
 40
4.0
 40
4.0
 40
4.0
 40
4.0
 10
3.5189927842881943
 20
19.9617445203993036
 30
0.0
 10
3.242696126302083
 20
19.9617445203993036
 30
0.0
 10
3.0191094292534721
 20
19.7378133138020821
 30
0.0
 10
3.0191094292534721
 20
19.4618611653645814
 30
0.0
 10
3.0191094292534721
 20
19.1855645073784693
 30
0.0
 10
3.242696126302083
 20
18.9616333007812479
 30
0.0
 10
3.5189927842881943
 20
18.9616333007812479
 30
0.0
 10
3.7952894422743051
 20
18.9616333007812479
 30
0.0
 10
4.0188761393229164
 20
19.1855645073784693
 30
0.0
 10
4.0188761393229164
 20
19.4618611653645814
 30
0.0
 10
4.0188761393229164
 20
19.7378133138020821
 30
0.0
 10
3.7952894422743051
 20
19.9617445203993036
 30
0.0
 10
3.5189927842881943
 20
19.9617445203993036
 30
0.0
  0
SPLINE
  5
61
100
AcDbEntity
  8
DR-07_080910
390
0
 62
     7
100
AcDbSpline
210
0.0
220
0.0
230
1.0
 70
     8
 71
     3
 72
    14
 73
    10
 74
     0
 42
0.00000001
 43
0.00000001
 40
0.0
 40
0.0
 40
0.0
 40
0.0
 40
1.0
 40
1.0
 40
1.0
 40
2.0
 40
2.0
 40
2.0
 40
3.0
 40
3.0
 40
3.0
 40
3.0
 10
2.5192260742187496
 20
17.729667154947915
 30
0.0
 10
2.7293768988715277
 20
17.6083997938368029
 30
0.0
 10
2.9963717990451384
 20
17.6555976019965257
 30
0.0
 10
3.1520901150173608
 20
17.8416327582465257
 30
0.0
 10
3.3081529405381942
 20
18.0273234049479143
 30
0.0
 10
3.3081529405381942
 20
18.2982801649305529
 30
0.0
 10
3.1520901150173608
 20
18.4841430664062472
 30
0.0
 10
2.9963717990451384
 20
18.6698337131076357
 30
0.0
 10
2.7290323893229163
 20
18.7170315212673586
 30
0.0
 10
2.5192260742187496
 20
18.59576416015625
 30
0.0
  0
SPLINE
  5
60
100
AcDbEntity
  8
DR-07_080910
390
0
 62
     7
100
AcDbSpline
210
0.0
220
0.0
230
1.0
 70
     8
 71
     3
 72
    17
 73
    13
 74
     0
 42
0.00000001
 43
0.00000001
 40
0.0
 40
0.0
 40
0.0
 40
0.0
 40
1.0
 40
1.0
 40
1.0
 40
2.0
 40
2.0
 40
2.0
 40
3.0
 40
3.0
 40
3.0
 40
4.0
 40
4.0
 40
4.0
 40
4.0
 10
10.2693128797743043
 20
21.2605455186631929
 30
0.0
 10
9.9930162217881939
 20
21.2605455186631929
 30
0.0
 10
9.7690850151909707
 20
21.0369588216145829
 30
0.0
 10
9.7690850151909707
 20
20.7606621636284707
 30
0.0
 10
9.7690850151909707
 20
20.4843655056423586
 30
0.0
 10
9.9930162217881939
 20
20.2607788085937486
 30
0.0
 10
10.2693128797743043
 20
20.2607788085937486
 30
0.0
 10
10.545265028211805
 20
20.2607788085937486
 30
0.0
 10
10.768851725260415
 20
20.4843655056423586
 30
0.0
 10
10.768851725260415
 20
20.7606621636284707
 30
0.0
 10
10.768851725260415
 20
21.0369588216145829
 30
0.0
 10
10.545265028211805
 20
21.2605455186631929
 30
0.0
 10
10.2693128797743043
 20
21.2605455186631929
 30
0.0
  0
SPLINE
  5
5F
100
AcDbEntity
  8
DR-07_080910
390
0
 62
     7
100
AcDbSpline
210
0.0
220
0.0
230
1.0
 70
     8
 71
     3
 72
    17
 73
    13
 74
     0
 42
0.00000001
 43
0.00000001
 40
0.0
 40
0.0
 40
0.0
 40
0.0
 40
1.0
 40
1.0
 40
1.0
 40
2.0
 40
2.0
 40
2.0
 40
3.0
 40
3.0
 40
3.0
 40
4.0
 40
4.0
 40
4.0
 40
4.0
 10
11.7693074544270821
 20
21.2605455186631929
 30
0.0
 10
11.4930107964409718
 20
21.2605455186631929
 30
0.0
 10
11.2690795898437486
 20
21.0369588216145829
 30
0.0
 10
11.2690795898437486
 20
20.7606621636284707
 30
0.0
 10
11.2690795898437486
 20
20.4843655056423586
 30
0.0
 10
11.4930107964409718
 20
20.2607788085937486
 30
0.0
 10
11.7693074544270821
 20
20.2607788085937486
 30
0.0
 10
12.0452596028645829
 20
20.2607788085937486
 30
0.0
 10
12.2688462999131929
 20
20.4843655056423586
 30
0.0
 10
12.2688462999131929
 20
20.7606621636284707
 30
0.0
 10
12.2688462999131929
 20
21.0369588216145829
 30
0.0
 10
12.0452596028645829
 20
21.2605455186631929
 30
0.0
 10
11.7693074544270821
 20
21.2605455186631929
 30
0.0
  0
SPLINE
  5
5E
100
AcDbEntity
  8
DR-07_080910
390
0
 62
     7
100
AcDbSpline
210
0.0
220
0.0
230
1.0
 70
     8
 71
     3
 72
    17
 73
    13
 74
     0
 42
0.00000001
 43
0.00000001
 40
0.0
 40
0.0
 40
0.0
 40
0.0
 40
1.0
 40
1.0
 40
1.0
 40
2.0
 40
2.0
 40
2.0
 40
3.0
 40
3.0
 40
3.0
 40
4.0
 40
4.0
 40
4.0
 40
4.0
 10
13.26930202907986
 20
21.2605455186631929
 30
0.0
 10
12.9930053710937496
 20
21.2605455186631929
 30
0.0
 10
12.7690741644965264
 20
21.0369588216145829
 30
0.0
 10
12.7690741644965264
 20
20.7606621636284707
 30
0.0
 10
12.7690741644965264
 20
20.4843655056423586
 30
0.0
 10
12.9930053710937496
 20
20.2607788085937486
 30
0.0
 10
13.26930202907986
 20
20.2607788085937486
 30
0.0
 10
13.5455986870659704
 20
20.2607788085937486
 30
0.0
 10
13.7688408745659707
 20
20.4843655056423586
 30
0.0
 10
13.7688408745659707
 20
20.7606621636284707
 30
0.0
 10
13.7688408745659707
 20
21.0369588216145829
 30
0.0
 10
13.5455986870659704
 20
21.2605455186631929
 30
0.0
 10
13.26930202907986
 20
21.2605455186631929
 30
0.0
  0
SPLINE
  5
5D
100
AcDbEntity
  8
DR-07_080910
390
0
 62
     7
100
AcDbSpline
210
0.0
220
0.0
230
1.0
 70
     8
 71
     3
 72
    11
 73
     7
 74
     0
 42
0.00000001
 43
0.00000001
 40
0.0
 40
0.0
 40
0.0
 40
0.0
 40
1.0
 40
1.0
 40
1.0
 40
2.0
 40
2.0
 40
2.0
 40
2.0
 10
14.3603637695312489
 20
21.0490166558159686
 30
0.0
 10
14.2656236436631936
 20
20.9139689127604136
 30
0.0
 10
14.2432305230034704
 20
20.74171413845486
 30
0.0
 10
14.3000745985243043
 20
20.5873738606770829
 30
0.0
 10
14.3572631835937479
 20
20.4330335828993022
 30
0.0
 10
14.4867987738715271
 20
20.3165893554687464
 30
0.0
 10
14.6459621853298589
 20
20.2759372287326372
 30
0.0
  0
SPLINE
  5
5C
100
AcDbEntity
  8
DR-07_080910
390
0
 62
     7
100
AcDbSpline
210
0.0
220
0.0
230
1.0
 70
     8
 71
     3
 72
    17
 73
    13
 74
     0
 42
0.00000001
 43
0.00000001
 40
0.0
 40
0.0
 40
0.0
 40
0.0
 40
1.0
 40
1.0
 40
1.0
 40
2.0
 40
2.0
 40
2.0
 40
3.0
 40
3.0
 40
3.0
 40
4.0
 40
4.0
 40
4.0
 40
4.0
 10
8.7693183051215264
 20
21.2605455186631929
 30
0.0
 10
8.4930216471354161
 20
21.2605455186631929
 30
0.0
 10
8.2690904405381929
 20
21.0369588216145829
 30
0.0
 10
8.2690904405381929
 20
20.7606621636284707
 30
0.0
 10
8.2690904405381929
 20
20.4843655056423586
 30
0.0
 10
8.4930216471354161
 20
20.2607788085937486
 30
0.0
 10
8.7693183051215264
 20
20.2607788085937486
 30
0.0
 10
9.0452704535590271
 20
20.2607788085937486
 30
0.0
 10
9.2688571506076389
 20
20.4843655056423586
 30
0.0
 10
9.2688571506076389
 20
20.7606621636284707
 30
0.0
 10
9.2688571506076389
 20
21.0369588216145829
 30
0.0
 10
9.0452704535590271
 20
21.2605455186631929
 30
0.0
 10
8.7693183051215264
 20
21.2605455186631929
 30
0.0
  0
SPLINE
  5
5B
100
AcDbEntity
  8
DR-07_080910
390
0
 62
     7
100
AcDbSpline
210
0.0
220
0.0
230
1.0
 70
     8
 71
     3
 72
    17
 73
    13
 74
     0
 42
0.00000001
 43
0.00000001
 40
0.0
 40
0.0
 40
0.0
 40
0.0
 40
1.0
 40
1.0
 40
1.0
 40
2.0
 40
2.0
 40
2.0
 40
3.0
 40
3.0
 40
3.0
 40
4.0
 40
4.0
 40
4.0
 40
4.0
 10
7.2693237304687495
 20
21.2605455186631929
 30
0.0
 10
6.9930270724826382
 20
21.2605455186631929
 30
0.0
 10
6.7690958658854159
 20
21.0369588216145829
 30
0.0
 10
6.7690958658854159
 20
20.7606621636284707
 30
0.0
 10
6.7690958658854159
 20
20.4843655056423586
 30
0.0
 10
6.9930270724826382
 20
20.2607788085937486
 30
0.0
 10
7.2693237304687495
 20
20.2607788085937486
 30
0.0
 10
7.5452758789062493
 20
20.2607788085937486
 30
0.0
 10
7.7692070855034716
 20
20.4843655056423586
 30
0.0
 10
7.7692070855034716
 20
20.7606621636284707
 30
0.0
 10
7.7692070855034716
 20
21.0369588216145829
 30
0.0
 10
7.5452758789062493
 20
21.2605455186631929
 30
0.0
 10
7.2693237304687495
 20
21.2605455186631929
 30
0.0
  0
SPLINE
  5
5A
100
AcDbEntity
  8
DR-07_080910
390
0
 62
     7
100
AcDbSpline
210
0.0
220
0.0
230
1.0
 70
     8
 71
     3
 72
    17
 73
    13
 74
     0
 42
0.00000001
 43
0.00000001
 40
0.0
 40
0.0
 40
0.0
 40
0.0
 40
1.0
 40
1.0
 40
1.0
 40
2.0
 40
2.0
 40
2.0
 40
3.0
 40
3.0
 40
3.0
 40
4.0
 40
4.0
 40
4.0
 40
4.0
 10
5.7693291558159716
 20
21.2605455186631929
 30
0.0
 10
5.4930324978298604
 20
21.2605455186631929
 30
0.0
 10
5.269101291232638
 20
21.0369588216145829
 30
0.0
 10
5.269101291232638
 20
20.7606621636284707
 30
0.0
 10
5.269101291232638
 20
20.4843655056423586
 30
0.0
 10
5.4930324978298604
 20
20.2607788085937486
 30
0.0
 10
5.7693291558159716
 20
20.2607788085937486
 30
0.0
 10
6.0452813042534714
 20
20.2607788085937486
 30
0.0
 10
6.2688680013020823
 20
20.4843655056423586
 30
0.0
 10
6.2688680013020823
 20
20.7606621636284707
 30
0.0
 10
6.2688680013020823
 20
21.0369588216145829
 30
0.0
 10
6.0452813042534714
 20
21.2605455186631929
 30
0.0
 10
5.7693291558159716
 20
21.2605455186631929
 30
0.0
  0
SPLINE
  5
59
100
AcDbEntity
  8
DR-07_080910
390
0
 62
     7
100
AcDbSpline
210
0.0
220
0.0
230
1.0
 70
     8
 71
     3
 72
    17
 73
    13
 74
     0
 42
0.00000001
 43
0.00000001
 40
0.0
 40
0.0
 40
0.0
 40
0.0
 40
1.0
 40
1.0
 40
1.0
 40
2.0
 40
2.0
 40
2.0
 40
3.0
 40
3.0
 40
3.0
 40
4.0
 40
4.0
 40
4.0
 40
4.0
 10
4.2689900716145832
 20
21.2605455186631929
 30
0.0
 10
3.9930379231770829
 20
21.2605455186631929
 30
0.0
 10
3.7691067165798606
 20
21.0369588216145829
 30
0.0
 10
3.7691067165798606
 20
20.7606621636284707
 30
0.0
 10
3.7691067165798606
 20
20.4843655056423586
 30
0.0
 10
3.9930379231770829
 20
20.2607788085937486
 30
0.0
 10
4.2689900716145832
 20
20.2607788085937486
 30
0.0
 10
4.5452867296006945
 20
20.2607788085937486
 30
0.0
 10
4.7688734266493054
 20
20.4843655056423586
 30
0.0
 10
4.7688734266493054
 20
20.7606621636284707
 30
0.0
 10
4.7688734266493054
 20
21.0369588216145829
 30
0.0
 10
4.5452867296006945
 20
21.2605455186631929
 30
0.0
 10
4.2689900716145832
 20
21.2605455186631929
 30
0.0
  0
SPLINE
  5
58
100
AcDbEntity
  8
DR-07_080910
390
0
 62
     7
100
AcDbSpline
210
0.0
220
0.0
230
1.0
 70
     8
 71
     3
 72
    11
 73
     7
 74
     0
 42
0.00000001
 43
0.00000001
 40
0.0
 40
0.0
 40
0.0
 40
0.0
 40
1.0
 40
1.0
 40
1.0
 40
2.0
 40
2.0
 40
2.0
 40
2.0
 10
2.8923299153645829
 20
20.2759372287326372
 30
0.0
 10
3.0518378363715275
 20
20.3165893554687464
 30
0.0
 10
3.180684407552083
 20
20.4330335828993022
 30
0.0
 10
3.2378729926215275
 20
20.5870293511284714
 30
0.0
 10
3.295061577690972
 20
20.7411973741319429
 30
0.0
 10
3.2730129665798606
 20
20.9137966579861079
 30
0.0
 10
3.1779283311631943
 20
21.0483276367187493
 30
0.0
  0
SPLINE
  5
57
100
AcDbEntity
  8
DR-07_080910
390
0
 62
     7
100
AcDbSpline
210
0.0
220
0.0
230
1.0
 70
     8
 71
     3
 72
    17
 73
    13
 74
     0
 42
0.00000001
 43
0.00000001
 40
0.0
 40
0.0
 40
0.0
 40
0.0
 40
1.0
 40
1.0
 40
1.0
 40
2.0
 40
2.0
 40
2.0
 40
3.0
 40
3.0
 40
3.0
 40
4.0
 40
4.0
 40
4.0
 40
4.0
 10
9.5189710828993039
 20
22.560035536024305
 30
0.0
 10
9.243018934461805
 20
22.560035536024305
 30
0.0
 10
9.0194322374131932
 20
22.3357598198784686
 30
0.0
 10
9.0194322374131932
 20
22.0601521809895829
 30
0.0
 10
9.0194322374131932
 20
21.7838555230034707
 30
0.0
 10
9.243018934461805
 20
21.5599243164062493
 30
0.0
 10
9.5189710828993039
 20
21.5599243164062493
 30
0.0
 10
9.7952677408854161
 20
21.5599243164062493
 30
0.0
 10
10.0191989474826375
 20
21.7838555230034707
 30
0.0
 10
10.0191989474826375
 20
22.0601521809895829
 30
0.0
 10
10.0191989474826375
 20
22.3357598198784686
 30
0.0
 10
9.7952677408854161
 20
22.560035536024305
 30
0.0
 10
9.5189710828993039
 20
22.560035536024305
 30
0.0
  0
SPLINE
  5
56
100
AcDbEntity
  8
DR-07_080910
390
0
 62
     7
100
AcDbSpline
210
0.0
220
0.0
230
1.0
 70
     8
 71
     3
 72
    17
 73
    13
 74
     0
 42
0.00000001
 43
0.00000001
 40
0.0
 40
0.0
 40
0.0
 40
0.0
 40
1.0
 40
1.0
 40
1.0
 40
2.0
 40
2.0
 40
2.0
 40
3.0
 40
3.0
 40
3.0
 40
4.0
 40
4.0
 40
4.0
 40
4.0
 10
11.0189656575520818
 20
22.560035536024305
 30
0.0
 10
10.7430135091145829
 20
22.560035536024305
 30
0.0
 10
10.5194268120659711
 20
22.3357598198784686
 30
0.0
 10
10.5194268120659711
 20
22.0601521809895829
 30
0.0
 10
10.5194268120659711
 20
21.7838555230034707
 30
0.0
 10
10.7430135091145829
 20
21.5599243164062493
 30
0.0
 10
11.0189656575520818
 20
21.5599243164062493
 30
0.0
 10
11.2952623155381939
 20
21.5599243164062493
 30
0.0
 10
11.5188490125868039
 20
21.7838555230034707
 30
0.0
 10
11.5188490125868039
 20
22.0601521809895829
 30
0.0
 10
11.5188490125868039
 20
22.3357598198784686
 30
0.0
 10
11.2952623155381939
 20
22.560035536024305
 30
0.0
 10
11.0189656575520818
 20
22.560035536024305
 30
0.0
  0
SPLINE
  5
55
100
AcDbEntity
  8
DR-07_080910
390
0
 62
     7
100
AcDbSpline
210
0.0
220
0.0
230
1.0
 70
     8
 71
     3
 72
    17
 73
    13
 74
     0
 42
0.00000001
 43
0.00000001
 40
0.0
 40
0.0
 40
0.0
 40
0.0
 40
1.0
 40
1.0
 40
1.0
 40
2.0
 40
2.0
 40
2.0
 40
3.0
 40
3.0
 40
3.0
 40
4.0
 40
4.0
 40
4.0
 40
4.0
 10
12.5189602322048597
 20
22.560035536024305
 30
0.0
 10
12.2430080837673607
 20
22.560035536024305
 30
0.0
 10
12.0187323676215261
 20
22.3357598198784686
 30
0.0
 10
12.0187323676215261
 20
22.0601521809895829
 30
0.0
 10
12.0187323676215261
 20
21.7838555230034707
 30
0.0
 10
12.2430080837673607
 20
21.5599243164062493
 30
0.0
 10
12.5189602322048597
 20
21.5599243164062493
 30
0.0
 10
12.7952568901909718
 20
21.5599243164062493
 30
0.0
 10
13.0191880967881932
 20
21.7838555230034707
 30
0.0
 10
13.0191880967881932
 20
22.0601521809895829
 30
0.0
 10
13.0191880967881932
 20
22.3357598198784686
 30
0.0
 10
12.7952568901909718
 20
22.560035536024305
 30
0.0
 10
12.5189602322048597
 20
22.560035536024305
 30
0.0
  0
SPLINE
  5
54
100
AcDbEntity
  8
DR-07_080910
390
0
 62
     7
100
AcDbSpline
210
0.0
220
0.0
230
1.0
 70
     8
 71
     3
 72
    17
 73
    13
 74
     0
 42
0.00000001
 43
0.00000001
 40
0.0
 40
0.0
 40
0.0
 40
0.0
 40
1.0
 40
1.0
 40
1.0
 40
2.0
 40
2.0
 40
2.0
 40
3.0
 40
3.0
 40
3.0
 40
4.0
 40
4.0
 40
4.0
 40
4.0
 10
10.2693128797743043
 20
23.8588365342881907
 30
0.0
 10
9.9930162217881939
 20
23.8588365342881907
 30
0.0
 10
9.7690850151909707
 20
23.6352498372395807
 30
0.0
 10
9.7690850151909707
 20
23.3589531792534686
 30
0.0
 10
9.7690850151909707
 20
23.08265652126736
 30
0.0
 10
9.9930162217881939
 20
22.8590698242187464
 30
0.0
 10
10.2693128797743043
 20
22.8590698242187464
 30
0.0
 10
10.545265028211805
 20
22.8590698242187464
 30
0.0
 10
10.768851725260415
 20
23.08265652126736
 30
0.0
 10
10.768851725260415
 20
23.3589531792534686
 30
0.0
 10
10.768851725260415
 20
23.6352498372395807
 30
0.0
 10
10.545265028211805
 20
23.8588365342881907
 30
0.0
 10
10.2693128797743043
 20
23.8588365342881907
 30
0.0
  0
SPLINE
  5
53
100
AcDbEntity
  8
DR-07_080910
390
0
 62
     7
100
AcDbSpline
210
0.0
220
0.0
230
1.0
 70
     8
 71
     3
 72
    14
 73
    10
 74
     0
 42
0.00000001
 43
0.00000001
 40
0.0
 40
0.0
 40
0.0
 40
0.0
 40
1.0
 40
1.0
 40
1.0
 40
2.0
 40
2.0
 40
2.0
 40
3.0
 40
3.0
 40
3.0
 40
3.0
 10
11.5112698025173597
 20
23.7871785481770814
 30
0.0
 10
11.30042995876736
 20
23.6603990342881936
 30
0.0
 10
11.2132690429687489
 20
23.39926079644097
 30
0.0
 10
11.3055976019965261
 20
23.171195475260415
 30
0.0
 10
11.397926161024305
 20
22.9434746636284714
 30
0.0
 10
11.6425279405381925
 20
22.8163506401909686
 30
0.0
 10
11.8819620768229157
 20
22.8718166775173586
 30
0.0
 10
12.1213962131076372
 20
22.9274549696180543
 30
0.0
 10
12.2853827582465271
 20
23.1488023546006936
 30
0.0
 10
12.2681572808159718
 20
23.3940931532118022
 30
0.0
  0
SPLINE
  5
52
100
AcDbEntity
  8
DR-07_080910
390
0
 62
     7
100
AcDbSpline
210
0.0
220
0.0
230
1.0
 70
     8
 71
     3
 72
    11
 73
     7
 74
     0
 42
0.00000001
 43
0.00000001
 40
0.0
 40
0.0
 40
0.0
 40
0.0
 40
1.0
 40
1.0
 40
1.0
 40
2.0
 40
2.0
 40
2.0
 40
2.0
 10
13.552833387586805
 20
22.2403306749131922
 30
0.0
 10
13.4932332356770814
 20
22.0863349066840264
 30
0.0
 10
13.5132147894965264
 20
21.9130466037326386
 30
0.0
 10
13.6062323676215264
 20
21.7769653320312493
 30
0.0
 10
13.6999389648437493
 20
21.6412285698784714
 30
0.0
 10
13.8542792426215264
 20
21.5599243164062493
 30
0.0
 10
14.0192993164062489
 20
21.5599243164062493
 30
0.0
  0
SPLINE
  5
51
100
AcDbEntity
  8
DR-07_080910
390
0
 62
     7
100
AcDbSpline
210
0.0
220
0.0
230
1.0
 70
     8
 71
     3
 72
    17
 73
    13
 74
     0
 42
0.00000001
 43
0.00000001
 40
0.0
 40
0.0
 40
0.0
 40
0.0
 40
1.0
 40
1.0
 40
1.0
 40
2.0
 40
2.0
 40
2.0
 40
3.0
 40
3.0
 40
3.0
 40
4.0
 40
4.0
 40
4.0
 40
4.0
 10
8.0189765082465279
 20
22.560035536024305
 30
0.0
 10
7.7430243598090271
 20
22.560035536024305
 30
0.0
 10
7.5194376627604163
 20
22.3357598198784686
 30
0.0
 10
7.5194376627604163
 20
22.0601521809895829
 30
0.0
 10
7.5194376627604163
 20
21.7838555230034707
 30
0.0
 10
7.7430243598090271
 20
21.5599243164062493
 30
0.0
 10
8.0189765082465279
 20
21.5599243164062493
 30
0.0
 10
8.2952731662326382
 20
21.5599243164062493
 30
0.0
 10
8.5192043728298597
 20
21.7838555230034707
 30
0.0
 10
8.5192043728298597
 20
22.0601521809895829
 30
0.0
 10
8.5192043728298597
 20
22.3357598198784686
 30
0.0
 10
8.2952731662326382
 20
22.560035536024305
 30
0.0
 10
8.0189765082465279
 20
22.560035536024305
 30
0.0
  0
SPLINE
  5
50
100
AcDbEntity
  8
DR-07_080910
390
0
 62
     7
100
AcDbSpline
210
0.0
220
0.0
230
1.0
 70
     8
 71
     3
 72
    17
 73
    13
 74
     0
 42
0.00000001
 43
0.00000001
 40
0.0
 40
0.0
 40
0.0
 40
0.0
 40
1.0
 40
1.0
 40
1.0
 40
2.0
 40
2.0
 40
2.0
 40
3.0
 40
3.0
 40
3.0
 40
4.0
 40
4.0
 40
4.0
 40
4.0
 10
6.5189819335937491
 20
22.560035536024305
 30
0.0
 10
6.2426852756076388
 20
22.560035536024305
 30
0.0
 10
6.0194430881076384
 20
22.3357598198784686
 30
0.0
 10
6.0194430881076384
 20
22.0601521809895829
 30
0.0
 10
6.0194430881076384
 20
21.7838555230034707
 30
0.0
 10
6.2426852756076388
 20
21.5599243164062493
 30
0.0
 10
6.5189819335937491
 20
21.5599243164062493
 30
0.0
 10
6.7952785915798604
 20
21.5599243164062493
 30
0.0
 10
7.0192097981770827
 20
21.7838555230034707
 30
0.0
 10
7.0192097981770827
 20
22.0601521809895829
 30
0.0
 10
7.0192097981770827
 20
22.3357598198784686
 30
0.0
 10
6.7952785915798604
 20
22.560035536024305
 30
0.0
 10
6.5189819335937491
 20
22.560035536024305
 30
0.0
  0
SPLINE
  5
4F
100
AcDbEntity
  8
DR-07_080910
390
0
 62
     7
100
AcDbSpline
210
0.0
220
0.0
230
1.0
 70
     8
 71
     3
 72
    17
 73
    13
 74
     0
 42
0.00000001
 43
0.00000001
 40
0.0
 40
0.0
 40
0.0
 40
0.0
 40
1.0
 40
1.0
 40
1.0
 40
2.0
 40
2.0
 40
2.0
 40
3.0
 40
3.0
 40
3.0
 40
4.0
 40
4.0
 40
4.0
 40
4.0
 10
5.0189873589409721
 20
22.560035536024305
 30
0.0
 10
4.7426907009548609
 20
22.560035536024305
 30
0.0
 10
4.51910400390625
 20
22.3357598198784686
 30
0.0
 10
4.51910400390625
 20
22.0601521809895829
 30
0.0
 10
4.51910400390625
 20
21.7838555230034707
 30
0.0
 10
4.7426907009548609
 20
21.5599243164062493
 30
0.0
 10
5.0189873589409721
 20
21.5599243164062493
 30
0.0
 10
5.2952840169270825
 20
21.5599243164062493
 30
0.0
 10
5.5188707139756943
 20
21.7838555230034707
 30
0.0
 10
5.5188707139756943
 20
22.0601521809895829
 30
0.0
 10
5.5188707139756943
 20
22.3357598198784686
 30
0.0
 10
5.2952840169270825
 20
22.560035536024305
 30
0.0
 10
5.0189873589409721
 20
22.560035536024305
 30
0.0
  0
SPLINE
  5
4E
100
AcDbEntity
  8
DR-07_080910
390
0
 62
     7
100
AcDbSpline
210
0.0
220
0.0
230
1.0
 70
     8
 71
     3
 72
    17
 73
    13
 74
     0
 42
0.00000001
 43
0.00000001
 40
0.0
 40
0.0
 40
0.0
 40
0.0
 40
1.0
 40
1.0
 40
1.0
 40
2.0
 40
2.0
 40
2.0
 40
3.0
 40
3.0
 40
3.0
 40
4.0
 40
4.0
 40
4.0
 40
4.0
 10
7.2693237304687495
 20
23.8588365342881907
 30
0.0
 10
6.9930270724826382
 20
23.8588365342881907
 30
0.0
 10
6.7690958658854159
 20
23.6352498372395807
 30
0.0
 10
6.7690958658854159
 20
23.3589531792534686
 30
0.0
 10
6.7690958658854159
 20
23.08265652126736
 30
0.0
 10
6.9930270724826382
 20
22.8590698242187464
 30
0.0
 10
7.2693237304687495
 20
22.8590698242187464
 30
0.0
 10
7.5452758789062493
 20
22.8590698242187464
 30
0.0
 10
7.7692070855034716
 20
23.08265652126736
 30
0.0
 10
7.7692070855034716
 20
23.3589531792534686
 30
0.0
 10
7.7692070855034716
 20
23.6352498372395807
 30
0.0
 10
7.5452758789062493
 20
23.8588365342881907
 30
0.0
 10
7.2693237304687495
 20
23.8588365342881907
 30
0.0
  0
SPLINE
  5
4D
100
AcDbEntity
  8
DR-07_080910
390
0
 62
     7
100
AcDbSpline
210
0.0
220
0.0
230
1.0
 70
     8
 71
     3
 72
    17
 73
    13
 74
     0
 42
0.00000001
 43
0.00000001
 40
0.0
 40
0.0
 40
0.0
 40
0.0
 40
1.0
 40
1.0
 40
1.0
 40
2.0
 40
2.0
 40
2.0
 40
3.0
 40
3.0
 40
3.0
 40
4.0
 40
4.0
 40
4.0
 40
4.0
 10
8.7693183051215264
 20
23.8588365342881907
 30
0.0
 10
8.4930216471354161
 20
23.8588365342881907
 30
0.0
 10
8.2690904405381929
 20
23.6352498372395807
 30
0.0
 10
8.2690904405381929
 20
23.3589531792534686
 30
0.0
 10
8.2690904405381929
 20
23.08265652126736
 30
0.0
 10
8.4930216471354161
 20
22.8590698242187464
 30
0.0
 10
8.7693183051215264
 20
22.8590698242187464
 30
0.0
 10
9.0452704535590271
 20
22.8590698242187464
 30
0.0
 10
9.2688571506076389
 20
23.08265652126736
 30
0.0
 10
9.2688571506076389
 20
23.3589531792534686
 30
0.0
 10
9.2688571506076389
 20
23.6352498372395807
 30
0.0
 10
9.0452704535590271
 20
23.8588365342881907
 30
0.0
 10
8.7693183051215264
 20
23.8588365342881907
 30
0.0
  0
SPLINE
  5
4C
100
AcDbEntity
  8
DR-07_080910
390
0
 62
     7
100
AcDbSpline
210
0.0
220
0.0
230
1.0
 70
     8
 71
     3
 72
    14
 73
    10
 74
     0
 42
0.00000001
 43
0.00000001
 40
0.0
 40
0.0
 40
0.0
 40
0.0
 40
1.0
 40
1.0
 40
1.0
 40
2.0
 40
2.0
 40
2.0
 40
3.0
 40
3.0
 40
3.0
 40
3.0
 10
5.2704793294270829
 20
23.3934041341145829
 30
0.0
 10
5.2532538519965275
 20
23.1477688259548593
 30
0.0
 10
5.4175849066840271
 20
22.9269382052951372
 30
0.0
 10
5.6570190429687495
 20
22.8718166775173586
 30
0.0
 10
5.8964531792534718
 20
22.8163506401909686
 30
0.0
 10
6.1407104492187496
 20
22.9438191731770829
 30
0.0
 10
6.2326944986979163
 20
23.1715399848090264
 30
0.0
 10
6.3246785481770829
 20
23.3996053059895814
 30
0.0
 10
6.2375176323784718
 20
23.6603990342881936
 30
0.0
 10
6.0270222981770827
 20
23.7871785481770814
 30
0.0
  0
SPLINE
  5
4B
100
AcDbEntity
  8
DR-07_080910
390
0
 62
     7
100
AcDbSpline
210
0.0
220
0.0
230
1.0
 70
     8
 71
     3
 72
    11
 73
     7
 74
     0
 42
0.00000001
 43
0.00000001
 40
0.0
 40
0.0
 40
0.0
 40
0.0
 40
1.0
 40
1.0
 40
1.0
 40
2.0
 40
2.0
 40
2.0
 40
2.0
 10
3.5186482747395829
 20
21.5599243164062493
 30
0.0
 10
3.6836683485243054
 20
21.5599243164062493
 30
0.0
 10
3.8383531358506939
 20
21.6412285698784714
 30
0.0
 10
3.9313707139756939
 20
21.7773098415798607
 30
0.0
 10
4.0250773111979159
 20
21.9135633680555522
 30
0.0
 10
4.0450588650173609
 20
22.0870239257812493
 30
0.0
 10
3.9851142035590272
 20
22.241019694010415
 30
0.0
  0
SPLINE
  5
4A
100
AcDbEntity
  8
DR-07_080910
390
0
 62
     7
100
AcDbSpline
210
0.0
220
0.0
230
1.0
 70
     8
 71
     3
 72
    11
 73
     7
 74
     0
 42
0.00000001
 43
0.00000001
 40
0.0
 40
0.0
 40
0.0
 40
0.0
 40
1.0
 40
1.0
 40
1.0
 40
2.0
 40
2.0
 40
2.0
 40
2.0
 10
9.0817884657118046
 20
24.4155639648437486
 30
0.0
 10
9.1596476236979161
 20
24.2750040690104143
 30
0.0
 10
9.30055202907986
 20
24.1806084526909686
 30
0.0
 10
9.4597154405381936
 20
24.1616604275173579
 30
0.0
 10
9.61956787109375
 20
24.1423678927951357
 30
0.0
 10
9.7787312825520818
 20
24.2012790256076364
 30
0.0
 10
9.8875962999131932
 20
24.3197903103298572
 30
0.0
  0
SPLINE
  5
49
100
AcDbEntity
  8
DR-07_080910
390
0
 62
     7
100
AcDbSpline
210
0.0
220
0.0
230
1.0
 70
     8
 71
     3
 72
    11
 73
     7
 74
     0
 42
0.00000001
 43
0.00000001
 40
0.0
 40
0.0
 40
0.0
 40
0.0
 40
1.0
 40
1.0
 40
1.0
 40
2.0
 40
2.0
 40
2.0
 40
2.0
 10
7.6503512912326386
 20
24.3201348198784686
 30
0.0
 10
7.7592163085937491
 20
24.2016235351562479
 30
0.0
 10
7.9183797200520827
 20
24.1423678927951357
 30
0.0
 10
8.0782321506076382
 20
24.1616604275173579
 30
0.0
 10
8.2373955620659718
 20
24.1806084526909686
 30
0.0
 10
8.3782999674479157
 20
24.2750040690104143
 30
0.0
 10
8.4565036349826386
 20
24.4155639648437486
 30
0.0
  0
HATCH
  5
47
100
AcDbEntity
  8
FIX-SILK_091020
390
0
 62
     7
100
AcDbHatch
 10
0.0
 20
0.0
 30
0.0
210
0.0
220
0.0
230
1.0
  2
SOLID
 70
     1
 71
     0
 91
        8
 92
        1
 93
        1
 72
     4
 94
        3
 73
     0
 74
     0
 95
       23
 96
       19
 40
0.0
 40
0.0
 40
0.0
 40
0.0
 40
1.0
 40
1.0
 40
1.0
 40
2.0
 40
2.0
 40
2.0
 40
3.0
 40
3.0
 40
3.0
 40
4.0
 40
4.0
 40
4.0
 40
5.0
 40
5.0
 40
5.0
 40
6.0
 40
6.0
 40
6.0
 40
6.0
 10
97.8569037543402658
 20
23.1798082139756936
 10
97.8569037543402658
 20
23.1798082139756936
 10
98.3374945746527658
 20
23.1798082139756936
 10
98.3374945746527658
 20
23.1798082139756936
 10
98.4332682291666572
 20
23.1787746853298593
 10
98.5204291449652629
 20
23.1274427625868029
 10
98.5638373480902743
 20
23.0468275282118036
 10
98.6072455512152715
 20
22.9658677842881929
 10
98.6000108506944315
 20
22.8683715820312479
 10
98.54488932291666
 20
22.79464653862847
 10
98.4887342664930401
 20
22.721610514322915
 10
98.3998508029513772
 20
22.6778578016493029
 10
98.3047661675347086
 20
22.6768242730034686
 10
98.3047661675347086
 20
22.6768242730034686
 10
97.8569037543402658
 20
22.67716878255208
 10
97.8569037543402658
 20
22.67716878255208
 10
97.8569037543402658
 20
22.67716878255208
 10
97.8569037543402658
 20
23.1798082139756936
 10
97.8569037543402658
 20
23.1798082139756936
 97
        0
 92
       16
 93
        1
 72
     4
 94
        3
 73
     0
 74
     0
 95
       56
 96
       52
 40
0.0
 40
0.0
 40
0.0
 40
0.0
 40
1.0
 40
1.0
 40
1.0
 40
2.0
 40
2.0
 40
2.0
 40
3.0
 40
3.0
 40
3.0
 40
4.0
 40
4.0
 40
4.0
 40
5.0
 40
5.0
 40
5.0
 40
6.0
 40
6.0
 40
6.0
 40
7.0
 40
7.0
 40
7.0
 40
8.0
 40
8.0
 40
8.0
 40
9.0
 40
9.0
 40
9.0
 40
10.0
 40
10.0
 40
10.0
 40
11.0
 40
11.0
 40
11.0
 40
12.0
 40
12.0
 40
12.0
 40
13.0
 40
13.0
 40
13.0
 40
14.0
 40
14.0
 40
14.0
 40
15.0
 40
15.0
 40
15.0
 40
16.0
 40
16.0
 40
16.0
 40
17.0
 40
17.0
 40
17.0
 40
17.0
 10
97.4672634548610972
 20
23.4721245659722193
 10
97.4672634548610972
 20
23.4721245659722193
 10
97.4672634548610972
 20
21.6725789388020829
 10
97.4672634548610972
 20
21.6725789388020829
 10
97.4672634548610972
 20
21.6725789388020829
 10
97.8575927734374886
 20
21.6725789388020829
 10
97.8575927734374886
 20
21.6725789388020829
 10
97.8575927734374886
 20
21.6725789388020829
 10
97.8575927734374886
 20
22.3998385959201372
 10
97.8575927734374886
 20
22.3998385959201372
 10
97.8575927734374886
 20
22.3998385959201372
 10
98.1297553168402743
 20
22.3998385959201372
 10
98.1297553168402743
 20
22.3998385959201372
 10
98.1952121310763744
 20
22.3989773220486086
 10
98.2603244357638772
 20
22.3929484049479157
 10
98.3247477213541572
 20
22.3819240993923607
 10
98.4260335286458314
 20
22.3533298068576372
 10
98.5018256293402743
 20
22.2730590820312493
 10
98.5207736545138744
 20
22.17452935112847
 10
98.5452338324652715
 20
22.054984537760415
 10
98.5590142144097143
 20
21.9340616861979143
 10
98.5610812717013829
 20
21.8127943250868022
 10
98.5624593098958286
 20
21.7645629882812486
 10
98.5762396918402715
 20
21.7170206705729143
 10
98.6010443793402658
 20
21.6746459960937479
 10
98.6010443793402658
 20
21.6746459960937479
 10
98.96587999131944
 20
21.6746459960937479
 10
98.96587999131944
 20
21.6746459960937479
 10
98.9469319661458258
 20
21.7170206705729143
 10
98.9341851128472172
 20
21.7618069118923607
 10
98.9290174696180458
 20
21.808143446180555
 10
98.9290174696180458
 20
21.808143446180555
 10
98.9117919921874886
 20
22.0822007921006929
 10
98.9117919921874886
 20
22.0822007921006929
 10
98.9104139539930429
 20
22.1438680013020814
 10
98.9031792534722172
 20
22.20553521050347
 10
98.8911214192708314
 20
22.2658243815104129
 10
98.8663167317708229
 20
22.4108629014756922
 10
98.7419487847222115
 20
22.52213948567708
 10
98.5879530164930458
 20
22.5366088867187493
 10
98.7998263888888744
 20
22.5693372938368029
 10
98.9600233289930458
 20
22.7360799153645807
 10
98.9744927300347115
 20
22.9389960394965264
 10
98.9941297743055486
 20
23.1939331054687479
 10
98.8036159939236001
 20
23.4195868598090264
 10
98.5379991319444315
 20
23.4573106553819422
 10
98.4535942925347172
 20
23.4697129991319429
 10
98.3685004340277658
 20
23.4750528971354129
 10
98.2834065755208286
 20
23.4721245659722193
 10
98.2834065755208286
 20
23.4721245659722193
 10
97.4672634548610972
 20
23.4721245659722193
 10
97.4672634548610972
 20
23.4721245659722193
 97
        0
 92
       16
 93
        1
 72
     4
 94
        3
 73
     0
 74
     0
 95
       41
 96
       37
 40
0.0
 40
0.0
 40
0.0
 40
0.0
 40
1.0
 40
1.0
 40
1.0
 40
2.0
 40
2.0
 40
2.0
 40
3.0
 40
3.0
 40
3.0
 40
4.0
 40
4.0
 40
4.0
 40
5.0
 40
5.0
 40
5.0
 40
6.0
 40
6.0
 40
6.0
 40
7.0
 40
7.0
 40
7.0
 40
8.0
 40
8.0
 40
8.0
 40
9.0
 40
9.0
 40
9.0
 40
10.0
 40
10.0
 40
10.0
 40
11.0
 40
11.0
 40
11.0
 40
12.0
 40
12.0
 40
12.0
 40
12.0
 10
95.7505723741319343
 20
23.4705742730034714
 10
95.7505723741319343
 20
23.4705742730034714
 10
95.7505723741319343
 20
21.6725789388020829
 10
95.7505723741319343
 20
21.6725789388020829
 10
95.7505723741319343
 20
21.6725789388020829
 10
97.1644395616319372
 20
21.6725789388020829
 10
97.1644395616319372
 20
21.6725789388020829
 10
97.1644395616319372
 20
21.6725789388020829
 10
97.1644395616319372
 20
21.9754028320312464
 10
97.1644395616319372
 20
21.9754028320312464
 10
97.1644395616319372
 20
21.9754028320312464
 10
96.1357340494791544
 20
21.9754028320312464
 10
96.1357340494791544
 20
21.9754028320312464
 10
96.1357340494791544
 20
21.9754028320312464
 10
96.1357340494791544
 20
22.4673624674479129
 10
96.1357340494791544
 20
22.4673624674479129
 10
96.1357340494791544
 20
22.4673624674479129
 10
97.0225016276041572
 20
22.4673624674479129
 10
97.0225016276041572
 20
22.4673624674479129
 10
97.0225016276041572
 20
22.4673624674479129
 10
97.0225016276041572
 20
22.7722534179687486
 10
97.0225016276041572
 20
22.7722534179687486
 10
97.0225016276041572
 20
22.7722534179687486
 10
96.1384901258680458
 20
22.7722534179687486
 10
96.1384901258680458
 20
22.7722534179687486
 10
96.1384901258680458
 20
22.7722534179687486
 10
96.1384901258680458
 20
23.1649943033854129
 10
96.1384901258680458
 20
23.1649943033854129
 10
96.1384901258680458
 20
23.1649943033854129
 10
97.1499701605902715
 20
23.1649943033854129
 10
97.1499701605902715
 20
23.1649943033854129
 10
97.1499701605902715
 20
23.1649943033854129
 10
97.1499701605902715
 20
23.4705742730034714
 10
97.1499701605902715
 20
23.4705742730034714
 10
97.1499701605902715
 20
23.4705742730034714
 10
95.7505723741319343
 20
23.4705742730034714
 10
95.7505723741319343
 20
23.4705742730034714
 97
        0
 92
       16
 93
        1
 72
     4
 94
        3
 73
     0
 74
     0
 95
       44
 96
       40
 40
0.0
 40
0.0
 40
0.0
 40
0.0
 40
1.0
 40
1.0
 40
1.0
 40
2.0
 40
2.0
 40
2.0
 40
3.0
 40
3.0
 40
3.0
 40
4.0
 40
4.0
 40
4.0
 40
5.0
 40
5.0
 40
5.0
 40
6.0
 40
6.0
 40
6.0
 40
7.0
 40
7.0
 40
7.0
 40
8.0
 40
8.0
 40
8.0
 40
9.0
 40
9.0
 40
9.0
 40
10.0
 40
10.0
 40
10.0
 40
11.0
 40
11.0
 40
11.0
 40
12.0
 40
12.0
 40
12.0
 40
13.0
 40
13.0
 40
13.0
 40
13.0
 10
93.1147298177083229
 20
23.4736748589409707
 10
93.1147298177083229
 20
23.4736748589409707
 10
93.6669786241319429
 20
21.6725789388020829
 10
93.6669786241319429
 20
21.6725789388020829
 10
93.6669786241319429
 20
21.6725789388020829
 10
94.0321587456597143
 20
21.6725789388020829
 10
94.0321587456597143
 20
21.6725789388020829
 10
94.0321587456597143
 20
21.6725789388020829
 10
94.3353271484374858
 20
22.9138468424479136
 10
94.3353271484374858
 20
22.9138468424479136
 10
94.3353271484374858
 20
22.9138468424479136
 10
94.6350504557291572
 20
21.6743014865451364
 10
94.6350504557291572
 20
21.6743014865451364
 10
94.6350504557291572
 20
21.6743014865451364
 10
94.99712999131944
 20
21.6743014865451364
 10
94.99712999131944
 20
21.6743014865451364
 10
94.99712999131944
 20
21.6743014865451364
 10
95.5424886067708314
 20
23.4716078016493022
 10
95.5424886067708314
 20
23.4716078016493022
 10
95.5424886067708314
 20
23.4716078016493022
 10
95.1549153645833314
 20
23.4716078016493022
 10
95.1549153645833314
 20
23.4716078016493022
 10
95.1549153645833314
 20
23.4716078016493022
 10
94.80627170138888
 20
22.2225884331597214
 10
94.80627170138888
 20
22.2225884331597214
 10
94.80627170138888
 20
22.2225884331597214
 10
94.52963053385416
 20
23.4726413302951364
 10
94.52963053385416
 20
23.4726413302951364
 10
94.52963053385416
 20
23.4726413302951364
 10
94.14446885850694
 20
23.4726413302951364
 10
94.14446885850694
 20
23.4726413302951364
 10
94.14446885850694
 20
23.4726413302951364
 10
93.8557698567708201
 20
22.22103814019097
 10
93.8557698567708201
 20
22.22103814019097
 10
93.8557698567708201
 20
22.22103814019097
 10
93.5050591362847143
 20
23.4736748589409707
 10
93.5050591362847143
 20
23.4736748589409707
 10
93.5050591362847143
 20
23.4736748589409707
 10
93.1147298177083229
 20
23.4736748589409707
 10
93.1147298177083229
 20
23.4736748589409707
 97
        0
 92
        1
 93
        1
 72
     4
 94
        3
 73
     0
 74
     0
 95
       29
 96
       25
 40
0.0
 40
0.0
 40
0.0
 40
0.0
 40
1.0
 40
1.0
 40
1.0
 40
2.0
 40
2.0
 40
2.0
 40
3.0
 40
3.0
 40
3.0
 40
4.0
 40
4.0
 40
4.0
 40
5.0
 40
5.0
 40
5.0
 40
6.0
 40
6.0
 40
6.0
 40
7.0
 40
7.0
 40
7.0
 40
8.0
 40
8.0
 40
8.0
 40
8.0
 10
92.5962429470486086
 20
22.2641018337673593
 10
92.5697157118055429
 20
22.1958889431423607
 10
92.5314751519097172
 20
22.1321546766493036
 10
92.4835883246527715
 20
22.0751383463541657
 10
92.4005615234374886
 20
21.9750583224826386
 10
92.2758490668402658
 20
21.9144246419270807
 10
92.1418348524305486
 20
21.9092569986979164
 10
92.0078206380208314
 20
21.9144246419270807
 10
91.8824191623263857
 20
21.9750583224826386
 10
91.7993923611111029
 20
22.0751383463541657
 10
91.75219455295138
 20
22.1321546766493036
 10
91.7136094835069429
 20
22.1958889431423607
 10
91.6870822482638772
 20
22.2641018337673593
 10
91.5895860460069429
 20
22.5292019314236107
 10
91.6278266059027686
 20
22.8228963216145821
 10
91.79043511284722
 20
23.05699055989583
 10
91.8720838758680429
 20
23.1649943033854129
 10
92.0016194661458258
 20
23.230795627170135
 10
92.1418348524305486
 20
23.2359632703993029
 10
92.28170572916666
 20
23.230795627170135
 10
92.4112413194444429
 20
23.1649943033854129
 10
92.4928900824652658
 20
23.0571628146701357
 10
92.6558430989583286
 20
22.8228963216145821
 10
92.6944281684027658
 20
22.5292019314236107
 10
92.5962429470486086
 20
22.2641018337673593
 97
        0
 92
       16
 93
        1
 72
     4
 94
        3
 73
     0
 74
     0
 95
       23
 96
       19
 40
0.0
 40
0.0
 40
0.0
 40
0.0
 40
1.0
 40
1.0
 40
1.0
 40
2.0
 40
2.0
 40
2.0
 40
3.0
 40
3.0
 40
3.0
 40
4.0
 40
4.0
 40
4.0
 40
5.0
 40
5.0
 40
5.0
 40
6.0
 40
6.0
 40
6.0
 40
6.0
 10
92.8491129557291544
 20
21.9478420681423607
 10
93.1553819444444429
 20
22.3974270290798607
 10
93.08544650607638
 20
22.98963894314236
 10
92.68237033420138
 20
23.3634318033854136
 10
92.5300971137152715
 20
23.4840101453993029
 10
92.3399278428819343
 20
23.5518785264756936
 10
92.1418348524305486
 20
23.5556681315104157
 10
91.9437418619791629
 20
23.5518785264756936
 10
91.7535725911458258
 20
23.4840101453993029
 10
91.6012993706597172
 20
23.3634318033854136
 10
91.1982231987847172
 20
22.98963894314236
 10
91.1282877604166544
 20
22.3974270290798607
 10
91.4345567491319429
 20
21.9478420681423607
 10
91.5978542751736029
 20
21.7304565429687493
 10
91.8603705512152686
 20
21.5995429144965243
 10
92.1418348524305486
 20
21.5954087999131907
 10
92.4229546440972172
 20
21.5995429144965243
 10
92.6854709201388829
 20
21.7304565429687493
 10
92.8491129557291544
 20
21.9478420681423607
 97
        0
 92
        1
 93
        1
 72
     4
 94
        3
 73
     0
 74
     0
 95
       26
 96
       22
 40
0.0
 40
0.0
 40
0.0
 40
0.0
 40
1.0
 40
1.0
 40
1.0
 40
2.0
 40
2.0
 40
2.0
 40
3.0
 40
3.0
 40
3.0
 40
4.0
 40
4.0
 40
4.0
 40
5.0
 40
5.0
 40
5.0
 40
6.0
 40
6.0
 40
6.0
 40
7.0
 40
7.0
 40
7.0
 40
7.0
 10
89.9376627604166572
 20
23.1784301757812479
 10
89.9376627604166572
 20
23.1784301757812479
 10
90.2962972005208258
 20
23.1784301757812479
 10
90.2962972005208258
 20
23.1784301757812479
 10
90.3948269314236086
 20
23.1787746853298593
 10
90.4878445095486086
 20
23.1364000108506929
 10
90.5484781901041629
 20
23.0631917317708321
 10
90.5980875651041515
 20
23.0037638346354143
 10
90.6201361762152686
 20
22.9274549696180543
 10
90.6104899088541629
 20
22.8518351236979136
 10
90.6004991319444315
 20
22.7763875325520821
 10
90.5588134765624915
 20
22.7074856228298607
 10
90.4954237196180458
 20
22.6614935980902743
 10
90.4430582682291515
 20
22.628592936197915
 10
90.3827690972222086
 20
22.6093004014756929
 10
90.3200683593749858
 20
22.6044772677951364
 10
90.3200683593749858
 20
22.6044772677951364
 10
89.9376627604166572
 20
22.6044772677951364
 10
89.9376627604166572
 20
22.6044772677951364
 10
89.9376627604166572
 20
22.6044772677951364
 10
89.9376627604166572
 20
23.1784301757812479
 10
89.9376627604166572
 20
23.1784301757812479
 97
        0
 92
       16
 93
        1
 72
     4
 94
        3
 73
     0
 74
     0
 95
       32
 96
       28
 40
0.0
 40
0.0
 40
0.0
 40
0.0
 40
1.0
 40
1.0
 40
1.0
 40
2.0
 40
2.0
 40
2.0
 40
3.0
 40
3.0
 40
3.0
 40
4.0
 40
4.0
 40
4.0
 40
5.0
 40
5.0
 40
5.0
 40
6.0
 40
6.0
 40
6.0
 40
7.0
 40
7.0
 40
7.0
 40
8.0
 40
8.0
 40
8.0
 40
9.0
 40
9.0
 40
9.0
 40
9.0
 10
89.5535346137152715
 20
23.4774644639756929
 10
89.5535346137152715
 20
23.4774644639756929
 10
89.5535346137152715
 20
21.6725789388020829
 10
89.5535346137152715
 20
21.6725789388020829
 10
89.5535346137152715
 20
21.6725789388020829
 10
89.9366292317708229
 20
21.6725789388020829
 10
89.9366292317708229
 20
21.6725789388020829
 10
89.9366292317708229
 20
21.6725789388020829
 10
89.9366292317708229
 20
22.29855278862847
 10
89.9366292317708229
 20
22.29855278862847
 10
89.9366292317708229
 20
22.29855278862847
 10
90.4313449435763772
 20
22.3099216037326364
 10
90.4313449435763772
 20
22.3099216037326364
 10
90.7076416015624858
 20
22.3150892469618043
 10
90.9391520182291515
 20
22.50904812282986
 10
90.9791151258680486
 20
22.7688083224826379
 10
90.9970296223958286
 20
22.870094129774305
 10
90.9901394314236001
 20
22.9737915039062486
 10
90.9587890624999886
 20
23.0719767252604129
 10
90.8909206814236086
 20
23.2962524414062493
 10
90.6821478949652686
 20
23.4552435980902771
 10
90.4372016059027715
 20
23.4705742730034714
 10
90.3555528428819343
 20
23.4750528971354129
 10
90.2728705512152629
 20
23.4771199544270814
 10
90.19122178819444
 20
23.4774644639756929
 10
90.19122178819444
 20
23.4774644639756929
 10
89.5535346137152715
 20
23.4774644639756929
 10
89.5535346137152715
 20
23.4774644639756929
 97
        0
 75
     2
 76
     1
 98
        1
 10
0.0
 20
0.0
  0
HATCH
  5
46
100
AcDbEntity
  8
FIX-SILK_091020
390
0
 62
     7
100
AcDbHatch
 10
0.0
 20
0.0
 30
0.0
210
0.0
220
0.0
230
1.0
  2
SOLID
 70
     1
 71
     0
 91
        6
 92
       16
 93
        1
 72
     4
 94
        3
 73
     0
 74
     0
 95
       41
 96
       37
 40
0.0
 40
0.0
 40
0.0
 40
0.0
 40
1.0
 40
1.0
 40
1.0
 40
2.0
 40
2.0
 40
2.0
 40
3.0
 40
3.0
 40
3.0
 40
4.0
 40
4.0
 40
4.0
 40
5.0
 40
5.0
 40
5.0
 40
6.0
 40
6.0
 40
6.0
 40
7.0
 40
7.0
 40
7.0
 40
8.0
 40
8.0
 40
8.0
 40
9.0
 40
9.0
 40
9.0
 40
10.0
 40
10.0
 40
10.0
 40
11.0
 40
11.0
 40
11.0
 40
12.0
 40
12.0
 40
12.0
 40
12.0
 10
29.3794297960069422
 20
19.9889607747395814
 10
29.3794297960069422
 20
19.9889607747395814
 10
28.8854031032986072
 20
19.9889607747395814
 10
28.8854031032986072
 20
19.9889607747395814
 10
28.8854031032986072
 20
19.9889607747395814
 10
28.8854031032986072
 20
19.776053873697915
 10
28.8854031032986072
 20
19.776053873697915
 10
28.8854031032986072
 20
19.776053873697915
 10
29.3780517578124964
 20
19.776053873697915
 10
29.3780517578124964
 20
19.776053873697915
 10
29.3780517578124964
 20
19.776053873697915
 10
29.3780517578124964
 20
19.2961520724826379
 10
29.3780517578124964
 20
19.2961520724826379
 10
29.3780517578124964
 20
19.2961520724826379
 10
29.5713216145833293
 20
19.2961520724826379
 10
29.5713216145833293
 20
19.2961520724826379
 10
29.5713216145833293
 20
19.2961520724826379
 10
29.5713216145833293
 20
19.7763983832465264
 10
29.5713216145833293
 20
19.7763983832465264
 10
29.5713216145833293
 20
19.7763983832465264
 10
30.0650037977430529
 20
19.7763983832465264
 10
30.0650037977430529
 20
19.7763983832465264
 10
30.0650037977430529
 20
19.7763983832465264
 10
30.0650037977430529
 20
19.9896497938368043
 10
30.0650037977430529
 20
19.9896497938368043
 10
30.0650037977430529
 20
19.9896497938368043
 10
29.572699652777775
 20
19.9896497938368043
 10
29.572699652777775
 20
19.9896497938368043
 10
29.572699652777775
 20
19.9896497938368043
 10
29.572699652777775
 20
20.4714463975694443
 10
29.572699652777775
 20
20.4714463975694443
 10
29.572699652777775
 20
20.4714463975694443
 10
29.3794297960069422
 20
20.4714463975694443
 10
29.3794297960069422
 20
20.4714463975694443
 10
29.3794297960069422
 20
20.4714463975694443
 10
29.3794297960069422
 20
19.9889607747395814
 10
29.3794297960069422
 20
19.9889607747395814
 97
        0
 92
        1
 93
        1
 72
     4
 94
        3
 73
     0
 74
     0
 95
       17
 96
       13
 40
0.0
 40
0.0
 40
0.0
 40
0.0
 40
1.0
 40
1.0
 40
1.0
 40
2.0
 40
2.0
 40
2.0
 40
3.0
 40
3.0
 40
3.0
 40
4.0
 40
4.0
 40
4.0
 40
4.0
 10
28.3238525390624964
 20
19.8876749674479143
 10
28.3238525390624964
 20
19.8876749674479143
 10
29.47520345052083
 20
21.0393703884548593
 10
29.47520345052083
 20
21.0393703884548593
 10
29.47520345052083
 20
21.0393703884548593
 10
30.626898871527775
 20
19.8876749674479143
 10
30.626898871527775
 20
19.8876749674479143
 10
30.626898871527775
 20
19.8876749674479143
 10
29.47520345052083
 20
18.7356350368923579
 10
29.47520345052083
 20
18.7356350368923579
 10
29.47520345052083
 20
18.7356350368923579
 10
28.3238525390624964
 20
19.8876749674479143
 10
28.3238525390624964
 20
19.8876749674479143
 97
        0
 92
       16
 93
        1
 72
     4
 94
        3
 73
     0
 74
     0
 95
       35
 96
       31
 40
0.0
 40
0.0
 40
0.0
 40
0.0
 40
1.0
 40
1.0
 40
1.0
 40
2.0
 40
2.0
 40
2.0
 40
3.0
 40
3.0
 40
3.0
 40
4.0
 40
4.0
 40
4.0
 40
5.0
 40
5.0
 40
5.0
 40
6.0
 40
6.0
 40
6.0
 40
7.0
 40
7.0
 40
7.0
 40
8.0
 40
8.0
 40
8.0
 40
9.0
 40
9.0
 40
9.0
 40
10.0
 40
10.0
 40
10.0
 40
10.0
 10
25.8812798394097214
 20
19.9779364691840264
 10
25.8309814453124993
 20
20.263190375434025
 10
25.5715657552083293
 20
20.4633504231770829
 10
25.2825222439236086
 20
20.4399237738715271
 10
24.9938232421874993
 20
20.4171861436631943
 10
24.7698920355902743
 20
20.1780965169270807
 10
24.7654134114583293
 20
19.8881917317708314
 10
24.7609347873263879
 20
19.5986314561631936
 10
24.977286783854165
 20
19.3528238932291643
 10
25.265296766493055
 20
19.3206122504340243
 10
25.5533067491319414
 20
19.2885728624131936
 10
25.8182345920138872
 20
19.4808091905381922
 10
25.8781792534722186
 20
19.7643405490451372
 10
25.8781792534722186
 20
19.7643405490451372
 10
28.14436306423611
 20
19.7643405490451372
 10
28.14436306423611
 20
19.7643405490451372
 10
28.14436306423611
 20
19.7643405490451372
 10
29.47520345052083
 20
18.4335001627604136
 10
29.47520345052083
 20
18.4335001627604136
 10
29.47520345052083
 20
18.4335001627604136
 10
30.9290337456597193
 20
19.8873304578993029
 10
30.9290337456597193
 20
19.8873304578993029
 10
30.9290337456597193
 20
19.8873304578993029
 10
29.47520345052083
 20
21.3415052625868036
 10
29.47520345052083
 20
21.3415052625868036
 10
29.47520345052083
 20
21.3415052625868036
 10
28.11094563802083
 20
19.9779364691840264
 10
28.11094563802083
 20
19.9779364691840264
 10
28.11094563802083
 20
19.9779364691840264
 10
25.8812798394097214
 20
19.9779364691840264
 10
25.8812798394097214
 20
19.9779364691840264
 97
        0
 92
       16
 93
        1
 72
     4
 94
        3
 73
     0
 74
     0
 95
       17
 96
       13
 40
0.0
 40
0.0
 40
0.0
 40
0.0
 40
1.0
 40
1.0
 40
1.0
 40
2.0
 40
2.0
 40
2.0
 40
3.0
 40
3.0
 40
3.0
 40
4.0
 40
4.0
 40
4.0
 40
4.0
 10
21.7898844401041636
 20
19.9837931315104136
 10
21.7898844401041636
 20
19.9837931315104136
 10
20.605460611979165
 20
19.9837931315104136
 10
20.605460611979165
 20
19.9837931315104136
 10
20.605460611979165
 20
19.9837931315104136
 10
20.605460611979165
 20
19.7912122938368036
 10
20.605460611979165
 20
19.7912122938368036
 10
20.605460611979165
 20
19.7912122938368036
 10
21.7898844401041636
 20
19.7912122938368036
 10
21.7898844401041636
 20
19.7912122938368036
 10
21.7898844401041636
 20
19.7912122938368036
 10
21.7898844401041636
 20
19.9837931315104136
 10
21.7898844401041636
 20
19.9837931315104136
 97
        0
 92
        1
 93
        1
 72
     4
 94
        3
 73
     0
 74
     0
 95
       17
 96
       13
 40
0.0
 40
0.0
 40
0.0
 40
0.0
 40
1.0
 40
1.0
 40
1.0
 40
2.0
 40
2.0
 40
2.0
 40
3.0
 40
3.0
 40
3.0
 40
4.0
 40
4.0
 40
4.0
 40
4.0
 10
22.3486789279513864
 20
19.8876749674479143
 10
22.3486789279513864
 20
19.8876749674479143
 10
21.19663899739583
 20
18.7354627821180522
 10
21.19663899739583
 20
18.7354627821180522
 10
21.19663899739583
 20
18.7354627821180522
 10
20.0445990668402771
 20
19.8876749674479143
 10
20.0445990668402771
 20
19.8876749674479143
 10
20.0445990668402771
 20
19.8876749674479143
 10
21.19663899739583
 20
21.0393703884548593
 10
21.19663899739583
 20
21.0393703884548593
 10
21.19663899739583
 20
21.0393703884548593
 10
22.3486789279513864
 20
19.8876749674479143
 10
22.3486789279513864
 20
19.8876749674479143
 97
        0
 92
       16
 93
        1
 72
     4
 94
        3
 73
     0
 74
     0
 95
       53
 96
       49
 40
0.0
 40
0.0
 40
0.0
 40
0.0
 40
1.0
 40
1.0
 40
1.0
 40
2.0
 40
2.0
 40
2.0
 40
3.0
 40
3.0
 40
3.0
 40
4.0
 40
4.0
 40
4.0
 40
5.0
 40
5.0
 40
5.0
 40
6.0
 40
6.0
 40
6.0
 40
7.0
 40
7.0
 40
7.0
 40
8.0
 40
8.0
 40
8.0
 40
9.0
 40
9.0
 40
9.0
 40
10.0
 40
10.0
 40
10.0
 40
11.0
 40
11.0
 40
11.0
 40
12.0
 40
12.0
 40
12.0
 40
13.0
 40
13.0
 40
13.0
 40
14.0
 40
14.0
 40
14.0
 40
15.0
 40
15.0
 40
15.0
 40
16.0
 40
16.0
 40
16.0
 40
16.0
 10
22.5602077907986107
 20
19.9779364691840264
 10
22.5602077907986107
 20
19.9779364691840264
 10
21.19663899739583
 20
21.3415052625868036
 10
21.19663899739583
 20
21.3415052625868036
 10
21.19663899739583
 20
21.3415052625868036
 10
19.7428087022569443
 20
19.8876749674479143
 10
19.7428087022569443
 20
19.8876749674479143
 10
19.7428087022569443
 20
19.8876749674479143
 10
21.19663899739583
 20
18.4335001627604136
 10
21.19663899739583
 20
18.4335001627604136
 10
21.19663899739583
 20
18.4335001627604136
 10
22.5274793836805536
 20
19.7643405490451372
 10
22.5274793836805536
 20
19.7643405490451372
 10
22.5274793836805536
 20
19.7643405490451372
 10
24.2214328342013872
 20
19.7643405490451372
 10
24.2214328342013872
 20
19.7643405490451372
 10
24.2744873046874972
 20
19.2837497287326372
 10
24.6303656684027743
 20
18.8913533528645807
 10
25.10337727864583
 20
18.7907565646701364
 10
25.5767333984374972
 20
18.6901597764756922
 10
26.0611138237847193
 20
18.9047892252604157
 10
26.3050265842013857
 20
19.32199028862847
 10
26.3050265842013857
 20
19.32199028862847
 10
26.1231255425347193
 20
19.4263766818576364
 10
26.1231255425347193
 20
19.4263766818576364
 10
25.9143527560763864
 20
19.0708428276909707
 10
25.49336208767361
 20
18.8996215820312479
 10
25.0957980685763857
 20
19.0077975802951364
 10
24.6975450303819422
 20
19.1163180881076364
 10
24.4219373914930529
 20
19.4783976236979157
 10
24.4233154296874986
 20
19.8904310438368022
 10
24.4240044487847214
 20
20.3028089735243036
 10
24.7009901258680529
 20
20.6635104709201372
 10
25.0995876736111079
 20
20.7699639214409686
 10
25.497840711805555
 20
20.876761881510415
 10
25.9181423611111086
 20
20.7031290690104157
 10
26.1251925998263879
 20
20.3465616861979157
 10
26.1251925998263879
 20
20.3465616861979157
 10
26.308127170138885
 20
20.4485365125868022
 10
26.308127170138885
 20
20.4485365125868022
 10
26.062491861979165
 20
20.8736612955729157
 10
25.5691541883680529
 20
21.0896687825520814
 10
25.0906304253472214
 20
20.9814927842881929
 10
24.6114176432291636
 20
20.8736612955729157
 10
24.2586398654513857
 20
20.4667955186631936
 10
24.2190212673611072
 20
19.9779364691840264
 10
24.2190212673611072
 20
19.9779364691840264
 10
22.5602077907986107
 20
19.9779364691840264
 10
22.5602077907986107
 20
19.9779364691840264
 97
        0
 75
     2
 76
     1
 98
        1
 10
0.0
 20
0.0
  0
HATCH
  5
45
100
AcDbEntity
  8
FIX-SILK_091020
390
0
 62
     7
100
AcDbHatch
 10
0.0
 20
0.0
 30
0.0
210
0.0
220
0.0
230
1.0
  2
SOLID
 70
     1
 71
     0
 91
        7
 92
       16
 93
        1
 72
     4
 94
        3
 73
     0
 74
     0
 95
       29
 96
       25
 40
0.0
 40
0.0
 40
0.0
 40
0.0
 40
1.0
 40
1.0
 40
1.0
 40
2.0
 40
2.0
 40
2.0
 40
3.0
 40
3.0
 40
3.0
 40
4.0
 40
4.0
 40
4.0
 40
5.0
 40
5.0
 40
5.0
 40
6.0
 40
6.0
 40
6.0
 40
7.0
 40
7.0
 40
7.0
 40
8.0
 40
8.0
 40
8.0
 40
8.0
 10
32.6636393229166657
 20
23.4716078016493022
 10
32.6636393229166657
 20
23.4716078016493022
 10
33.2768663194444443
 20
21.6736124674479136
 10
33.2768663194444443
 20
21.6736124674479136
 10
33.2768663194444443
 20
21.6736124674479136
 10
33.4611789279513872
 20
21.6736124674479136
 10
33.4611789279513872
 20
21.6736124674479136
 10
33.4611789279513872
 20
21.6736124674479136
 10
33.6465250651041643
 20
21.6736124674479136
 10
33.6465250651041643
 20
21.6736124674479136
 10
33.6465250651041643
 20
21.6736124674479136
 10
34.2597520616319429
 20
23.4716078016493022
 10
34.2597520616319429
 20
23.4716078016493022
 10
34.2597520616319429
 20
23.4716078016493022
 10
33.8645996093749986
 20
23.4716078016493022
 10
33.8645996093749986
 20
23.4716078016493022
 10
33.8645996093749986
 20
23.4716078016493022
 10
33.4611789279513872
 20
22.1393893771701364
 10
33.4611789279513872
 20
22.1393893771701364
 10
33.4611789279513872
 20
22.1393893771701364
 10
33.05879177517361
 20
23.4716078016493022
 10
33.05879177517361
 20
23.4716078016493022
 10
33.05879177517361
 20
23.4716078016493022
 10
32.6636393229166657
 20
23.4716078016493022
 10
32.6636393229166657
 20
23.4716078016493022
 97
        0
 92
       16
 93
        1
 72
     4
 94
        3
 73
     0
 74
     0
 95
       59
 96
       55
 40
0.0
 40
0.0
 40
0.0
 40
0.0
 40
1.0
 40
1.0
 40
1.0
 40
2.0
 40
2.0
 40
2.0
 40
3.0
 40
3.0
 40
3.0
 40
4.0
 40
4.0
 40
4.0
 40
5.0
 40
5.0
 40
5.0
 40
6.0
 40
6.0
 40
6.0
 40
7.0
 40
7.0
 40
7.0
 40
8.0
 40
8.0
 40
8.0
 40
9.0
 40
9.0
 40
9.0
 40
10.0
 40
10.0
 40
10.0
 40
11.0
 40
11.0
 40
11.0
 40
12.0
 40
12.0
 40
12.0
 40
13.0
 40
13.0
 40
13.0
 40
14.0
 40
14.0
 40
14.0
 40
15.0
 40
15.0
 40
15.0
 40
16.0
 40
16.0
 40
16.0
 40
17.0
 40
17.0
 40
17.0
 40
18.0
 40
18.0
 40
18.0
 40
18.0
 10
31.3231526692708293
 20
23.478842502170135
 10
31.3231526692708293
 20
23.478842502170135
 10
31.1446967230902736
 20
22.4871717664930522
 10
31.1446967230902736
 20
22.4871717664930522
 10
31.1446967230902736
 20
22.4871717664930522
 10
31.4740478515624957
 20
22.4871717664930522
 10
31.4740478515624957
 20
22.4871717664930522
 10
31.5877360026041636
 20
22.591041395399305
 10
31.7489664713541622
 20
22.6244588216145814
 10
31.8946940104166643
 20
22.5746771918402764
 10
32.0252631293402743
 20
22.527823893229165
 10
32.1134575737847214
 20
22.4056952582465243
 10
32.1169026692708286
 20
22.2672024197048586
 10
32.1203477647569429
 20
22.1287095811631929
 10
32.0376654730902715
 20
22.0026190863715243
 10
31.9095079210069414
 20
21.9495646158854143
 10
31.8419840494791622
 20
21.9192477756076372
 10
31.7668809678819422
 20
21.9096015082465243
 10
31.6938449435763872
 20
21.9216593424479136
 10
31.5539740668402757
 20
21.9392293294270821
 10
31.4416639539930536
 20
22.0455105251736079
 10
31.4161702473958293
 20
22.1841756184895829
 10
31.4161702473958293
 20
22.1841756184895829
 10
31.0706271701388843
 20
22.1841756184895829
 10
31.0706271701388843
 20
22.1841756184895829
 10
31.0930202907986093
 20
21.9378512912326364
 10
31.2652750651041629
 20
21.7308010525173607
 10
31.5029866536458307
 20
21.6639662000868043
 10
31.6084065755208314
 20
21.6336493598090271
 10
31.7176161024305543
 20
21.6212470160590264
 10
31.8268256293402736
 20
21.6264146592881907
 10
31.9784098307291629
 20
21.6329603407118043
 10
32.1244818793402729
 20
21.6836032443576379
 10
32.24781629774305
 20
21.7721421983506929
 10
32.2671088324652757
 20
21.7855780707465243
 10
32.2843343098958329
 20
21.8010810004340243
 10
32.3001817491319443
 20
21.8183064778645814
 10
32.53582628038194
 20
22.0474053276909707
 10
32.55787489149305
 20
22.418097601996525
 10
32.3504801432291629
 20
22.6726901584201386
 10
32.1434299045138872
 20
22.92762722439236
 10
31.77618272569444
 20
22.9824042426215271
 10
31.504020182291665
 20
22.799125162760415
 10
31.504020182291665
 20
22.799125162760415
 10
31.5670654296874957
 20
23.1856648763020807
 10
31.5670654296874957
 20
23.1856648763020807
 10
31.5670654296874957
 20
23.1856648763020807
 10
32.3711507161458272
 20
23.1856648763020807
 10
32.3711507161458272
 20
23.1856648763020807
 10
32.3711507161458272
 20
23.1856648763020807
 10
32.3711507161458272
 20
23.478842502170135
 10
32.3711507161458272
 20
23.478842502170135
 10
32.3711507161458272
 20
23.478842502170135
 10
31.3231526692708293
 20
23.478842502170135
 10
31.3231526692708293
 20
23.478842502170135
 97
        0
 92
       16
 93
        1
 72
     4
 94
        3
 73
     0
 74
     0
 95
       35
 96
       31
 40
0.0
 40
0.0
 40
0.0
 40
0.0
 40
1.0
 40
1.0
 40
1.0
 40
2.0
 40
2.0
 40
2.0
 40
3.0
 40
3.0
 40
3.0
 40
4.0
 40
4.0
 40
4.0
 40
5.0
 40
5.0
 40
5.0
 40
6.0
 40
6.0
 40
6.0
 40
7.0
 40
7.0
 40
7.0
 40
8.0
 40
8.0
 40
8.0
 40
9.0
 40
9.0
 40
9.0
 40
10.0
 40
10.0
 40
10.0
 40
10.0
 10
28.316962348090275
 20
23.4726413302951364
 10
28.316962348090275
 20
23.4726413302951364
 10
28.316962348090275
 20
21.6736124674479136
 10
28.316962348090275
 20
21.6736124674479136
 10
28.316962348090275
 20
21.6736124674479136
 10
28.6807644314236079
 20
21.6736124674479136
 10
28.6807644314236079
 20
21.6736124674479136
 10
28.6807644314236079
 20
21.6736124674479136
 10
28.6807644314236079
 20
22.89541558159722
 10
28.6807644314236079
 20
22.89541558159722
 10
28.6807644314236079
 20
22.89541558159722
 10
29.4324842664930522
 20
21.6774020724826357
 10
29.4324842664930522
 20
21.6774020724826357
 10
29.4324842664930522
 20
21.6774020724826357
 10
29.8104112413194429
 20
21.6774020724826357
 10
29.8104112413194429
 20
21.6774020724826357
 10
29.8104112413194429
 20
21.6774020724826357
 10
29.8104112413194429
 20
23.4726413302951364
 10
29.8104112413194429
 20
23.4726413302951364
 10
29.8104112413194429
 20
23.4726413302951364
 10
29.4476426866319407
 20
23.4726413302951364
 10
29.4476426866319407
 20
23.4726413302951364
 10
29.4476426866319407
 20
23.4726413302951364
 10
29.4476426866319407
 20
22.2627237955729136
 10
29.4476426866319407
 20
22.2627237955729136
 10
29.4476426866319407
 20
22.2627237955729136
 10
28.7021240234374986
 20
23.4726413302951364
 10
28.7021240234374986
 20
23.4726413302951364
 10
28.7021240234374986
 20
23.4726413302951364
 10
28.316962348090275
 20
23.4726413302951364
 10
28.316962348090275
 20
23.4726413302951364
 97
        0
 92
       16
 93
        1
 72
     4
 94
        3
 73
     0
 74
     0
 95
       17
 96
       13
 40
0.0
 40
0.0
 40
0.0
 40
0.0
 40
1.0
 40
1.0
 40
1.0
 40
2.0
 40
2.0
 40
2.0
 40
3.0
 40
3.0
 40
3.0
 40
4.0
 40
4.0
 40
4.0
 40
4.0
 10
27.58384602864583
 20
23.4700575086805543
 10
27.58384602864583
 20
23.4700575086805543
 10
27.58384602864583
 20
21.6736124674479136
 10
27.58384602864583
 20
21.6736124674479136
 10
27.58384602864583
 20
21.6736124674479136
 10
27.9572943793402757
 20
21.6736124674479136
 10
27.9572943793402757
 20
21.6736124674479136
 10
27.9572943793402757
 20
21.6736124674479136
 10
27.9572943793402757
 20
23.4700575086805543
 10
27.9572943793402757
 20
23.4700575086805543
 10
27.9572943793402757
 20
23.4700575086805543
 10
27.58384602864583
 20
23.4700575086805543
 10
27.58384602864583
 20
23.4700575086805543
 97
        0
 92
       16
 93
        1
 72
     4
 94
        3
 73
     0
 74
     0
 95
       56
 96
       52
 40
0.0
 40
0.0
 40
0.0
 40
0.0
 40
1.0
 40
1.0
 40
1.0
 40
2.0
 40
2.0
 40
2.0
 40
3.0
 40
3.0
 40
3.0
 40
4.0
 40
4.0
 40
4.0
 40
5.0
 40
5.0
 40
5.0
 40
6.0
 40
6.0
 40
6.0
 40
7.0
 40
7.0
 40
7.0
 40
8.0
 40
8.0
 40
8.0
 40
9.0
 40
9.0
 40
9.0
 40
10.0
 40
10.0
 40
10.0
 40
11.0
 40
11.0
 40
11.0
 40
12.0
 40
12.0
 40
12.0
 40
13.0
 40
13.0
 40
13.0
 40
14.0
 40
14.0
 40
14.0
 40
15.0
 40
15.0
 40
15.0
 40
16.0
 40
16.0
 40
16.0
 40
17.0
 40
17.0
 40
17.0
 40
17.0
 10
23.3408664279513864
 20
22.9117797851562486
 10
23.3201958550347186
 20
23.1677503797743043
 10
23.1541422526041636
 20
23.3889255099826379
 10
22.9136745876736079
 20
23.4802205403645807
 10
22.682853190104165
 20
23.5701375325520814
 10
22.4251600477430522
 20
23.5635918511284714
 10
22.1991617838541657
 20
23.4619615342881929
 10
21.991767035590275
 20
23.3720445421006922
 10
21.8332926432291643
 20
23.1963446723090243
 10
21.7654242621527771
 20
22.9810262044270814
 10
21.6851535373263857
 20
22.7298787434895821
 10
21.6810194227430522
 20
22.4606445312499972
 10
21.7516438802083307
 20
22.2069132486979157
 10
21.8319146050347186
 20
21.9326836480034686
 10
22.0468885633680536
 20
21.71839870876736
 10
22.3211181640624972
 20
21.6391615125868029
 10
22.49888509114583
 20
21.5892076280381922
 10
22.6869873046874986
 20
21.5909301757812493
 10
22.8640652126736086
 20
21.6436401367187479
 10
23.1362277560763872
 20
21.7223605685763879
 10
23.3312201605902771
 20
21.9612779405381922
 10
23.3536132812499986
 20
22.2434312608506914
 10
23.3536132812499986
 20
22.2434312608506914
 10
22.9798204210069414
 20
22.2437757703993029
 10
22.9798204210069414
 20
22.2437757703993029
 10
22.9701741536458321
 20
22.170050726996525
 10
22.9395128038194436
 20
22.1004597981770807
 10
22.8923149956597207
 20
22.0430989583333314
 10
22.8041205512152771
 20
21.953009711371525
 10
22.6821641710069422
 20
21.9051228841145829
 10
22.5564181857638886
 20
21.9118408203124986
 10
22.4306722005208314
 20
21.9185587565104143
 10
22.3138834635416643
 20
21.9791924370659686
 10
22.2360243055555529
 20
22.0780666775173593
 10
22.1688449435763886
 20
22.1616102430555522
 10
22.1219916449652771
 20
22.2596232096354143
 10
22.0978759765624986
 20
22.3646986219618036
 10
22.0751383463541657
 20
22.4759752061631914
 10
22.0685926649305522
 20
22.5896633572048593
 10
22.0778944227430536
 20
22.7030069986979157
 10
22.0889187282986086
 20
22.82565239800347
 10
22.1319824218749979
 20
22.9429578993055543
 10
22.2026068793402764
 20
23.0440714518229157
 10
22.2990695529513872
 20
23.1787746853298593
 10
22.4596110026041629
 20
23.2514662000868029
 10
22.6242865668402757
 20
23.2342407226562493
 10
22.8027425130208314
 20
23.2211493598090257
 10
22.9481255425347186
 20
23.0881686740451357
 10
22.9777533637152764
 20
22.9117797851562486
 10
22.9777533637152764
 20
22.9117797851562486
 10
23.3408664279513864
 20
22.9117797851562486
 10
23.3408664279513864
 20
22.9117797851562486
 97
        0
 92
        1
 93
        1
 72
     4
 94
        3
 73
     0
 74
     0
 95
       26
 96
       22
 40
0.0
 40
0.0
 40
0.0
 40
0.0
 40
1.0
 40
1.0
 40
1.0
 40
2.0
 40
2.0
 40
2.0
 40
3.0
 40
3.0
 40
3.0
 40
4.0
 40
4.0
 40
4.0
 40
5.0
 40
5.0
 40
5.0
 40
6.0
 40
6.0
 40
6.0
 40
7.0
 40
7.0
 40
7.0
 40
7.0
 10
20.3326090494791636
 20
21.9736802842881929
 10
20.3326090494791636
 20
21.9736802842881929
 10
20.3326090494791636
 20
23.1708509657118036
 10
20.3326090494791636
 20
23.1708509657118036
 10
20.3326090494791636
 20
23.1708509657118036
 10
20.5262234157986079
 20
23.1708509657118036
 10
20.5262234157986079
 20
23.1708509657118036
 10
20.5913357204861107
 20
23.1749850802951372
 10
20.65644802517361
 20
23.1694729275173579
 10
20.7198377821180522
 20
23.1546590169270807
 10
20.869010416666665
 20
23.1239976671006922
 10
20.9906222873263886
 20
23.0171997070312493
 10
21.0409206814236107
 20
22.8735392252604157
 10
21.1077555338541636
 20
22.6809583875868022
 10
21.1177463107638879
 20
22.4732191297743036
 10
21.0698594835069422
 20
22.2747816297743029
 10
21.0236952039930536
 20
22.1001152886284693
 10
20.8672878689236079
 20
21.9771253797743036
 10
20.6867648654513872
 20
21.9736802842881929
 10
20.6867648654513872
 20
21.9736802842881929
 10
20.3326090494791636
 20
21.9736802842881929
 10
20.3326090494791636
 20
21.9736802842881929
 97
        0
 92
       16
 93
        1
 72
     4
 94
        3
 73
     0
 74
     0
 95
       26
 96
       22
 40
0.0
 40
0.0
 40
0.0
 40
0.0
 40
1.0
 40
1.0
 40
1.0
 40
2.0
 40
2.0
 40
2.0
 40
3.0
 40
3.0
 40
3.0
 40
4.0
 40
4.0
 40
4.0
 40
5.0
 40
5.0
 40
5.0
 40
6.0
 40
6.0
 40
6.0
 40
7.0
 40
7.0
 40
7.0
 40
7.0
 10
19.9639838324652743
 20
23.465751139322915
 10
19.9639838324652743
 20
23.465751139322915
 10
19.9639838324652743
 20
21.6732679578993022
 10
19.9639838324652743
 20
21.6732679578993022
 10
19.9639838324652743
 20
21.6732679578993022
 10
20.7629014756944414
 20
21.6732679578993022
 10
20.7629014756944414
 20
21.6732679578993022
 10
20.9534152560763864
 20
21.6786078559027757
 10
21.1335937499999993
 20
21.76249593098958
 10
21.2593397352430529
 20
21.9054673936631907
 10
21.3454671223958314
 20
22.0070977105034693
 10
21.4074788411458314
 20
22.1262980143229164
 10
21.4408962673611079
 20
22.2551445855034693
 10
21.5084201388888872
 20
22.526618109809025
 10
21.4798258463541636
 20
22.8132500542534693
 10
21.3599365234374972
 20
23.0661200629340257
 10
21.2421142578124993
 20
23.3155449761284714
 10
20.9892442491319429
 20
23.4716078016493022
 10
20.7136366102430536
 20
23.465751139322915
 10
20.7136366102430536
 20
23.465751139322915
 10
19.9639838324652743
 20
23.465751139322915
 10
19.9639838324652743
 20
23.465751139322915
 97
        0
 75
     2
 76
     1
 98
        1
 10
0.0
 20
0.0
  0
HATCH
  5
44
100
AcDbEntity
  8
FIX-SILK_091020
390
0
 62
     7
100
AcDbHatch
 10
0.0
 20
0.0
 30
0.0
210
0.0
220
0.0
230
1.0
  2
SOLID
 70
     1
 71
     0
 91
        4
 92
       16
 93
        1
 72
     4
 94
        3
 73
     0
 74
     0
 95
       17
 96
       13
 40
0.0
 40
0.0
 40
0.0
 40
0.0
 40
1.0
 40
1.0
 40
1.0
 40
2.0
 40
2.0
 40
2.0
 40
3.0
 40
3.0
 40
3.0
 40
4.0
 40
4.0
 40
4.0
 40
4.0
 10
24.40815700954861
 20
22.7023179796006929
 10
24.40815700954861
 20
22.7023179796006929
 10
26.5200005425347207
 20
22.7023179796006929
 10
26.5200005425347207
 20
22.7023179796006929
 10
26.5200005425347207
 20
22.7023179796006929
 10
26.5200005425347207
 20
22.9241821289062493
 10
26.5200005425347207
 20
22.9241821289062493
 10
26.5200005425347207
 20
22.9241821289062493
 10
24.40815700954861
 20
22.9241821289062493
 10
24.40815700954861
 20
22.9241821289062493
 10
24.40815700954861
 20
22.9241821289062493
 10
24.40815700954861
 20
22.7023179796006929
 10
24.40815700954861
 20
22.7023179796006929
 97
        0
 92
       16
 93
        1
 72
     4
 94
        3
 73
     0
 74
     0
 95
       17
 96
       13
 40
0.0
 40
0.0
 40
0.0
 40
0.0
 40
1.0
 40
1.0
 40
1.0
 40
2.0
 40
2.0
 40
2.0
 40
3.0
 40
3.0
 40
3.0
 40
4.0
 40
4.0
 40
4.0
 40
4.0
 10
26.0400987413194436
 20
22.2225884331597214
 10
26.0400987413194436
 20
22.2225884331597214
 10
26.5200005425347207
 20
22.2225884331597214
 10
26.5200005425347207
 20
22.2225884331597214
 10
26.5200005425347207
 20
22.2225884331597214
 10
26.5200005425347207
 20
22.44462483723958
 10
26.5200005425347207
 20
22.44462483723958
 10
26.5200005425347207
 20
22.44462483723958
 10
26.0400987413194436
 20
22.44462483723958
 10
26.0400987413194436
 20
22.44462483723958
 10
26.0400987413194436
 20
22.44462483723958
 10
26.0400987413194436
 20
22.2225884331597214
 10
26.0400987413194436
 20
22.2225884331597214
 97
        0
 92
       16
 93
        1
 72
     4
 94
        3
 73
     0
 74
     0
 95
       17
 96
       13
 40
0.0
 40
0.0
 40
0.0
 40
0.0
 40
1.0
 40
1.0
 40
1.0
 40
2.0
 40
2.0
 40
2.0
 40
3.0
 40
3.0
 40
3.0
 40
4.0
 40
4.0
 40
4.0
 40
4.0
 10
25.2239556206597193
 20
22.2225884331597214
 10
25.2239556206597193
 20
22.2225884331597214
 10
25.7042019314236079
 20
22.2225884331597214
 10
25.7042019314236079
 20
22.2225884331597214
 10
25.7042019314236079
 20
22.2225884331597214
 10
25.7042019314236079
 20
22.44462483723958
 10
25.7042019314236079
 20
22.44462483723958
 10
25.7042019314236079
 20
22.44462483723958
 10
25.2239556206597193
 20
22.44462483723958
 10
25.2239556206597193
 20
22.44462483723958
 10
25.2239556206597193
 20
22.44462483723958
 10
25.2239556206597193
 20
22.2225884331597214
 10
25.2239556206597193
 20
22.2225884331597214
 97
        0
 92
       16
 93
        1
 72
     4
 94
        3
 73
     0
 74
     0
 95
       17
 96
       13
 40
0.0
 40
0.0
 40
0.0
 40
0.0
 40
1.0
 40
1.0
 40
1.0
 40
2.0
 40
2.0
 40
2.0
 40
3.0
 40
3.0
 40
3.0
 40
4.0
 40
4.0
 40
4.0
 40
4.0
 10
24.40815700954861
 20
22.2225884331597214
 10
24.40815700954861
 20
22.2225884331597214
 10
24.8884033203124986
 20
22.2225884331597214
 10
24.8884033203124986
 20
22.2225884331597214
 10
24.8884033203124986
 20
22.2225884331597214
 10
24.8884033203124986
 20
22.44462483723958
 10
24.8884033203124986
 20
22.44462483723958
 10
24.8884033203124986
 20
22.44462483723958
 10
24.40815700954861
 20
22.44462483723958
 10
24.40815700954861
 20
22.44462483723958
 10
24.40815700954861
 20
22.44462483723958
 10
24.40815700954861
 20
22.2225884331597214
 10
24.40815700954861
 20
22.2225884331597214
 97
        0
 75
     2
 76
     1
 98
        1
 10
0.0
 20
0.0
  0
HATCH
  5
43
100
AcDbEntity
  8
FIX-SILK_091020
390
0
 62
     7
100
AcDbHatch
 10
0.0
 20
0.0
 30
0.0
210
0.0
220
0.0
230
1.0
  2
SOLID
 70
     1
 71
     0
 91
        6
 92
        1
 93
        1
 72
     4
 94
        3
 73
     0
 74
     0
 95
       26
 96
       22
 40
0.0
 40
0.0
 40
0.0
 40
0.0
 40
1.0
 40
1.0
 40
1.0
 40
2.0
 40
2.0
 40
2.0
 40
3.0
 40
3.0
 40
3.0
 40
4.0
 40
4.0
 40
4.0
 40
5.0
 40
5.0
 40
5.0
 40
6.0
 40
6.0
 40
6.0
 40
7.0
 40
7.0
 40
7.0
 40
7.0
 10
111.4795003255208172
 20
21.9704074435763879
 10
111.4795003255208172
 20
21.9704074435763879
 10
111.4795003255208172
 20
23.1680948893229157
 10
111.4795003255208172
 20
23.1680948893229157
 10
111.4795003255208172
 20
23.1680948893229157
 10
111.6834499782985972
 20
23.1680948893229157
 10
111.6834499782985972
 20
23.1680948893229157
 10
111.7520073784722143
 20
23.1722290039062493
 10
111.8205647786458172
 20
23.16671685112847
 10
111.8873996310763772
 20
23.1519029405381929
 10
112.0441514756944343
 20
23.1208970811631929
 10
112.17196451822916
 20
23.0142713758680522
 10
112.2250189887152629
 20
22.8707831488715243
 10
112.2952989366319372
 20
22.6778578016493029
 10
112.3056342230902658
 20
22.47029079861111
 10
112.2560248480902629
 20
22.272025553385415
 10
112.2071044921874829
 20
22.0973592122395814
 10
112.0424289279513772
 20
21.9743693033854157
 10
111.8522596571180401
 20
21.9707519531249993
 10
111.8522596571180401
 20
21.9707519531249993
 10
111.4795003255208172
 20
21.9704074435763879
 10
111.4795003255208172
 20
21.9704074435763879
 97
        0
 92
       16
 93
        1
 72
     4
 94
        3
 73
     0
 74
     0
 95
       26
 96
       22
 40
0.0
 40
0.0
 40
0.0
 40
0.0
 40
1.0
 40
1.0
 40
1.0
 40
2.0
 40
2.0
 40
2.0
 40
3.0
 40
3.0
 40
3.0
 40
4.0
 40
4.0
 40
4.0
 40
5.0
 40
5.0
 40
5.0
 40
6.0
 40
6.0
 40
6.0
 40
7.0
 40
7.0
 40
7.0
 40
7.0
 10
111.0915825737847058
 20
23.4629950629340271
 10
111.0915825737847058
 20
23.4629950629340271
 10
111.0915825737847058
 20
21.6708563910590257
 10
111.0915825737847058
 20
21.6708563910590257
 10
111.0915825737847058
 20
21.6708563910590257
 10
111.9328748914930429
 20
21.6708563910590257
 10
111.9328748914930429
 20
21.6708563910590257
 10
112.1333794487847086
 20
21.6756795247395821
 10
112.3221706814236001
 20
21.7597398546006922
 10
112.4551513671874829
 20
21.9030558268229143
 10
112.5454128689236057
 20
22.0043416341145814
 10
112.6108696831597058
 20
22.1238864474826364
 10
112.6463541666666544
 20
22.2523885091145814
 10
112.7176676432291629
 20
22.5238620334201372
 10
112.6873508029513857
 20
22.8104939778645814
 10
112.5609157986111057
 20
23.0637084960937493
 10
112.4368923611111057
 20
23.3124443901909686
 10
112.1705864800347143
 20
23.46902398003472
 10
111.8805094401041629
 20
23.4629950629340271
 10
111.8805094401041629
 20
23.4629950629340271
 10
111.0915825737847058
 20
23.4629950629340271
 10
111.0915825737847058
 20
23.4629950629340271
 97
        0
 92
       16
 93
        1
 72
     4
 94
        3
 73
     0
 74
     0
 95
       23
 96
       19
 40
0.0
 40
0.0
 40
0.0
 40
0.0
 40
1.0
 40
1.0
 40
1.0
 40
2.0
 40
2.0
 40
2.0
 40
3.0
 40
3.0
 40
3.0
 40
4.0
 40
4.0
 40
4.0
 40
5.0
 40
5.0
 40
5.0
 40
6.0
 40
6.0
 40
6.0
 40
6.0
 10
109.5064941406249943
 20
23.4709187825520829
 10
109.5064941406249943
 20
23.4709187825520829
 10
109.5064941406249943
 20
21.6708563910590257
 10
109.5064941406249943
 20
21.6708563910590257
 10
109.5064941406249943
 20
21.6708563910590257
 10
110.8263102213541629
 20
21.6708563910590257
 10
110.8263102213541629
 20
21.6708563910590257
 10
110.8263102213541629
 20
21.6708563910590257
 10
110.8263102213541629
 20
21.9747138129340271
 10
110.8263102213541629
 20
21.9747138129340271
 10
110.8263102213541629
 20
21.9747138129340271
 10
109.8992350260416515
 20
21.9747138129340271
 10
109.8992350260416515
 20
21.9747138129340271
 10
109.8992350260416515
 20
21.9747138129340271
 10
109.8992350260416515
 20
23.4709187825520829
 10
109.8992350260416515
 20
23.4709187825520829
 10
109.8992350260416515
 20
23.4709187825520829
 10
109.5064941406249943
 20
23.4709187825520829
 10
109.5064941406249943
 20
23.4709187825520829
 97
        0
 92
        1
 93
        1
 72
     4
 94
        3
 73
     0
 74
     0
 95
       29
 96
       25
 40
0.0
 40
0.0
 40
0.0
 40
0.0
 40
1.0
 40
1.0
 40
1.0
 40
2.0
 40
2.0
 40
2.0
 40
3.0
 40
3.0
 40
3.0
 40
4.0
 40
4.0
 40
4.0
 40
5.0
 40
5.0
 40
5.0
 40
6.0
 40
6.0
 40
6.0
 40
7.0
 40
7.0
 40
7.0
 40
8.0
 40
8.0
 40
8.0
 40
8.0
 10
108.7702772352430429
 20
22.2620347764756907
 10
108.74340549045138
 20
22.1941663953993036
 10
108.7055094401041515
 20
22.1300876193576386
 10
108.6576226128472058
 20
22.0728990342881914
 10
108.5749403211805486
 20
21.9728190104166643
 10
108.4498833550347143
 20
21.9123575846354157
 10
108.3155246310763857
 20
21.9075344509548593
 10
108.1815104166666544
 20
21.9123575846354157
 10
108.0564534505208201
 20
21.9728190104166643
 10
107.9737711588541629
 20
22.0728990342881914
 10
107.9255398220486057
 20
22.1300876193576386
 10
107.8872992621527658
 20
22.1941663953993036
 10
107.8607720269097143
 20
22.2620347764756907
 10
107.7629313151041544
 20
22.5273071289062479
 10
107.8015163845486057
 20
22.8204847547743022
 10
107.9641248914930429
 20
23.0550957573784707
 10
108.0461181640624915
 20
23.1630995008680536
 10
108.1756537543402743
 20
23.2290730794270814
 10
108.3155246310763857
 20
23.2342407226562493
 10
108.4553955078124972
 20
23.2290730794270814
 10
108.5849310980902658
 20
23.1630995008680536
 10
108.6669243706597143
 20
23.0550957573784707
 10
108.8295328776041515
 20
22.8204847547743022
 10
108.86742892795138
 20
22.5273071289062479
 10
108.7702772352430429
 20
22.2620347764756907
 97
        0
 92
       16
 93
        1
 72
     4
 94
        3
 73
     0
 74
     0
 95
       23
 96
       19
 40
0.0
 40
0.0
 40
0.0
 40
0.0
 40
1.0
 40
1.0
 40
1.0
 40
2.0
 40
2.0
 40
2.0
 40
3.0
 40
3.0
 40
3.0
 40
4.0
 40
4.0
 40
4.0
 40
5.0
 40
5.0
 40
5.0
 40
6.0
 40
6.0
 40
6.0
 40
6.0
 10
109.02245822482638
 20
21.9461195203993036
 10
109.3290717230902658
 20
22.3953599717881922
 10
109.2594807942708286
 20
22.9879163953993029
 10
108.8557156032986057
 20
23.3613647460937486
 10
108.7041314019097058
 20
23.4819430881076379
 10
108.51327311197916
 20
23.5501559787326364
 10
108.3155246310763857
 20
23.5536010742187472
 10
108.1177761501735972
 20
23.5501559787326364
 10
107.9269178602430515
 20
23.4819430881076379
 10
107.7753336588541515
 20
23.3613647460937486
 10
107.3719129774305401
 20
22.9879163953993029
 10
107.3019775390624915
 20
22.3953599717881922
 10
107.6082465277777658
 20
21.9461195203993036
 10
107.7718885633680515
 20
21.7283894856770807
 10
108.0344048394097172
 20
21.5974758572048593
 10
108.3155246310763857
 20
21.5935139973958314
 10
108.5966444227430401
 20
21.5974758572048593
 10
108.8595052083333172
 20
21.7283894856770807
 10
109.02245822482638
 20
21.9461195203993036
 97
        0
 92
       16
 93
        1
 72
     4
 94
        3
 73
     0
 74
     0
 95
       41
 96
       37
 40
0.0
 40
0.0
 40
0.0
 40
0.0
 40
1.0
 40
1.0
 40
1.0
 40
2.0
 40
2.0
 40
2.0
 40
3.0
 40
3.0
 40
3.0
 40
4.0
 40
4.0
 40
4.0
 40
5.0
 40
5.0
 40
5.0
 40
6.0
 40
6.0
 40
6.0
 40
7.0
 40
7.0
 40
7.0
 40
8.0
 40
8.0
 40
8.0
 40
9.0
 40
9.0
 40
9.0
 40
10.0
 40
10.0
 40
10.0
 40
11.0
 40
11.0
 40
11.0
 40
12.0
 40
12.0
 40
12.0
 40
12.0
 10
106.7052870008680401
 20
23.4736748589409707
 10
106.7052870008680401
 20
23.4736748589409707
 10
106.7052870008680401
 20
22.7719089084201372
 10
106.7052870008680401
 20
22.7719089084201372
 10
106.7052870008680401
 20
22.7719089084201372
 10
105.9521891276041572
 20
22.7719089084201372
 10
105.9521891276041572
 20
22.7719089084201372
 10
105.9521891276041572
 20
22.7719089084201372
 10
105.9521891276041572
 20
23.4697129991319429
 10
105.9521891276041572
 20
23.4697129991319429
 10
105.9521891276041572
 20
23.4697129991319429
 10
105.5697835286458286
 20
23.4697129991319429
 10
105.5697835286458286
 20
23.4697129991319429
 10
105.5697835286458286
 20
23.4697129991319429
 10
105.5697835286458286
 20
21.6708563910590257
 10
105.5697835286458286
 20
21.6708563910590257
 10
105.5697835286458286
 20
21.6708563910590257
 10
105.9563232421874943
 20
21.6708563910590257
 10
105.9563232421874943
 20
21.6708563910590257
 10
105.9563232421874943
 20
21.6708563910590257
 10
105.9563232421874943
 20
22.4632283528645829
 10
105.9563232421874943
 20
22.4632283528645829
 10
105.9563232421874943
 20
22.4632283528645829
 10
106.7118326822916572
 20
22.4632283528645829
 10
106.7118326822916572
 20
22.4632283528645829
 10
106.7118326822916572
 20
22.4632283528645829
 10
106.7118326822916572
 20
21.6774020724826357
 10
106.7118326822916572
 20
21.6774020724826357
 10
106.7118326822916572
 20
21.6774020724826357
 10
107.0959608289930429
 20
21.6774020724826357
 10
107.0959608289930429
 20
21.6774020724826357
 10
107.0959608289930429
 20
21.6774020724826357
 10
107.0959608289930429
 20
23.4736748589409707
 10
107.0959608289930429
 20
23.4736748589409707
 10
107.0959608289930429
 20
23.4736748589409707
 10
106.7052870008680401
 20
23.4736748589409707
 10
106.7052870008680401
 20
23.4736748589409707
 97
        0
 75
     2
 76
     1
 98
        1
 10
0.0
 20
0.0
  0
INSERT
  5
3F
100
AcDbEntity
  8
FIX-SILK_091020
390
0
 62
     7
100
AcDbBlockReference
  2
AI9-BLK1
 10
109.127189
 20
18.472774
 30
0.0
  0
LINE
  5
3C
100
AcDbEntity
  8
COMENT
390
0
 62
     7
100
AcDbLine
 10
25.341261
 20
13.759711
 30
0.0
 11
25.341261
 21
-10.405566
 31
0.0
  0
LINE
  5
3B
100
AcDbEntity
  8
COMENT
390
0
 62
     7
100
AcDbLine
 10
25.341261
 20
14.906067
 30
0.0
 11
25.341261
 21
-15.021305
 31
0.0
  0
HATCH
  5
3A
100
AcDbEntity
  8
COMENT
390
0
 62
     7
100
AcDbHatch
 10
0.0
 20
0.0
 30
0.0
210
0.0
220
0.0
230
1.0
  2
SOLID
 70
     1
 71
     0
 91
        4
 92
        1
 93
        1
 72
     4
 94
        3
 73
     0
 74
     0
 95
       26
 96
       22
 40
0.0
 40
0.0
 40
0.0
 40
0.0
 40
1.0
 40
1.0
 40
1.0
 40
2.0
 40
2.0
 40
2.0
 40
3.0
 40
3.0
 40
3.0
 40
4.0
 40
4.0
 40
4.0
 40
5.0
 40
5.0
 40
5.0
 40
6.0
 40
6.0
 40
6.0
 40
7.0
 40
7.0
 40
7.0
 40
7.0
 10
26.2462877061631907
 20
-19.8141221788194422
 10
26.2462877061631907
 20
-19.8141221788194422
 10
25.70024007161458
 20
-19.8141221788194422
 10
25.70024007161458
 20
-19.8141221788194422
 10
25.77000325520833
 20
-18.7344292534722214
 10
26.2462877061631907
 20
-17.5345024956597193
 10
26.7670138888888864
 20
-16.7913953993055536
 10
26.7670138888888864
 20
-16.7913953993055536
 10
25.3447062174479143
 20
-16.7913953993055536
 10
25.3447062174479143
 20
-16.7913953993055536
 10
25.3447062174479143
 20
-16.7913953993055536
 10
25.3447062174479143
 20
-16.2708414713541636
 10
25.3447062174479143
 20
-16.2708414713541636
 10
25.3447062174479143
 20
-16.2708414713541636
 10
27.2686197916666657
 20
-16.2708414713541636
 10
27.2686197916666657
 20
-16.2708414713541636
 10
27.2686197916666657
 20
-16.2708414713541636
 10
27.2686197916666657
 20
-16.73420681423611
 10
27.2686197916666657
 20
-16.73420681423611
 10
26.7606404622395821
 20
-17.4707682291666657
 10
26.3225965711805543
 20
-18.7282280815972193
 10
26.2462877061631907
 20
-19.8141221788194422
 97
        0
 92
        1
 93
        1
 72
     4
 94
        3
 73
     0
 74
     0
 95
       32
 96
       28
 40
0.0
 40
0.0
 40
0.0
 40
0.0
 40
1.0
 40
1.0
 40
1.0
 40
2.0
 40
2.0
 40
2.0
 40
3.0
 40
3.0
 40
3.0
 40
4.0
 40
4.0
 40
4.0
 40
5.0
 40
5.0
 40
5.0
 40
6.0
 40
6.0
 40
6.0
 40
7.0
 40
7.0
 40
7.0
 40
8.0
 40
8.0
 40
8.0
 40
9.0
 40
9.0
 40
9.0
 40
9.0
 10
24.093619791666665
 20
-19.8141221788194422
 10
24.093619791666665
 20
-19.8141221788194422
 10
24.093619791666665
 20
-17.1917154947916657
 10
24.093619791666665
 20
-17.1917154947916657
 10
24.093619791666665
 20
-17.1917154947916657
 10
23.4206203884548607
 20
-17.1917154947916657
 10
23.4206203884548607
 20
-17.1917154947916657
 10
23.4206203884548607
 20
-17.1917154947916657
 10
23.4206203884548607
 20
-16.8168891059027779
 10
23.4206203884548607
 20
-16.8168891059027779
 10
23.4206203884548607
 20
-16.8168891059027779
 10
23.4714355468749964
 20
-16.8168891059027779
 10
23.4714355468749964
 20
-16.8168891059027779
 10
23.7825276692708307
 20
-16.8168891059027779
 10
24.1444349500868043
 20
-16.73420681423611
 10
24.2333184136284707
 20
-16.2773871527777771
 10
24.2333184136284707
 20
-16.2773871527777771
 10
24.2333184136284707
 20
-16.2009060329861079
 10
24.2333184136284707
 20
-16.2009060329861079
 10
24.2333184136284707
 20
-16.2009060329861079
 10
24.6143459743923572
 20
-16.2009060329861079
 10
24.6143459743923572
 20
-16.2009060329861079
 10
24.6143459743923572
 20
-16.2009060329861079
 10
24.6143459743923572
 20
-19.8141221788194422
 10
24.6143459743923572
 20
-19.8141221788194422
 10
24.6143459743923572
 20
-19.8141221788194422
 10
24.093619791666665
 20
-19.8141221788194422
 10
24.093619791666665
 20
-19.8141221788194422
 97
        0
 92
       16
 93
        1
 72
     4
 94
        3
 73
     0
 74
     0
 95
       17
 96
       13
 40
0.0
 40
0.0
 40
0.0
 40
0.0
 40
1.0
 40
1.0
 40
1.0
 40
2.0
 40
2.0
 40
2.0
 40
3.0
 40
3.0
 40
3.0
 40
4.0
 40
4.0
 40
4.0
 40
4.0
 10
25.4272162543402764
 20
-15.2927788628472214
 10
23.9222262912326364
 20
-15.2927788628472214
 10
22.6966335720486079
 20
-16.5185438368055557
 10
22.6966335720486079
 20
-18.0233615451388864
 10
22.6966335720486079
 20
-19.5347249348958307
 10
23.9222262912326364
 20
-20.753944227430555
 10
25.4272162543402764
 20
-20.753944227430555
 10
26.9322062174479129
 20
-20.753944227430555
 10
28.1576266818576357
 20
-19.5347249348958307
 10
28.1576266818576357
 20
-18.0233615451388864
 10
28.1576266818576357
 20
-16.5185438368055557
 10
26.9322062174479129
 20
-15.2927788628472214
 10
25.4272162543402764
 20
-15.2927788628472214
 97
        0
 92
        1
 93
        1
 72
     4
 94
        3
 73
     0
 74
     0
 95
       17
 96
       13
 40
0.0
 40
0.0
 40
0.0
 40
0.0
 40
1.0
 40
1.0
 40
1.0
 40
2.0
 40
2.0
 40
2.0
 40
3.0
 40
3.0
 40
3.0
 40
4.0
 40
4.0
 40
4.0
 40
4.0
 10
25.4272162543402764
 20
-20.9317111545138879
 10
23.8205959743923579
 20
-20.9317111545138879
 10
22.518866644965275
 20
-19.6301540798611107
 10
22.518866644965275
 20
-18.0233615451388864
 10
22.518866644965275
 20
-16.4169135199652771
 10
23.8205959743923579
 20
-15.1150119357638868
 10
25.4272162543402764
 20
-15.1150119357638868
 10
27.0336642795138857
 20
-15.1150119357638868
 10
28.3355658637152743
 20
-16.4169135199652771
 10
28.3355658637152743
 20
-18.0233615451388864
 10
28.3355658637152743
 20
-19.6301540798611107
 10
27.0336642795138857
 20
-20.9317111545138879
 10
25.4272162543402764
 20
-20.9317111545138879
 97
        0
 75
     2
 76
     1
 98
        1
 10
0.0
 20
0.0
  0
ELLIPSE
  5
39
100
AcDbEntity
  8
COMENT
390
0
 62
     7
100
AcDbEllipse
 10
25.341261
 20
14.950336
 30
0.0
 11
0.0
 21
0.5732638888888888
 31
0.0
210
0.0
220
0.0
230
1.0
 40
0.923077
 41
0.0
 42
6.2831853071795862
  0
HATCH
  5
38
100
AcDbEntity
  8
COMENT
390
0
 62
     7
100
AcDbHatch
 10
0.0
 20
0.0
 30
0.0
210
0.0
220
0.0
230
1.0
  2
SOLID
 70
     1
 71
     0
 91
        1
 92
        1
 93
        1
 72
     4
 94
        3
 73
     0
 74
     0
 95
       17
 96
       13
 40
0.0
 40
0.0
 40
0.0
 40
0.0
 40
1.0
 40
1.0
 40
1.0
 40
2.0
 40
2.0
 40
2.0
 40
3.0
 40
3.0
 40
3.0
 40
4.0
 40
4.0
 40
4.0
 40
4.0
 10
24.812094455295135
 20
14.9503363715277757
 10
24.812094455295135
 20
15.2669406467013875
 10
25.0489447699652743
 20
15.5236002604166661
 10
25.3412611219618036
 20
15.5236002604166661
 10
25.6335774739583293
 20
15.5236002604166661
 10
25.8704277886284686
 20
15.2669406467013875
 10
25.8704277886284686
 20
14.9503363715277757
 10
25.8704277886284686
 20
14.6337320963541657
 10
25.6335774739583293
 20
14.3770724826388872
 10
25.3412611219618036
 20
14.3770724826388872
 10
25.0489447699652743
 20
14.3770724826388872
 10
24.812094455295135
 20
14.6337320963541657
 10
24.812094455295135
 20
14.9503363715277757
 97
        0
 75
     2
 76
     1
 98
        1
 10
0.0
 20
0.0
  0
HATCH
  5
37
100
AcDbEntity
  8
COMENT
390
0
 62
     7
100
AcDbHatch
 10
0.0
 20
0.0
 30
0.0
210
0.0
220
0.0
230
1.0
  2
SOLID
 70
     1
 71
     0
 91
        6
 92
       16
 93
        1
 72
     4
 94
        3
 73
     0
 74
     0
 95
       17
 96
       13
 40
0.0
 40
0.0
 40
0.0
 40
0.0
 40
1.0
 40
1.0
 40
1.0
 40
2.0
 40
2.0
 40
2.0
 40
3.0
 40
3.0
 40
3.0
 40
4.0
 40
4.0
 40
4.0
 40
4.0
 10
53.4716715494791615
 20
-16.6267198350694443
 10
53.1478325737847186
 20
-16.6267198350694443
 10
53.0651502821180472
 20
-16.8809678819444429
 10
53.0651502821180472
 20
-17.1665662977430529
 10
53.0651502821180472
 20
-17.4521647135416664
 10
53.1478325737847186
 20
-17.7126139322916636
 10
53.4716715494791615
 20
-17.7126139322916636
 10
53.7955105251736043
 20
-17.7126139322916636
 10
53.8778483072916643
 20
-17.4521647135416664
 10
53.8778483072916643
 20
-17.1665662977430529
 10
53.8778483072916643
 20
-16.8809678819444429
 10
53.7955105251736043
 20
-16.6267198350694443
 10
53.4716715494791615
 20
-16.6267198350694443
 97
        0
 92
       16
 93
        1
 72
     4
 94
        3
 73
     0
 74
     0
 95
       17
 96
       13
 40
0.0
 40
0.0
 40
0.0
 40
0.0
 40
1.0
 40
1.0
 40
1.0
 40
2.0
 40
2.0
 40
2.0
 40
3.0
 40
3.0
 40
3.0
 40
4.0
 40
4.0
 40
4.0
 40
4.0
 10
53.4716715494791615
 20
-18.1191351996527779
 10
53.1095920138888857
 20
-18.1191351996527779
 10
53.0143351236979115
 20
-18.41748046875
 10
53.0143351236979115
 20
-18.7985080295138864
 10
53.0143351236979115
 20
-19.1795355902777764
 10
53.1095920138888857
 20
-19.4840820312499972
 10
53.4716715494791615
 20
-19.4840820312499972
 10
53.8399522569444429
 20
-19.4840820312499972
 10
53.9288357204861057
 20
-19.1795355902777764
 10
53.9288357204861057
 20
-18.7985080295138864
 10
53.9288357204861057
 20
-18.41748046875
 10
53.8399522569444429
 20
-18.1191351996527779
 10
53.4716715494791615
 20
-18.1191351996527779
 97
        0
 92
        1
 93
        1
 72
     4
 94
        3
 73
     0
 74
     0
 95
       35
 96
       31
 40
0.0
 40
0.0
 40
0.0
 40
0.0
 40
1.0
 40
1.0
 40
1.0
 40
2.0
 40
2.0
 40
2.0
 40
3.0
 40
3.0
 40
3.0
 40
4.0
 40
4.0
 40
4.0
 40
5.0
 40
5.0
 40
5.0
 40
6.0
 40
6.0
 40
6.0
 40
7.0
 40
7.0
 40
7.0
 40
8.0
 40
8.0
 40
8.0
 40
9.0
 40
9.0
 40
9.0
 40
10.0
 40
10.0
 40
10.0
 40
10.0
 10
53.4716715494791615
 20
-19.8906032986111079
 10
52.81124674479166
 20
-19.8906032986111079
 10
52.4937811957465215
 20
-19.5161214192708314
 10
52.4937811957465215
 20
-18.8112548828124986
 10
52.4937811957465215
 20
-18.2776095920138886
 10
52.7287367078993015
 20
-17.9792643229166664
 10
53.04620225694444
 20
-17.9096733940972221
 10
53.04620225694444
 20
-17.9096733940972221
 10
53.04620225694444
 20
-17.9031277126736086
 10
53.04620225694444
 20
-17.9031277126736086
 10
52.7668050130208286
 20
-17.7952962239583314
 10
52.6016126844617986
 20
-17.5537950303819414
 10
52.6016126844617986
 20
-17.1221245659722214
 10
52.6016126844617986
 20
-16.5633300781249986
 10
52.9318250868055529
 20
-16.2201985677083336
 10
53.4716715494791615
 20
-16.2201985677083336
 10
54.01151801215277
 20
-16.2201985677083336
 10
54.3477593315972172
 20
-16.5633300781249986
 10
54.3477593315972172
 20
-17.1221245659722214
 10
54.3477593315972172
 20
-17.5537950303819414
 10
54.1765380859374943
 20
-17.7952962239583314
 10
53.8971408420138829
 20
-17.9031277126736086
 10
53.8971408420138829
 20
-17.9031277126736086
 10
53.8971408420138829
 20
-17.9096733940972221
 10
53.8971408420138829
 20
-17.9096733940972221
 10
54.2209798177083258
 20
-17.9792643229166664
 10
54.4497341579861072
 20
-18.2776095920138886
 10
54.4497341579861072
 20
-18.8112548828124986
 10
54.4497341579861072
 20
-19.5161214192708314
 10
54.1382975260416615
 20
-19.8906032986111079
 10
53.4716715494791615
 20
-19.8906032986111079
 97
        0
 92
        1
 93
        1
 72
     4
 94
        3
 73
     0
 74
     0
 95
       32
 96
       28
 40
0.0
 40
0.0
 40
0.0
 40
0.0
 40
1.0
 40
1.0
 40
1.0
 40
2.0
 40
2.0
 40
2.0
 40
3.0
 40
3.0
 40
3.0
 40
4.0
 40
4.0
 40
4.0
 40
5.0
 40
5.0
 40
5.0
 40
6.0
 40
6.0
 40
6.0
 40
7.0
 40
7.0
 40
7.0
 40
8.0
 40
8.0
 40
8.0
 40
9.0
 40
9.0
 40
9.0
 40
9.0
 10
51.2618150499131886
 20
-19.8144666883680536
 10
51.2618150499131886
 20
-19.8144666883680536
 10
51.2618150499131886
 20
-17.2048068576388857
 10
51.2618150499131886
 20
-17.2048068576388857
 10
51.2618150499131886
 20
-17.2048068576388857
 10
50.5886433919270786
 20
-17.2048068576388857
 10
50.5886433919270786
 20
-17.2048068576388857
 10
50.5886433919270786
 20
-17.2048068576388857
 10
50.5886433919270786
 20
-16.8299804687499979
 10
50.5886433919270786
 20
-16.8299804687499979
 10
50.5886433919270786
 20
-16.8299804687499979
 10
50.6394585503472143
 20
-16.8299804687499979
 10
50.6394585503472143
 20
-16.8299804687499979
 10
50.9507229275173543
 20
-16.8299804687499979
 10
51.30625678168402
 20
-16.7472981770833336
 10
51.4015136718749943
 20
-16.2901340060763857
 10
51.4015136718749943
 20
-16.2901340060763857
 10
51.4015136718749943
 20
-16.2201985677083336
 10
51.4015136718749943
 20
-16.2201985677083336
 10
51.4015136718749943
 20
-16.2201985677083336
 10
51.7825412326388843
 20
-16.2201985677083336
 10
51.7825412326388843
 20
-16.2201985677083336
 10
51.7825412326388843
 20
-16.2201985677083336
 10
51.7825412326388843
 20
-19.8144666883680536
 10
51.7825412326388843
 20
-19.8144666883680536
 10
51.7825412326388843
 20
-19.8144666883680536
 10
51.2618150499131886
 20
-19.8144666883680536
 10
51.2618150499131886
 20
-19.8144666883680536
 97
        0
 92
       16
 93
        1
 72
     4
 94
        3
 73
     0
 74
     0
 95
       17
 96
       13
 40
0.0
 40
0.0
 40
0.0
 40
0.0
 40
1.0
 40
1.0
 40
1.0
 40
2.0
 40
2.0
 40
2.0
 40
3.0
 40
3.0
 40
3.0
 40
4.0
 40
4.0
 40
4.0
 40
4.0
 10
52.5254760742187443
 20
-15.2934678819444425
 10
51.0204861111111043
 20
-15.2934678819444425
 10
49.8012668185763872
 20
-16.5123426649305536
 10
49.8012668185763872
 20
-18.0175048828124993
 10
49.8012668185763872
 20
-19.52232259114583
 10
51.0204861111111043
 20
-20.7353407118055522
 10
52.5254760742187443
 20
-20.7353407118055522
 10
54.0239203559027743
 20
-20.7353407118055522
 10
55.2434841579861029
 20
-19.52232259114583
 10
55.2434841579861029
 20
-18.0175048828124993
 10
55.2434841579861029
 20
-16.5123426649305536
 10
54.0239203559027743
 20
-15.2934678819444425
 10
52.5254760742187443
 20
-15.2934678819444425
 97
        0
 92
        1
 93
        1
 72
     4
 94
        3
 73
     0
 74
     0
 95
       17
 96
       13
 40
0.0
 40
0.0
 40
0.0
 40
0.0
 40
1.0
 40
1.0
 40
1.0
 40
2.0
 40
2.0
 40
2.0
 40
3.0
 40
3.0
 40
3.0
 40
4.0
 40
4.0
 40
4.0
 40
4.0
 10
52.5254760742187443
 20
-20.9193088107638872
 10
50.9188557942708258
 20
-20.9193088107638872
 10
49.6234998914930543
 20
-19.61775173611111
 10
49.6234998914930543
 20
-18.0175048828124993
 10
49.6234998914930543
 20
-16.4172580295138886
 10
50.9188557942708258
 20
-15.1157009548611097
 10
52.5254760742187443
 20
-15.1157009548611097
 10
54.1258951822916643
 20
-15.1157009548611097
 10
55.4274522569444414
 20
-16.4172580295138886
 10
55.4274522569444414
 20
-18.0175048828124993
 10
55.4274522569444414
 20
-19.61775173611111
 10
54.1258951822916643
 20
-20.9193088107638872
 10
52.5254760742187443
 20
-20.9193088107638872
 97
        0
 75
     2
 76
     1
 98
        1
 10
0.0
 20
0.0
  0
HATCH
  5
36
100
AcDbEntity
  8
COMENT
390
0
 62
     7
100
AcDbHatch
 10
0.0
 20
0.0
 30
0.0
210
0.0
220
0.0
230
1.0
  2
SOLID
 70
     1
 71
     0
 91
        5
 92
       16
 93
        1
 72
     4
 94
        3
 73
     0
 74
     0
 95
       17
 96
       13
 40
0.0
 40
0.0
 40
0.0
 40
0.0
 40
1.0
 40
1.0
 40
1.0
 40
2.0
 40
2.0
 40
2.0
 40
3.0
 40
3.0
 40
3.0
 40
4.0
 40
4.0
 40
4.0
 40
4.0
 10
94.98403862847222
 20
-16.5168212890624986
 10
94.6601996527777629
 20
-16.5168212890624986
 10
94.5520236545138744
 20
-16.8726996527777757
 10
94.5520236545138744
 20
-17.2978244357638857
 10
94.5520236545138744
 20
-17.7932291666666664
 10
94.6856933593749943
 20
-18.0791720920138879
 10
94.98403862847222
 20
-18.0791720920138879
 10
95.3650661892361029
 20
-18.0791720920138879
 10
95.4346571180555401
 20
-17.704345703125
 10
95.4346571180555401
 20
-17.272330729166665
 10
95.4346571180555401
 20
-16.8534071180555536
 10
95.2947862413194429
 20
-16.5168212890624986
 10
94.98403862847222
 20
-16.5168212890624986
 97
        0
 92
        1
 93
        1
 72
     4
 94
        3
 73
     0
 74
     0
 95
       35
 96
       31
 40
0.0
 40
0.0
 40
0.0
 40
0.0
 40
1.0
 40
1.0
 40
1.0
 40
2.0
 40
2.0
 40
2.0
 40
3.0
 40
3.0
 40
3.0
 40
4.0
 40
4.0
 40
4.0
 40
5.0
 40
5.0
 40
5.0
 40
6.0
 40
6.0
 40
6.0
 40
7.0
 40
7.0
 40
7.0
 40
8.0
 40
8.0
 40
8.0
 40
9.0
 40
9.0
 40
9.0
 40
10.0
 40
10.0
 40
10.0
 40
10.0
 10
94.9647460937499943
 20
-19.7996527777777764
 10
94.3935492621527743
 20
-19.7996527777777764
 10
94.0883138020833201
 20
-19.5140543619791664
 10
94.0883138020833201
 20
-18.9170193142361107
 10
94.0883138020833201
 20
-18.9170193142361107
 10
94.6154134114583201
 20
-18.9170193142361107
 10
94.6154134114583201
 20
-18.9170193142361107
 10
94.6154134114583201
 20
-19.1268256293402743
 10
94.6980957031249915
 20
-19.3934760199652771
 10
94.9647460937499943
 20
-19.3934760199652771
 10
95.4539496527777658
 20
-19.3934760199652771
 10
95.4794433593749972
 20
-18.66966145833333
 10
95.4794433593749972
 20
-18.14256184895833
 10
95.4794433593749972
 20
-18.14256184895833
 10
95.4663519965277629
 20
-18.1363606770833314
 10
95.4663519965277629
 20
-18.1363606770833314
 10
95.3395724826388857
 20
-18.3964653862847207
 10
95.1170193142361029
 20
-18.5173882378472214
 10
94.8317654079860972
 20
-18.5173882378472214
 10
94.3866590711805458
 20
-18.5173882378472214
 10
94.03112521701388
 20
-18.1615098741319443
 10
94.03112521701388
 20
-17.4376953124999972
 10
94.03112521701388
 20
-16.605704752604165
 10
94.3363606770833201
 20
-16.1106445312499993
 10
95.02813585069444
 20
-16.1106445312499993
 10
95.84737955729166
 20
-16.1106445312499993
 10
96.0065429687499972
 20
-16.8024197048611086
 10
96.0065429687499972
 20
-17.8442165798611079
 10
96.0065429687499972
 20
-18.9235649956597207
 10
95.8280870225694343
 20
-19.7996527777777764
 10
94.9647460937499943
 20
-19.7996527777777764
 97
        0
 92
        1
 93
        1
 72
     4
 94
        3
 73
     0
 74
     0
 95
       32
 96
       28
 40
0.0
 40
0.0
 40
0.0
 40
0.0
 40
1.0
 40
1.0
 40
1.0
 40
2.0
 40
2.0
 40
2.0
 40
3.0
 40
3.0
 40
3.0
 40
4.0
 40
4.0
 40
4.0
 40
5.0
 40
5.0
 40
5.0
 40
6.0
 40
6.0
 40
6.0
 40
7.0
 40
7.0
 40
7.0
 40
8.0
 40
8.0
 40
8.0
 40
9.0
 40
9.0
 40
9.0
 40
9.0
 10
92.8060492621527686
 20
-19.7300618489583321
 10
92.8060492621527686
 20
-19.7300618489583321
 10
92.8060492621527686
 20
-17.1011094835069422
 10
92.8060492621527686
 20
-17.1011094835069422
 10
92.8060492621527686
 20
-17.1011094835069422
 10
92.12667643229166
 20
-17.1011094835069422
 10
92.12667643229166
 20
-17.1011094835069422
 10
92.12667643229166
 20
-17.1011094835069422
 10
92.12667643229166
 20
-16.7200819227430557
 10
92.12667643229166
 20
-16.7200819227430557
 10
92.12667643229166
 20
-16.7200819227430557
 10
92.1769748263888857
 20
-16.7200819227430557
 10
92.1769748263888857
 20
-16.7200819227430557
 10
92.4884114583333314
 20
-16.7200819227430557
 10
92.8563476562499943
 20
-16.6439453124999979
 10
92.9452311197916572
 20
-16.1802354600694436
 10
92.9452311197916572
 20
-16.1802354600694436
 10
92.9452311197916572
 20
-16.1106445312499993
 10
92.9452311197916572
 20
-16.1106445312499993
 10
92.9452311197916572
 20
-16.1106445312499993
 10
93.3262586805555401
 20
-16.1106445312499993
 10
93.3262586805555401
 20
-16.1106445312499993
 10
93.3262586805555401
 20
-16.1106445312499993
 10
93.3262586805555401
 20
-19.7300618489583321
 10
93.3262586805555401
 20
-19.7300618489583321
 10
93.3262586805555401
 20
-19.7300618489583321
 10
92.8060492621527686
 20
-19.7300618489583321
 10
92.8060492621527686
 20
-19.7300618489583321
 97
        0
 92
       16
 93
        1
 72
     4
 94
        3
 73
     0
 74
     0
 95
       17
 96
       13
 40
0.0
 40
0.0
 40
0.0
 40
0.0
 40
1.0
 40
1.0
 40
1.0
 40
2.0
 40
2.0
 40
2.0
 40
3.0
 40
3.0
 40
3.0
 40
4.0
 40
4.0
 40
4.0
 40
4.0
 10
94.1076063368055458
 20
-15.2404134114583325
 10
92.59658745659722
 20
-15.2404134114583325
 10
91.3708224826388857
 20
-16.4599772135416664
 10
91.3708224826388857
 20
-17.9709960937499993
 10
91.3708224826388857
 20
-19.4823594835069436
 10
92.59658745659722
 20
-20.7077799479166664
 10
94.1076063368055458
 20
-20.7077799479166664
 10
95.6186252170138857
 20
-20.7077799479166664
 10
96.84439019097222
 20
-19.4823594835069436
 10
96.84439019097222
 20
-17.9709960937499993
 10
96.84439019097222
 20
-16.4599772135416664
 10
95.6186252170138857
 20
-15.2404134114583325
 10
94.1076063368055458
 20
-15.2404134114583325
 97
        0
 92
        1
 93
        1
 72
     4
 94
        3
 73
     0
 74
     0
 95
       17
 96
       13
 40
0.0
 40
0.0
 40
0.0
 40
0.0
 40
1.0
 40
1.0
 40
1.0
 40
2.0
 40
2.0
 40
2.0
 40
3.0
 40
3.0
 40
3.0
 40
4.0
 40
4.0
 40
4.0
 40
4.0
 10
94.1076063368055458
 20
-20.8920925564236093
 10
92.5008138020833286
 20
-20.8920925564236093
 10
91.1930555555555458
 20
-19.5839898003472221
 10
91.1930555555555458
 20
-17.9709960937499993
 10
91.1930555555555458
 20
-16.3645480685763864
 10
92.5008138020833286
 20
-15.0564453124999993
 10
94.1076063368055458
 20
-15.0564453124999993
 10
95.7206000434027686
 20
-15.0564453124999993
 10
97.0283582899305515
 20
-16.3645480685763864
 10
97.0283582899305515
 20
-17.9709960937499993
 10
97.0283582899305515
 20
-19.5839898003472221
 10
95.7206000434027686
 20
-20.8920925564236093
 10
94.1076063368055458
 20
-20.8920925564236093
 97
        0
 75
     2
 76
     1
 98
        1
 10
0.0
 20
0.0
  0
HATCH
  5
35
100
AcDbEntity
  8
COMENT
390
0
 62
     7
100
AcDbHatch
 10
0.0
 20
0.0
 30
0.0
210
0.0
220
0.0
230
1.0
  2
SOLID
 70
     1
 71
     0
 91
        5
 92
       16
 93
        1
 72
     4
 94
        3
 73
     0
 74
     0
 95
       17
 96
       13
 40
0.0
 40
0.0
 40
0.0
 40
0.0
 40
1.0
 40
1.0
 40
1.0
 40
2.0
 40
2.0
 40
2.0
 40
3.0
 40
3.0
 40
3.0
 40
4.0
 40
4.0
 40
4.0
 40
4.0
 10
107.9672254774305458
 20
-16.4710015190972214
 10
107.61169162326388
 20
-16.4710015190972214
 10
107.5166069878472115
 20
-16.85823025173611
 10
107.5166069878472115
 20
-17.9058837890625
 10
107.5166069878472115
 20
-18.9535373263888864
 10
107.61169162326388
 20
-19.3411105685763864
 10
107.9672254774305458
 20
-19.3411105685763864
 10
108.3227593315972115
 20
-19.3411105685763864
 10
108.41784396701388
 20
-18.9535373263888864
 10
108.41784396701388
 20
-17.9058837890625
 10
108.41784396701388
 20
-16.85823025173611
 10
108.3227593315972115
 20
-16.4710015190972214
 10
107.9672254774305458
 20
-16.4710015190972214
 97
        0
 92
        1
 93
        1
 72
     4
 94
        3
 73
     0
 74
     0
 95
       17
 96
       13
 40
0.0
 40
0.0
 40
0.0
 40
0.0
 40
1.0
 40
1.0
 40
1.0
 40
2.0
 40
2.0
 40
2.0
 40
3.0
 40
3.0
 40
3.0
 40
4.0
 40
4.0
 40
4.0
 40
4.0
 10
107.9672254774305458
 20
-19.7472873263888857
 10
107.3450412326388772
 20
-19.7472873263888857
 10
106.9957085503472172
 20
-19.3090711805555522
 10
106.9957085503472172
 20
-17.9058837890625
 10
106.9957085503472172
 20
-16.5026963975694443
 10
107.3450412326388772
 20
-16.0644802517361107
 10
107.9672254774305458
 20
-16.0644802517361107
 10
108.5894097222222143
 20
-16.0644802517361107
 10
108.9387424045138744
 20
-16.5026963975694443
 10
108.9387424045138744
 20
-17.9058837890625
 10
108.9387424045138744
 20
-19.3090711805555522
 10
108.5894097222222143
 20
-19.7472873263888857
 10
107.9672254774305458
 20
-19.7472873263888857
 97
        0
 92
        1
 93
        1
 72
     4
 94
        3
 73
     0
 74
     0
 95
       35
 96
       31
 40
0.0
 40
0.0
 40
0.0
 40
0.0
 40
1.0
 40
1.0
 40
1.0
 40
2.0
 40
2.0
 40
2.0
 40
3.0
 40
3.0
 40
3.0
 40
4.0
 40
4.0
 40
4.0
 40
5.0
 40
5.0
 40
5.0
 40
6.0
 40
6.0
 40
6.0
 40
7.0
 40
7.0
 40
7.0
 40
8.0
 40
8.0
 40
8.0
 40
9.0
 40
9.0
 40
9.0
 40
10.0
 40
10.0
 40
10.0
 40
10.0
 10
104.7984266493055401
 20
-19.6776963975694414
 10
104.7984266493055401
 20
-18.1025987413194436
 10
106.1571723090277715
 20
-18.1408393012152764
 10
106.1571723090277715
 20
-17.0167046440972207
 10
106.1571723090277715
 20
-16.7249050564236086
 10
106.0427951388888772
 20
-16.4710015190972214
 10
105.7575412326388857
 20
-16.4710015190972214
 10
105.3634223090277686
 20
-16.4710015190972214
 10
105.3000325520833229
 20
-16.85823025173611
 10
105.3000325520833229
 20
-17.2265109592013879
 10
105.3000325520833229
 20
-17.2265109592013879
 10
104.8046278211805458
 20
-17.2265109592013879
 10
104.8046278211805458
 20
-17.2265109592013879
 10
104.8046278211805458
 20
-16.5088975694444429
 10
105.0712782118055486
 20
-16.0644802517361107
 10
105.7637424045138772
 20
-16.0644802517361107
 10
106.4307128906249886
 20
-16.0644802517361107
 10
106.6842719184027715
 20
-16.5026963975694443
 10
106.6842719184027715
 20
-17.0297960069444443
 10
106.6842719184027715
 20
-18.2297227647569429
 10
105.6238715277777658
 20
-18.3058593749999972
 10
105.3765136718749886
 20
-19.1884928385416664
 10
105.3765136718749886
 20
-19.1884928385416664
 10
106.6973632812499915
 20
-19.1884928385416664
 10
106.6973632812499915
 20
-19.1884928385416664
 10
106.6973632812499915
 20
-19.1884928385416664
 10
106.6973632812499915
 20
-19.6776963975694414
 10
106.6973632812499915
 20
-19.6776963975694414
 10
106.6973632812499915
 20
-19.6776963975694414
 10
104.7984266493055401
 20
-19.6776963975694414
 10
104.7984266493055401
 20
-19.6776963975694414
 97
        0
 92
       16
 93
        1
 72
     4
 94
        3
 73
     0
 74
     0
 95
       17
 96
       13
 40
0.0
 40
0.0
 40
0.0
 40
0.0
 40
1.0
 40
1.0
 40
1.0
 40
2.0
 40
2.0
 40
2.0
 40
3.0
 40
3.0
 40
3.0
 40
4.0
 40
4.0
 40
4.0
 40
4.0
 10
106.7414605034722115
 20
-15.1756456163194429
 10
105.2366427951388772
 20
-15.1756456163194429
 10
104.0108778211805429
 20
-16.4010660807291657
 10
104.0108778211805429
 20
-17.9058837890625
 10
104.0108778211805429
 20
-19.4172471788194443
 10
105.2366427951388772
 20
-20.636466471354165
 10
106.7414605034722115
 20
-20.636466471354165
 10
108.2531684027777743
 20
-20.636466471354165
 10
109.47204318576388
 20
-19.4172471788194443
 10
109.47204318576388
 20
-17.9058837890625
 10
109.47204318576388
 20
-16.4010660807291657
 10
108.2531684027777743
 20
-15.1756456163194429
 10
106.7414605034722115
 20
-15.1756456163194429
 97
        0
 92
        1
 93
        1
 72
     4
 94
        3
 73
     0
 74
     0
 95
       17
 96
       13
 40
0.0
 40
0.0
 40
0.0
 40
0.0
 40
1.0
 40
1.0
 40
1.0
 40
2.0
 40
2.0
 40
2.0
 40
3.0
 40
3.0
 40
3.0
 40
4.0
 40
4.0
 40
4.0
 40
4.0
 10
106.7414605034722115
 20
-20.8207790798611079
 10
105.1353569878472172
 20
-20.8207790798611079
 10
103.8331108940972172
 20
-19.5188774956597193
 10
103.8331108940972172
 20
-17.9058837890625
 10
103.8331108940972172
 20
-16.2994357638888872
 10
105.1353569878472172
 20
-14.99787868923611
 10
106.7414605034722115
 20
-14.99787868923611
 10
108.3482530381944287
 20
-14.99787868923611
 10
109.6560112847222115
 20
-16.2994357638888872
 10
109.6560112847222115
 20
-17.9058837890625
 10
109.6560112847222115
 20
-19.5188774956597193
 10
108.3482530381944287
 20
-20.8207790798611079
 10
106.7414605034722115
 20
-20.8207790798611079
 97
        0
 75
     2
 76
     1
 98
        1
 10
0.0
 20
0.0
  0
LINE
  5
34
100
AcDbEntity
  8
COMENT
390
0
 62
     7
100
AcDbLine
 10
52.622628
 20
12.231123
 30
0.0
 11
52.622628
 21
-11.934155
 31
0.0
  0
LINE
  5
33
100
AcDbEntity
  8
COMENT
390
0
 62
     7
100
AcDbLine
 10
52.622628
 20
13.37765
 30
0.0
 11
52.622628
 21
-15.138783
 31
0.0
  0
ELLIPSE
  5
32
100
AcDbEntity
  8
COMENT
390
0
 62
     7
100
AcDbEllipse
 10
52.622628
 20
13.421748
 30
0.0
 11
0.0
 21
0.5732638888888888
 31
0.0
210
0.0
220
0.0
230
1.0
 40
0.923077
 41
0.0
 42
6.2831853071795862
  0
HATCH
  5
31
100
AcDbEntity
  8
COMENT
390
0
 62
     7
100
AcDbHatch
 10
0.0
 20
0.0
 30
0.0
210
0.0
220
0.0
230
1.0
  2
SOLID
 70
     1
 71
     0
 91
        1
 92
        1
 93
        1
 72
     4
 94
        3
 73
     0
 74
     0
 95
       17
 96
       13
 40
0.0
 40
0.0
 40
0.0
 40
0.0
 40
1.0
 40
1.0
 40
1.0
 40
2.0
 40
2.0
 40
2.0
 40
3.0
 40
3.0
 40
3.0
 40
4.0
 40
4.0
 40
4.0
 40
4.0
 10
52.0934611002604129
 20
13.4217475043402761
 10
52.0934611002604129
 20
13.7383517795138879
 10
52.3303114149305486
 20
13.9950113932291647
 10
52.6226277669270814
 20
13.9950113932291647
 10
52.9149441189236072
 20
13.9950113932291647
 10
53.1517944335937429
 20
13.7383517795138879
 10
53.1517944335937429
 20
13.4217475043402761
 10
53.1517944335937429
 20
13.1051432291666661
 10
52.9149441189236072
 20
12.8484836154513875
 10
52.6226277669270814
 20
12.8484836154513875
 10
52.3303114149305486
 20
12.8484836154513875
 10
52.0934611002604129
 20
13.1051432291666661
 10
52.0934611002604129
 20
13.4217475043402761
 97
        0
 75
     2
 76
     1
 98
        1
 10
0.0
 20
0.0
  0
LINE
  5
30
100
AcDbEntity
  8
COMENT
390
0
 62
     7
100
AcDbLine
 10
94.1331
 20
13.759711
 30
0.0
 11
94.1331
 21
-10.405566
 31
0.0
  0
LINE
  5
2F
100
AcDbEntity
  8
COMENT
390
0
 62
     7
100
AcDbLine
 10
94.1331
 20
14.906239
 30
0.0
 11
94.1331
 21
-15.021305
 31
0.0
  0
ELLIPSE
  5
2E
100
AcDbEntity
  8
COMENT
390
0
 62
     7
100
AcDbEllipse
 10
94.1331
 20
14.950336
 30
0.0
 11
0.0
 21
0.5732638888888888
 31
0.0
210
0.0
220
0.0
230
1.0
 40
0.923077
 41
0.0
 42
6.2831853071795862
  0
HATCH
  5
2D
100
AcDbEntity
  8
COMENT
390
0
 62
     7
100
AcDbHatch
 10
0.0
 20
0.0
 30
0.0
210
0.0
220
0.0
230
1.0
  2
SOLID
 70
     1
 71
     0
 91
        1
 92
        1
 93
        1
 72
     4
 94
        3
 73
     0
 74
     0
 95
       17
 96
       13
 40
0.0
 40
0.0
 40
0.0
 40
0.0
 40
1.0
 40
1.0
 40
1.0
 40
2.0
 40
2.0
 40
2.0
 40
3.0
 40
3.0
 40
3.0
 40
4.0
 40
4.0
 40
4.0
 40
4.0
 10
93.6039333767361086
 20
14.9503363715277757
 10
93.6039333767361086
 20
15.2669406467013875
 10
93.8406114366319315
 20
15.5236002604166661
 10
94.1331000434027629
 20
15.5236002604166661
 10
94.4252441406249972
 20
15.5236002604166661
 10
94.6622667100694315
 20
15.2669406467013875
 10
94.6622667100694315
 20
14.9503363715277757
 10
94.6622667100694315
 20
14.6337320963541657
 10
94.4252441406249972
 20
14.3770724826388872
 10
94.1331000434027629
 20
14.3770724826388872
 10
93.8406114366319315
 20
14.3770724826388872
 10
93.6039333767361086
 20
14.6337320963541657
 10
93.6039333767361086
 20
14.9503363715277757
 97
        0
 75
     2
 76
     1
 98
        1
 10
0.0
 20
0.0
  0
LINE
  5
2C
100
AcDbEntity
  8
COMENT
390
0
 62
     7
100
AcDbLine
 10
106.715278
 20
13.524756
 30
0.0
 11
106.715278
 21
-10.640522
 31
0.0
  0
LINE
  5
2B
100
AcDbEntity
  8
COMENT
390
0
 62
     7
100
AcDbLine
 10
106.715278
 20
14.671284
 30
0.0
 11
106.715278
 21
-15.256261
 31
0.0
  0
ELLIPSE
  5
2A
100
AcDbEntity
  8
COMENT
390
0
 62
     7
100
AcDbEllipse
 10
106.715278
 20
14.715381
 30
0.0
 11
0.0
 21
0.5732638888888888
 31
0.0
210
0.0
220
0.0
230
1.0
 40
0.923077
 41
0.0
 42
6.2831853071795862
  0
HATCH
  5
29
100
AcDbEntity
  8
COMENT
390
0
 62
     7
100
AcDbHatch
 10
0.0
 20
0.0
 30
0.0
210
0.0
220
0.0
230
1.0
  2
SOLID
 70
     1
 71
     0
 91
        1
 92
        1
 93
        1
 72
     4
 94
        3
 73
     0
 74
     0
 95
       17
 96
       13
 40
0.0
 40
0.0
 40
0.0
 40
0.0
 40
1.0
 40
1.0
 40
1.0
 40
2.0
 40
2.0
 40
2.0
 40
3.0
 40
3.0
 40
3.0
 40
4.0
 40
4.0
 40
4.0
 40
4.0
 10
106.1861111111111029
 20
14.7153808593749993
 10
106.1861111111111029
 20
15.0319851345486093
 10
106.4231336805555515
 20
15.2886447482638879
 10
106.7152777777777715
 20
15.2886447482638879
 10
107.0074218749999915
 20
15.2886447482638879
 10
107.24444444444444
 20
15.0319851345486093
 10
107.24444444444444
 20
14.7153808593749993
 10
107.24444444444444
 20
14.3987765842013875
 10
107.0074218749999915
 20
14.1421169704861089
 10
106.7152777777777715
 20
14.1421169704861089
 10
106.4231336805555515
 20
14.1421169704861089
 10
106.1861111111111029
 20
14.3987765842013875
 10
106.1861111111111029
 20
14.7153808593749993
 97
        0
 75
     2
 76
     1
 98
        1
 10
0.0
 20
0.0
  0
ENDSEC
  0
SECTION
  2
OBJECTS
  0
DICTIONARY
  5
19
100
AcDbDictionary
280
     0
281
     1
  3
ACAD_GROUP
350
1A
  3
ACAD_MLINESTYLE
350
1B
  3
ACAD_LAYOUT
350
1E
  3
ACAD_PLOTSETTINGS
350
22
  3
ACAD_PLOTSTYLENAME
350
1F
  3
ACAD_WIPEOUT_VARS
350
23
  0
DICTIONARY
  5
1A
102
{ACAD_REACTORS
330
19
102
}
100
AcDbDictionary
280
     0
281
     1
  0
DICTIONARY
  5
1B
102
{ACAD_REACTORS
330
19
102
}
100
AcDbDictionary
280
     0
281
     1
  3
Standard
350
1C
  0
MLINESTYLE
  5
1C
102
{ACAD_REACTORS
330
1B
102
}
100
AcDbMlineStyle
  2
Standard
 70
     0
  3

 62
     0
 51
90.0
 52
90.0
 71
     2
 49
0.5
 62
   256
  6
ByLayer
 49
-0.5
 62
   256
  6
ByLayer
  0
ACDBDICTIONARYWDFLT
  5
1F
102
{ACAD_REACTORS
330
19
102
}
100
AcDbDictionary
281
     1
  3
Normal
350
1D
100
AcDbDictionaryWithDefault
340
1D
  0
ACDBPLACEHOLDER
  5
1D
102
{ACAD_REACTORS
330
1F
102
}
  0
LAYOUT
  5
20
102
{ACAD_REACTORS
330
1E
102
}
100
AcDbPlotSettings
  1

  2

  4

  6

 40
0.0
 41
0.0
 42
0.0
 43
0.0
 44
0.0
 45
0.0
 46
0.0
 47
0.0
 48
0.0
 49
0.0
140
0.0
141
0.0
142
1.0
143
1.0
 70
  1024
 72
     0
 73
     0
 74
     0
  7

 75
     0
147
1.0
148
0.0
149
0.0
100
AcDbLayout
  1
Model
 70
     0
 71
     0
 10
0.0
 20
0.0
 11
0.0
 21
0.0
 12
0.0
 22
0.0
 32
0.0
 14
0.0
 24
0.0
 34
0.0
 15
0.0
 25
0.0
 35
0.0
146
0.0
 13
0.0
 23
0.0
 33
0.0
 16
0.0
 26
0.0
 36
0.0
 17
0.0
 27
0.0
 37
0.0
 76
     0
330
A
331
0
345
0
346
0
  0
LAYOUT
  5
21
102
{ACAD_REACTORS
330
1E
102
}
100
AcDbPlotSettings
  1

  2

  4

  6

 40
0.0
 41
0.0
 42
0.0
 43
0.0
 44
0.0
 45
0.0
 46
0.0
 47
0.0
 48
0.0
 49
0.0
140
0.0
141
0.0
142
1.0
143
1.0
 70
     0
 72
     0
 73
     0
 74
     0
  7

 75
     0
147
1.0
148
0.0
149
0.0
100
AcDbLayout
  1
Layout1
 70
     0
 71
     0
 10
0.0
 20
0.0
 11
0.0
 21
0.0
 12
0.0
 22
0.0
 32
0.0
 14
0.0
 24
0.0
 34
0.0
 15
0.0
 25
0.0
 35
0.0
146
0.0
 13
0.0
 23
0.0
 33
0.0
 16
0.0
 26
0.0
 36
0.0
 17
0.0
 27
0.0
 37
0.0
 76
     0
330
B
331
0
345
0
346
0
  0
DICTIONARY
  5
1E
102
{ACAD_REACTORS
330
19
102
}
100
AcDbDictionary
280
     0
281
     1
  3
Layout1
350
21
  3
Model
350
20
  0
DICTIONARY
  5
22
102
{ACAD_REACTORS
330
19
102
}
100
AcDbDictionary
280
     0
281
     1
  0
WIPEOUTVARIABLES
  5
23
100
AcDbWipeoutVariables
 70
     1
  0
ENDSEC
  0
EOF
