  0
SECTION
  2
HEADER
  9
$ACADVER
  1
AC1015
  9
$ACADMAINTVER
 70
     6
  9
$DWGCODEPAGE
  3
ANSI_932
  9
$INSBASE
 10
0.0
 20
0.0
 30
0.0
  9
$EXTMIN
 10
-0.083544
 20
-28.382075
 30
1.000000E+20
  9
$EXTMAX
 10
55.445711
 20
20.838005
 30
-1.000000E+20
  9
$LIMMIN
 10
-0.083544
 20
-28.382075
  9
$LIMMAX
 10
55.445711
 20
20.838005
  9
$ORTHOMODE
 70
     0
  9
$REGENMODE
 70
     1
  9
$FILLMODE
 70
     1
  9
$QTEXTMODE
 70
     0
  9
$MIRRTEXT
 70
     1
  9
$LTSCALE
 40
1.0
  9
$ATTMODE
 70
     1
  9
$TEXTSIZE
 40
0.2
  9
$TRACEWID
 40
0.05
  9
$TEXTSTYLE
  7
Standard
  9
$CLAYER
  8
0
  9
$CELTYPE
  6
Continuous
  9
$CECOLOR
 62
   256
  9
$CELTSCALE
 40
1.0
  9
$DISPSILH
 70
     0
  9
$DIMSCALE
 40
1.0
  9
$DIMASZ
 40
0.18
  9
$DIMEXO
 40
0.0625
  9
$DIMDLI
 40
0.38
  9
$DIMRND
 40
0.0
  9
$DIMDLE
 40
0.0
  9
$DIMEXE
 40
0.18
  9
$DIMTP
 40
0.0
  9
$DIMTM
 40
0.0
  9
$DIMTXT
 40
0.18
  9
$DIMCEN
 40
0.09
  9
$DIMTSZ
 40
0.0
  9
$DIMTOL
 70
     0
  9
$DIMLIM
 70
     0
  9
$DIMTIH
 70
     1
  9
$DIMTOH
 70
     1
  9
$DIMSE1
 70
     0
  9
$DIMSE2
 70
     0
  9
$DIMTAD
 70
     0
  9
$DIMZIN
 70
     0
  9
$DIMBLK
  1

  9
$DIMASO
 70
     1
  9
$DIMSHO
 70
     1
  9
$DIMPOST
  1

  9
$DIMAPOST
  1

  9
$DIMALT
 70
     0
  9
$DIMALTD
 70
     2
  9
$DIMALTF
 40
25.4
  9
$DIMLFAC
 40
1.0
  9
$DIMTOFL
 70
     0
  9
$DIMTVP
 40
0.0
  9
$DIMTIX
 70
     0
  9
$DIMSOXD
 70
     0
  9
$DIMSAH
 70
     0
  9
$DIMBLK1
  1

  9
$DIMBLK2
  1

  9
$DIMSTYLE
  2
Standard
  9
$DIMCLRD
 70
     0
  9
$DIMCLRE
 70
     0
  9
$DIMCLRT
 70
     0
  9
$DIMTFAC
 40
1.0
  9
$DIMGAP
 40
0.09
  9
$DIMJUST
 70
     0
  9
$DIMSD1
 70
     0
  9
$DIMSD2
 70
     0
  9
$DIMTOLJ
 70
     1
  9
$DIMTZIN
 70
     0
  9
$DIMALTZ
 70
     0
  9
$DIMALTTZ
 70
     0
  9
$DIMUPT
 70
     0
  9
$DIMDEC
 70
     4
  9
$DIMTDEC
 70
     4
  9
$DIMALTU
 70
     2
  9
$DIMALTTD
 70
     2
  9
$DIMTXSTY
  7
Standard
  9
$DIMAUNIT
 70
     0
  9
$DIMADEC
 70
     0
  9
$DIMALTRND
 40
0.0
  9
$DIMAZIN
 70
     0
  9
$DIMDSEP
 70
     0
  9
$DIMATFIT
 70
     3
  9
$DIMFRAC
 70
     0
  9
$DIMLDRBLK
  1

  9
$DIMLUNIT
 70
     2
  9
$DIMLWD
 70
     0
  9
$DIMLWE
 70
     0
  9
$DIMTMOVE
 70
     0
  9
$LUNITS
 70
     2
  9
$LUPREC
 70
     4
  9
$SKETCHINC
 40
0.1
  9
$FILLETRAD
 40
0.0
  9
$AUNITS
 70
     0
  9
$AUPREC
 70
     0
  9
$MENU
  1
acad
  9
$ELEVATION
 40
0.0
  9
$PELEVATION
 40
0.0
  9
$THICKNESS
 40
0.0
  9
$LIMCHECK
 70
     0
  9
$CHAMFERA
 40
0.0
  9
$CHAMFERB
 40
0.0
  9
$CHAMFERC
 40
0.0
  9
$CHAMFERD
 40
0.0
  9
$SKPOLY
 70
     0
  9
$TDCREATE
 40
0.000000000
  9
$TDUCREATE
 40
0.000000000
  9
$TDUPDATE
 40
0.000000000
  9
$TDUUPDATE
 40
0.000000000
  9
$TDINDWG
 40
0.0000000000
  9
$TDUSRTIMER
 40
0.0000000000
  9
$USRTIMER
 70
     1
  9
$ANGBASE
 50
0.0
  9
$ANGDIR
 70
     0
  9
$PDMODE
 70
     0
  9
$PDSIZE
 40
0.0
  9
$PLINEWID
 40
0.0
  9
$SPLFRAME
 70
     0
  9
$SPLINETYPE
 70
     6
  9
$SPLINESEGS
 70
     8
  9
$HANDSEED
  5
8E
  9
$SURFTAB1
 70
     6
  9
$SURFTAB2
 70
     6
  9
$SURFTYPE
 70
     6
  9
$SURFU
 70
     6
  9
$SURFV
 70
     6
  9
$UCSBASE
  2

  9
$UCSNAME
  2

  9
$UCSORG
 10
0.0
 20
0.0
 30
0.0
  9
$UCSXDIR
 10
1.0
 20
0.0
 30
0.0
  9
$UCSYDIR
 10
0.0
 20
1.0
 30
0.0
  9
$UCSORTHOREF
  2

  9
$UCSORTHOVIEW
 70
     0
  9
$UCSORGTOP
 10
0.0
 20
0.0
 30
0.0
  9
$UCSORGBOTTOM
 10
0.0
 20
0.0
 30
0.0
  9
$UCSORGLEFT
 10
0.0
 20
0.0
 30
0.0
  9
$UCSORGRIGHT
 10
0.0
 20
0.0
 30
0.0
  9
$UCSORGFRONT
 10
0.0
 20
0.0
 30
0.0
  9
$UCSORGBACK
 10
0.0
 20
0.0
 30
0.0
  9
$PUCSBASE
  2

  9
$PUCSNAME
  2

  9
$PUCSORG
 10
0.0
 20
0.0
 30
0.0
  9
$PUCSXDIR
 10
1.0
 20
0.0
 30
0.0
  9
$PUCSYDIR
 10
0.0
 20
1.0
 30
0.0
  9
$PUCSORTHOREF
  2

  9
$PUCSORTHOVIEW
 70
     0
  9
$PUCSORGTOP
 10
0.0
 20
0.0
 30
0.0
  9
$PUCSORGBOTTOM
 10
0.0
 20
0.0
 30
0.0
  9
$PUCSORGLEFT
 10
0.0
 20
0.0
 30
0.0
  9
$PUCSORGRIGHT
 10
0.0
 20
0.0
 30
0.0
  9
$PUCSORGFRONT
 10
0.0
 20
0.0
 30
0.0
  9
$PUCSORGBACK
 10
0.0
 20
0.0
 30
0.0
  9
$USERI1
 70
     0
  9
$USERI2
 70
     0
  9
$USERI3
 70
     0
  9
$USERI4
 70
     0
  9
$USERI5
 70
     0
  9
$USERR1
 40
0.0
  9
$USERR2
 40
0.0
  9
$USERR3
 40
0.0
  9
$USERR4
 40
0.0
  9
$USERR5
 40
0.0
  9
$WORLDVIEW
 70
     1
  9
$SHADEDGE
 70
     3
  9
$SHADEDIF
 70
    70
  9
$TILEMODE
 70
     1
  9
$MAXACTVP
 70
    16
  9
$PINSBASE
 10
0.0
 20
0.0
 30
0.0
  9
$PLIMCHECK
 70
     0
  9
$PEXTMIN
 10
1.000000E+20
 20
1.000000E+20
 30
1.000000E+20
  9
$PEXTMAX
 10
-1.000000E+20
 20
-1.000000E+20
 30
-1.000000E+20
  9
$PLIMMIN
 10
0.0
 20
0.0
  9
$PLIMMAX
 10
12.0
 20
9.0
  9
$UNITMODE
 70
     0
  9
$VISRETAIN
 70
     0
  9
$PLINEGEN
 70
     1
  9
$PSLTSCALE
 70
     0
  9
$TREEDEPTH
 70
  3020
  9
$CMLSTYLE
  2
Standard
  9
$CMLJUST
 70
     0
  9
$CMLSCALE
 40
1.0
  9
$PROXYGRAPHICS
 70
     0
  9
$MEASUREMENT
 70
     1
  9
$CELWEIGHT
370
     0
  9
$ENDCAPS
280
     0
  9
$JOINSTYLE
280
     0
  9
$LWDISPLAY
290
     0
  9
$INSUNITS
 70
     0
  9
$HYPERLINKBASE
  1

  9
$STYLESHEET
  1

  9
$XEDIT
290
     1
  9
$CEPSNTYPE
380
     0
  9
$PSTYLEMODE
290
     1
  9
$FINGERPRINTGUID
  2

  9
$VERSIONGUID
  2

  9
$EXTNAMES
290
     1
  9
$PSVPSCALE
 40
0.0
  0
ENDSEC
  0
SECTION
  2
CLASSES
  0
CLASS
  1
LWPOLYLINE
  2
AcDbPolyline
  3
AutoCAD 2000
 90
        0
280
     0
281
     1
  0
CLASS
  1
IMAGE
  2
AcDbRasterImage
  3
ISM
 90
      127
280
     0
281
     1
  0
CLASS
  1
OLE2FRAME
  2
AcDbOle2Frame
  3
AutoCAD 2000
 90
        0
280
     0
281
     1
  0
CLASS
  1
HATCH
  2
AcDbHatch
  3
AutoCAD 2000
 90
        0
280
     0
281
     1
  0
CLASS
  1
DICTIONARYVAR
  2
AcDbDictionaryVar
  3
AutoCAD 2000
 90
        0
280
     0
281
     0
  0
CLASS
  1
RASTERVARIABLES
  2
AcDbRasterVariables
  3
ISM
 90
        0
280
     0
281
     0
  0
CLASS
  1
IMAGEDEF
  2
AcDbRasterImageDef
  3
ISM
 90
        0
280
     0
281
     0
  0
CLASS
  1
IMAGEDEF_REACTOR
  2
AcDbRasterImageDefReactor
  3
ISM
 90
        1
280
     0
281
     0
  0
CLASS
  1
IDBUFFER
  2
AcDbIdBuffer
  3
AutoCAD 2000
 90
        0
280
     0
281
     0
  0
CLASS
  1
SPATIAL_FILTER
  2
AcDbSpatialFilter
  3
AutoCAD 2000
 90
        0
280
     0
281
     0
  0
CLASS
  1
XRECORD
  2
AcDbXrecord
  3
AutoCAD 2000
 90
        0
280
     0
281
     0
  0
CLASS
  1
SORTENTSTABLE
  2
AcDbSortentsTable
  3
AutoCAD 2000
 90
        0
280
     0
281
     0
  0
CLASS
  1
LAYER_INDEX
  2
AcDbLayerIndex
  3
AutoCAD 2000
 90
        0
280
     0
281
     0
  0
CLASS
  1
SPATIAL_INDEX
  2
AcDbSpatialIndex
  3
AutoCAD 2000
 90
        0
280
     0
281
     0
  0
CLASS
  1
OBJECT_PTR
  2
CAseDLPNTableRecord
  3
"ASE-LPNTableRecord"
 90
        1
280
     0
281
     0
  0
CLASS
  1
LAYOUT
  2
AcDbLayout
  3
AutoCAD 2000
 90
        0
280
     0
281
     0
  0
CLASS
  1
PLOTSETTINGS
  2
AcDbPlotSettings
  3
AutoCAD 2000
 90
        0
280
     0
281
     0
  0
CLASS
  1
ACDBDICTIONARYWDFLT
  2
AcDbDictionaryWithDefault
  3
AutoCAD 2000
 90
        0
280
     0
281
     0
  0
CLASS
  1
ACDBPLACEHOLDER
  2
AcDbPlaceHolder
  3
AutoCAD 2000
 90
        0
280
     0
281
     0
  0
CLASS
  1
VBA_PROJECT
  2
AcDbVbaProject
  3
acadvba
 90
        0
280
     0
281
     0
  0
CLASS
  1
WIPEOUT
  2
AcDbWipeout
  3
WipeOut|AutoCAD Express Tool|expresstools@autodesk.com
 90
      127
280
     0
281
     1
  0
CLASS
  1
WIPEOUTVARIABLES
  2
AcDbWipeoutVariables
  3
WipeOut|AutoCAD Express Tool|expresstools@autodesk.com
 90
        0
280
     0
281
     0
  0
CLASS
  1
RTEXT
  2
RText
  3
RText|AutoCAD Express Tool|expresstools@autodesk.com
 90
        0
280
     0
281
     1
  0
CLASS
  1
ARCALIGNEDTEXT
  2
AcDbArcAlignedText
  3
ATEXT|AutoCAD Express Tool|expresstools@autodesk.com
 90
        0
280
     0
281
     1
  0
ENDSEC
  0
SECTION
  2
TABLES
  0
TABLE
  2
VPORT
  5
7
100
AcDbSymbolTable
 70
     1
  0
VPORT
  5
15
100
AcDbSymbolTableRecord
100
AcDbViewportTableRecord
  2
*ACTIVE
 70
     0
 10
0.0
 20
0.0
 11
1.0
 21
1.0
 12
6.591288
 22
4.579184
 13
0.0
 23
0.0
 14
1.0
 24
1.0
 15
0.0
 25
0.0
 16
0.0
 26
0.0
 36
1.0
 17
0.0
 27
0.0
 37
0.0
 40
9.158369
 41
0.688564
 42
50.0
 43
0.0
 44
0.0
 50
0.0
 51
0.0
 71
     0
 72
   100
 73
     1
 74
     1
 75
     0
 76
     0
 77
     0
 78
     0
281
     0
 65
     0
110
0.0
120
0.0
130
0.0
111
1.0
121
0.0
131
0.0
112
0.0
122
1.0
132
0.0
345
0
346
0
 79
     0
146
0.0
  0
ENDTAB
  0
TABLE
  2
LTYPE
  5
4
100
AcDbSymbolTable
 70
     3
  0
LTYPE
  5
11
100
AcDbSymbolTableRecord
100
AcDbLinetypeTableRecord
  2
ByBlock
 70
    64
  3

 72
    65
 73
     0
 40
0.0
  0
LTYPE
  5
12
100
AcDbSymbolTableRecord
100
AcDbLinetypeTableRecord
  2
ByLayer
 70
    64
  3

 72
    65
 73
     0
 40
0.0
  0
LTYPE
  5
13
100
AcDbSymbolTableRecord
100
AcDbLinetypeTableRecord
  2
Continuous
 70
    64
  3
Solid line
 72
    65
 73
     0
 40
0.0
  0
ENDTAB
  0
TABLE
  2
LAYER
  5
2
100
AcDbSymbolTable
 70
     4
  0
LAYER
  5
14
100
AcDbSymbolTableRecord
100
AcDbLayerTableRecord
  2
0
 70
     0
 62
     7
  6
Continuous
290
     1
370
    -3
390
1D
  0
LAYER
  5
28
100
AcDbSymbolTableRecord
100
AcDbLayerTableRecord
  2
COMMENT
 70
     0
 62
    -1
  6
Continuous
290
     1
370
    -3
390
1D
  0
LAYER
  5
2E
100
AcDbSymbolTableRecord
100
AcDbLayerTableRecord
  2
FIX-SILK_081020
 70
     4
 62
     3
  6
Continuous
290
     1
370
    -3
390
1D
  0
LAYER
  5
30
100
AcDbSymbolTableRecord
100
AcDbLayerTableRecord
  2
DR-07_080910
 70
     4
 62
   160
  6
Continuous
290
     1
370
    -3
390
1D
  0
ENDTAB
  0
TABLE
  2
STYLE
  5
3
100
AcDbSymbolTable
 70
     5
  0
STYLE
  5
17
100
AcDbSymbolTableRecord
100
AcDbTextStyleTableRecord
  2
Standard
 70
     0
 40
0.0
 41
1.0
 50
0.0
 71
     0
 42
0.0
  3
txt
  4

  0
STYLE
  5
24
100
AcDbSymbolTableRecord
100
AcDbTextStyleTableRecord
  2
STD
 70
     0
 40
0.0
 41
1.0
 50
0.0
 71
     0
 42
0.0
  3
txt
  4

  0
STYLE
  5
25
100
AcDbSymbolTableRecord
100
AcDbTextStyleTableRecord
  2
TATESTD
 70
     4
 40
0.0
 41
1.0
 50
0.0
 71
     0
 42
0.0
  3
txt
  4

  0
STYLE
  5
26
100
AcDbSymbolTableRecord
100
AcDbTextStyleTableRecord
  2
KANJISTD
 70
     0
 40
0.0
 41
1.0
 50
0.0
 71
     0
 42
0.0
  3
txt
  4
extfont
  0
STYLE
  5
27
100
AcDbSymbolTableRecord
100
AcDbTextStyleTableRecord
  2
KANJITATE
 70
     4
 40
0.0
 41
1.0
 50
0.0
 71
     0
 42
0.0
  3
txt
  4
extfont
  0
ENDTAB
  0
TABLE
  2
VIEW
  5
5
100
AcDbSymbolTable
 70
     0
  0
ENDTAB
  0
TABLE
  2
UCS
  5
6
100
AcDbSymbolTable
 70
     0
  0
ENDTAB
  0
TABLE
  2
APPID
  5
8
100
AcDbSymbolTable
 70
     1
  0
APPID
  5
16
100
AcDbSymbolTableRecord
100
AcDbRegAppTableRecord
  2
ACAD
 70
     0
  0
ENDTAB
  0
TABLE
  2
DIMSTYLE
  5
9
100
AcDbSymbolTable
 70
     1
100
AcDbDimStyleTable
 71
     0
  0
DIMSTYLE
105
18
100
AcDbSymbolTableRecord
100
AcDbDimStyleTableRecord
  2
Standard
 70
     0
  3

  4

 40
1.0
 41
0.18
 42
0.0625
 43
0.38
 44
0.18
 45
0.0
 46
0.0
 47
0.0
 48
0.0
 71
     0
 72
     0
 73
     1
 74
     1
 75
     0
 76
     0
 77
     0
 78
     0
 79
     0
140
0.18
141
0.09
142
0.0
143
25.4
144
1.0
145
0.0
146
1.0
147
0.09
148
0.0
170
     0
171
     2
172
     0
173
     0
174
     0
175
     0
176
     0
177
     0
178
     0
179
     0
271
     4
272
     4
273
     2
274
     2
275
     0
276
     0
277
     2
278
    46
279
     0
280
     0
281
     0
282
     0
283
     1
284
     0
285
     0
286
     0
288
     0
289
     3
340
17
341
0
342
0
343
0
344
0
371
    -2
372
    -2
  0
ENDTAB
  0
TABLE
  2
BLOCK_RECORD
  5
1
100
AcDbSymbolTable
 70
     0
  0
BLOCK_RECORD
  5
A
100
AcDbSymbolTableRecord
100
AcDbBlockTableRecord
  2
*MODEL_SPACE
340
20
  0
BLOCK_RECORD
  5
B
100
AcDbSymbolTableRecord
100
AcDbBlockTableRecord
  2
*PAPER_SPACE
340
21
  0
ENDTAB
  0
ENDSEC
  0
SECTION
  2
BLOCKS
  0
BLOCK
  5
D
100
AcDbEntity
  8
0
390
0
100
AcDbBlockBegin
  2
*MODEL_SPACE
 70
     0
 10
0.0
 20
0.0
 30
0.0
  3
*MODEL_SPACE
  1

  0
ENDBLK
  5
E
100
AcDbEntity
  8
0
390
0
100
AcDbBlockEnd
  0
BLOCK
  5
F
100
AcDbEntity
 67
     1
  8
0
390
0
100
AcDbBlockBegin
  2
*PAPER_SPACE
 70
     0
 10
0.0
 20
0.0
 30
0.0
  3
*PAPER_SPACE
  1

  0
ENDBLK
  5
10
100
AcDbEntity
 67
     1
  8
0
390
0
100
AcDbBlockEnd
  0
ENDSEC
  0
SECTION
  2
ENTITIES
  0
LINE
  5
8D
100
AcDbEntity
  8
DR-07_080910
390
0
 62
     7
100
AcDbLine
 10
0.18104
 20
-16.59158
 30
0.0
 11
0.18104
 21
-0.992187
 31
0.0
  0
LINE
  5
8C
100
AcDbEntity
  8
DR-07_080910
390
0
 62
     7
100
AcDbLine
 10
0.18104
 20
-16.59158
 30
0.0
 11
0.881428
 21
-17.291623
 31
0.0
  0
LINE
  5
8B
100
AcDbEntity
  8
DR-07_080910
390
0
 62
     7
100
AcDbLine
 10
0.880739
 20
-17.291968
 30
0.0
 11
0.880739
 21
-0.292144
 31
0.0
  0
LINE
  5
8A
100
AcDbEntity
  8
DR-07_080910
390
0
 62
     7
100
AcDbLine
 10
0.18104
 20
-0.992187
 30
0.0
 11
0.881428
 21
-0.292144
 31
0.0
  0
LINE
  5
89
100
AcDbEntity
  8
DR-07_080910
390
0
 62
     7
100
AcDbLine
 10
5.48063
 20
-17.291968
 30
0.0
 11
7.480853
 21
-17.291968
 31
0.0
  0
LINE
  5
88
100
AcDbEntity
  8
DR-07_080910
390
0
 62
     7
100
AcDbLine
 10
9.481075
 20
-17.291968
 30
0.0
 11
11.480953
 21
-17.291968
 31
0.0
  0
LINE
  5
87
100
AcDbEntity
  8
DR-07_080910
390
0
 62
     7
100
AcDbLine
 10
13.480831
 20
-17.291968
 30
0.0
 11
17.180863
 21
-17.291968
 31
0.0
  0
SPLINE
  5
86
100
AcDbEntity
  8
DR-07_080910
390
0
 62
     7
100
AcDbSpline
210
0.0
220
0.0
230
1.0
 70
     8
 71
     3
 72
    11
 73
     7
 74
     0
 42
0.00000001
 43
0.00000001
 40
0.0
 40
0.0
 40
0.0
 40
0.0
 40
1.0
 40
1.0
 40
1.0
 40
2.0
 40
2.0
 40
2.0
 40
2.0
 10
17.1808634440104164
 20
-17.2919677734374986
 30
0.0
 10
17.3138441297743029
 20
-17.2919677734374986
 30
0.0
 10
17.4406236436631943
 20
-17.2392578125
 30
0.0
 10
17.5343302408854136
 20
-17.1455512152777771
 30
0.0
 10
17.6283813476562479
 20
-17.0518446180555543
 30
0.0
 10
17.68109130859375
 20
-16.9243760850694436
 30
0.0
 10
17.68109130859375
 20
-16.7920844184027764
 30
0.0
  0
LINE
  5
85
100
AcDbEntity
  8
DR-07_080910
390
0
 62
     7
100
AcDbLine
 10
17.681091
 20
-0.792372
 30
0.0
 11
17.681091
 21
-16.791395
 31
0.0
  0
SPLINE
  5
84
100
AcDbEntity
  8
DR-07_080910
390
0
 62
     7
100
AcDbSpline
210
0.0
220
0.0
230
1.0
 70
     8
 71
     3
 72
     8
 73
     4
 74
     0
 42
0.00000001
 43
0.00000001
 40
0.0
 40
0.0
 40
0.0
 40
0.0
 40
1.0
 40
1.0
 40
1.0
 40
1.0
 10
17.68109130859375
 20
-0.7916829427083333
 30
0.0
 10
17.68109130859375
 20
-0.5153862847222221
 30
0.0
 10
17.457160101996525
 20
-0.2921440972222222
 30
0.0
 10
17.1808634440104164
 20
-0.2921440972222222
 30
0.0
  0
LINE
  5
83
100
AcDbEntity
  8
DR-07_080910
390
0
 62
     7
100
AcDbLine
 10
13.480831
 20
-0.292144
 30
0.0
 11
17.180863
 21
-0.292144
 31
0.0
  0
LINE
  5
82
100
AcDbEntity
  8
DR-07_080910
390
0
 62
     7
100
AcDbLine
 10
9.481075
 20
-0.292144
 30
0.0
 11
11.480953
 21
-0.292144
 31
0.0
  0
LINE
  5
81
100
AcDbEntity
  8
DR-07_080910
390
0
 62
     7
100
AcDbLine
 10
5.48063
 20
-0.292144
 30
0.0
 11
7.480853
 21
-0.292144
 31
0.0
  0
LINE
  5
80
100
AcDbEntity
  8
DR-07_080910
390
0
 62
     7
100
AcDbLine
 10
0.880739
 20
-0.292144
 30
0.0
 11
3.481097
 21
-0.292144
 31
0.0
  0
LINE
  5
7F
100
AcDbEntity
  8
DR-07_080910
390
0
 62
     7
100
AcDbLine
 10
0.880739
 20
-17.291968
 30
0.0
 11
3.481097
 21
-17.291968
 31
0.0
  0
LINE
  5
7E
100
AcDbEntity
  8
DR-07_080910
390
0
 62
     7
100
AcDbLine
 10
3.481097
 20
-16.091697
 30
0.0
 11
5.48063
 21
-16.091697
 31
0.0
  0
LINE
  5
7D
100
AcDbEntity
  8
DR-07_080910
390
0
 62
     7
100
AcDbLine
 10
7.480853
 20
-16.091697
 30
0.0
 11
9.481075
 21
-16.091697
 31
0.0
  0
LINE
  5
7C
100
AcDbEntity
  8
DR-07_080910
390
0
 62
     7
100
AcDbLine
 10
11.480953
 20
-16.091697
 30
0.0
 11
13.480831
 21
-16.091697
 31
0.0
  0
LINE
  5
7B
100
AcDbEntity
  8
DR-07_080910
390
0
 62
     7
100
AcDbLine
 10
3.481097
 20
-1.492071
 30
0.0
 11
5.48063
 21
-1.492071
 31
0.0
  0
LINE
  5
7A
100
AcDbEntity
  8
DR-07_080910
390
0
 62
     7
100
AcDbLine
 10
7.480853
 20
-1.492071
 30
0.0
 11
9.481075
 21
-1.492071
 31
0.0
  0
LINE
  5
79
100
AcDbEntity
  8
DR-07_080910
390
0
 62
     7
100
AcDbLine
 10
11.480953
 20
-1.492071
 30
0.0
 11
13.480831
 21
-1.492071
 31
0.0
  0
LINE
  5
78
100
AcDbEntity
  8
DR-07_080910
390
0
 62
     7
100
AcDbLine
 10
41.879959
 20
-17.291968
 30
0.0
 11
38.179237
 21
-17.291968
 31
0.0
  0
SPLINE
  5
77
100
AcDbEntity
  8
DR-07_080910
390
0
 62
     7
100
AcDbSpline
210
0.0
220
0.0
230
1.0
 70
     8
 71
     3
 72
    11
 73
     7
 74
     0
 42
0.00000001
 43
0.00000001
 40
0.0
 40
0.0
 40
0.0
 40
0.0
 40
1.0
 40
1.0
 40
1.0
 40
2.0
 40
2.0
 40
2.0
 40
2.0
 10
37.6793538411458329
 20
-16.7920844184027764
 30
0.0
 10
37.6793538411458329
 20
-16.9243760850694436
 30
0.0
 10
37.7320638020833314
 20
-17.0518446180555543
 30
0.0
 10
37.8261149088541657
 20
-17.1455512152777771
 30
0.0
 10
37.9198215060763886
 20
-17.2392578125
 30
0.0
 10
38.0469455295138843
 20
-17.2919677734374986
 30
0.0
 10
38.1792371961805515
 20
-17.2919677734374986
 30
0.0
  0
LINE
  5
76
100
AcDbEntity
  8
DR-07_080910
390
0
 62
     7
100
AcDbLine
 10
37.679354
 20
-0.792372
 30
0.0
 11
37.679354
 21
-16.791395
 31
0.0
  0
SPLINE
  5
75
100
AcDbEntity
  8
DR-07_080910
390
0
 62
     7
100
AcDbSpline
210
0.0
220
0.0
230
1.0
 70
     8
 71
     3
 72
     8
 73
     4
 74
     0
 42
0.00000001
 43
0.00000001
 40
0.0
 40
0.0
 40
0.0
 40
0.0
 40
1.0
 40
1.0
 40
1.0
 40
1.0
 10
38.1792371961805515
 20
-0.2921440972222222
 30
0.0
 10
37.9039740668402771
 20
-0.2921440972222222
 30
0.0
 10
37.6793538411458329
 20
-0.5153862847222221
 30
0.0
 10
37.6793538411458329
 20
-0.7916829427083333
 30
0.0
  0
LINE
  5
74
100
AcDbEntity
  8
DR-07_080910
390
0
 62
     7
100
AcDbLine
 10
41.879959
 20
-0.292144
 30
0.0
 11
38.179237
 21
-0.292144
 31
0.0
  0
LINE
  5
73
100
AcDbEntity
  8
DR-07_080910
390
0
 62
     7
100
AcDbLine
 10
45.879715
 20
-0.292144
 30
0.0
 11
43.879492
 21
-0.292144
 31
0.0
  0
LINE
  5
72
100
AcDbEntity
  8
DR-07_080910
390
0
 62
     7
100
AcDbLine
 10
49.87947
 20
-0.292144
 30
0.0
 11
47.879937
 21
-0.292144
 31
0.0
  0
LINE
  5
71
100
AcDbEntity
  8
DR-07_080910
390
0
 62
     7
100
AcDbLine
 10
54.479362
 20
-0.292144
 30
0.0
 11
51.880037
 21
-0.292144
 31
0.0
  0
LINE
  5
70
100
AcDbEntity
  8
DR-07_080910
390
0
 62
     7
100
AcDbLine
 10
54.479362
 20
-17.291968
 30
0.0
 11
54.479362
 21
-0.292144
 31
0.0
  0
LINE
  5
6F
100
AcDbEntity
  8
DR-07_080910
390
0
 62
     7
100
AcDbLine
 10
54.479362
 20
-17.291968
 30
0.0
 11
51.880037
 21
-17.291968
 31
0.0
  0
LINE
  5
6E
100
AcDbEntity
  8
DR-07_080910
390
0
 62
     7
100
AcDbLine
 10
49.87947
 20
-17.291968
 30
0.0
 11
47.879937
 21
-17.291968
 31
0.0
  0
LINE
  5
6D
100
AcDbEntity
  8
DR-07_080910
390
0
 62
     7
100
AcDbLine
 10
45.879715
 20
-17.291968
 30
0.0
 11
43.879492
 21
-17.291968
 31
0.0
  0
LINE
  5
6C
100
AcDbEntity
  8
DR-07_080910
390
0
 62
     7
100
AcDbLine
 10
55.17975
 20
-0.992187
 30
0.0
 11
54.479362
 21
-0.292144
 31
0.0
  0
LINE
  5
6B
100
AcDbEntity
  8
DR-07_080910
390
0
 62
     7
100
AcDbLine
 10
55.17975
 20
-16.59158
 30
0.0
 11
55.17975
 21
-0.992187
 31
0.0
  0
LINE
  5
6A
100
AcDbEntity
  8
DR-07_080910
390
0
 62
     7
100
AcDbLine
 10
55.17975
 20
-16.59158
 30
0.0
 11
54.479362
 21
-17.291623
 31
0.0
  0
LINE
  5
69
100
AcDbEntity
  8
DR-07_080910
390
0
 62
     7
100
AcDbLine
 10
51.880037
 20
-1.492071
 30
0.0
 11
49.87947
 21
-1.492071
 31
0.0
  0
LINE
  5
68
100
AcDbEntity
  8
DR-07_080910
390
0
 62
     7
100
AcDbLine
 10
47.879937
 20
-1.492071
 30
0.0
 11
45.879715
 21
-1.492071
 31
0.0
  0
LINE
  5
67
100
AcDbEntity
  8
DR-07_080910
390
0
 62
     7
100
AcDbLine
 10
43.879492
 20
-1.492071
 30
0.0
 11
41.879959
 21
-1.492071
 31
0.0
  0
LINE
  5
66
100
AcDbEntity
  8
DR-07_080910
390
0
 62
     7
100
AcDbLine
 10
51.880037
 20
-16.091697
 30
0.0
 11
49.87947
 21
-16.091697
 31
0.0
  0
LINE
  5
65
100
AcDbEntity
  8
DR-07_080910
390
0
 62
     7
100
AcDbLine
 10
47.879937
 20
-16.091697
 30
0.0
 11
45.879715
 21
-16.091697
 31
0.0
  0
LINE
  5
64
100
AcDbEntity
  8
DR-07_080910
390
0
 62
     7
100
AcDbLine
 10
43.879492
 20
-16.091697
 30
0.0
 11
41.879959
 21
-16.091697
 31
0.0
  0
SPLINE
  5
63
100
AcDbEntity
  8
DR-07_080910
390
0
 62
     7
100
AcDbSpline
210
0.0
220
0.0
230
1.0
 70
     8
 71
     3
 72
    11
 73
     7
 74
     0
 42
0.00000001
 43
0.00000001
 40
0.0
 40
0.0
 40
0.0
 40
0.0
 40
1.0
 40
1.0
 40
1.0
 40
2.0
 40
2.0
 40
2.0
 40
2.0
 10
16.7812323676215271
 20
-18.2917344835069429
 30
0.0
 10
17.0465047200520807
 20
-18.2917344835069429
 30
0.0
 10
17.3007527669270829
 20
-18.1866590711805536
 30
0.0
 10
17.488165961371525
 20
-17.9989013671875
 30
0.0
 10
17.6755791558159707
 20
-17.8118326822916657
 30
0.0
 10
17.7809990776909714
 20
-17.5572401258680557
 30
0.0
 10
17.7809990776909714
 20
-17.2919677734374986
 30
0.0
  0
SPLINE
  5
62
100
AcDbEntity
  8
DR-07_080910
390
0
 62
     7
100
AcDbSpline
210
0.0
220
0.0
230
1.0
 70
     8
 71
     3
 72
    11
 73
     7
 74
     0
 42
0.00000001
 43
0.00000001
 40
0.0
 40
0.0
 40
0.0
 40
0.0
 40
1.0
 40
1.0
 40
1.0
 40
2.0
 40
2.0
 40
2.0
 40
2.0
 10
37.5797905815972157
 20
-17.2919677734374986
 30
0.0
 10
37.5797905815972157
 20
-17.5572401258680557
 30
0.0
 10
37.6848659939236086
 20
-17.8118326822916657
 30
0.0
 10
37.8729682074652771
 20
-17.9989013671875
 30
0.0
 10
38.0600368923611043
 20
-18.1866590711805536
 30
0.0
 10
38.31428493923611
 20
-18.2917344835069429
 30
0.0
 10
38.5792127821180486
 20
-18.2917344835069429
 30
0.0
  0
SPLINE
  5
61
100
AcDbEntity
  8
DR-07_080910
390
0
 62
     7
100
AcDbSpline
210
0.0
220
0.0
230
1.0
 70
     8
 71
     3
 72
    17
 73
    13
 74
     0
 42
0.00000001
 43
0.00000001
 40
0.0
 40
0.0
 40
0.0
 40
0.0
 40
1.0
 40
1.0
 40
1.0
 40
2.0
 40
2.0
 40
2.0
 40
3.0
 40
3.0
 40
3.0
 40
4.0
 40
4.0
 40
4.0
 40
4.0
 10
24.9302612304687479
 20
-12.2921006944444429
 30
0.0
 10
24.9302612304687479
 20
-13.8113878038194429
 30
0.0
 10
26.1615383572048579
 20
-15.0426649305555546
 30
0.0
 10
27.680136447482635
 20
-15.0426649305555546
 30
0.0
 10
29.1989067925347179
 20
-15.0426649305555546
 30
0.0
 10
30.42983940972222
 20
-13.8113878038194429
 30
0.0
 10
30.42983940972222
 20
-12.2921006944444429
 30
0.0
 10
30.42983940972222
 20
-10.7735026041666657
 30
0.0
 10
29.1989067925347179
 20
-9.5422254774305539
 30
0.0
 10
27.680136447482635
 20
-9.5422254774305539
 30
0.0
 10
26.1615383572048579
 20
-9.5422254774305539
 30
0.0
 10
24.9302612304687479
 20
-10.7735026041666657
 30
0.0
 10
24.9302612304687479
 20
-12.2921006944444429
 30
0.0
  0
SPLINE
  5
60
100
AcDbEntity
  8
DR-07_080910
390
0
 62
     7
100
AcDbSpline
210
0.0
220
0.0
230
1.0
 70
     8
 71
     3
 72
    17
 73
    13
 74
     0
 42
0.00000001
 43
0.00000001
 40
0.0
 40
0.0
 40
0.0
 40
0.0
 40
1.0
 40
1.0
 40
1.0
 40
2.0
 40
2.0
 40
2.0
 40
3.0
 40
3.0
 40
3.0
 40
4.0
 40
4.0
 40
4.0
 40
4.0
 10
25.8804185655381929
 20
-12.2921006944444429
 30
0.0
 10
25.8804185655381929
 20
-13.2863552517361097
 30
0.0
 10
26.68588189019097
 20
-14.0921630859374982
 30
0.0
 10
27.680136447482635
 20
-14.0921630859374982
 30
0.0
 10
28.6745632595486093
 20
-14.0921630859374982
 30
0.0
 10
29.4803710937499979
 20
-13.2863552517361097
 30
0.0
 10
29.4803710937499979
 20
-12.2921006944444429
 30
0.0
 10
29.4803710937499979
 20
-11.2978461371527761
 30
0.0
 10
28.6745632595486093
 20
-10.4923828124999989
 30
0.0
 10
27.680136447482635
 20
-10.4923828124999989
 30
0.0
 10
26.68588189019097
 20
-10.4923828124999989
 30
0.0
 10
25.8804185655381929
 20
-11.2978461371527761
 30
0.0
 10
25.8804185655381929
 20
-12.2921006944444429
 30
0.0
  0
SPLINE
  5
5F
100
AcDbEntity
  8
DR-07_080910
390
0
 62
     7
100
AcDbSpline
210
0.0
220
0.0
230
1.0
 70
     8
 71
     3
 72
    17
 73
    13
 74
     0
 42
0.00000001
 43
0.00000001
 40
0.0
 40
0.0
 40
0.0
 40
0.0
 40
1.0
 40
1.0
 40
1.0
 40
2.0
 40
2.0
 40
2.0
 40
3.0
 40
3.0
 40
3.0
 40
4.0
 40
4.0
 40
4.0
 40
4.0
 10
25.5800062391493022
 20
-12.2921006944444429
 30
0.0
 10
25.5800062391493022
 20
-13.452064344618055
 30
0.0
 10
26.5201727973090264
 20
-14.3922309027777757
 30
0.0
 10
27.680136447482635
 20
-14.3922309027777757
 30
0.0
 10
28.8402723524305529
 20
-14.3922309027777757
 30
0.0
 10
29.7800944010416657
 20
-13.452064344618055
 30
0.0
 10
29.7800944010416657
 20
-12.2921006944444429
 30
0.0
 10
29.7800944010416657
 20
-11.1324815538194439
 30
0.0
 10
28.8402723524305529
 20
-10.19197048611111
 30
0.0
 10
27.680136447482635
 20
-10.19197048611111
 30
0.0
 10
26.5201727973090264
 20
-10.19197048611111
 30
0.0
 10
25.5800062391493022
 20
-11.1324815538194439
 30
0.0
 10
25.5800062391493022
 20
-12.2921006944444429
 30
0.0
  0
SPLINE
  5
5E
100
AcDbEntity
  8
DR-07_080910
390
0
 62
     7
100
AcDbSpline
210
0.0
220
0.0
230
1.0
 70
     8
 71
     3
 72
    17
 73
    13
 74
     0
 42
0.00000001
 43
0.00000001
 40
0.0
 40
0.0
 40
0.0
 40
0.0
 40
1.0
 40
1.0
 40
1.0
 40
2.0
 40
2.0
 40
2.0
 40
3.0
 40
3.0
 40
3.0
 40
4.0
 40
4.0
 40
4.0
 40
4.0
 10
25.1304212782118022
 20
-12.2921006944444429
 30
0.0
 10
25.1304212782118022
 20
-13.7004557291666647
 30
0.0
 10
26.271781412760415
 20
-14.8421603732638872
 30
0.0
 10
27.680136447482635
 20
-14.8421603732638872
 30
0.0
 10
29.0886637369791643
 20
-14.8421603732638872
 30
0.0
 10
30.2300238715277736
 20
-13.7004557291666647
 30
0.0
 10
30.2300238715277736
 20
-12.2921006944444429
 30
0.0
 10
30.2300238715277736
 20
-10.8837456597222211
 30
0.0
 10
29.0886637369791643
 20
-9.7420410156249986
 30
0.0
 10
27.680136447482635
 20
-9.7420410156249986
 30
0.0
 10
26.271781412760415
 20
-9.7420410156249986
 30
0.0
 10
25.1304212782118022
 20
-10.8837456597222211
 30
0.0
 10
25.1304212782118022
 20
-12.2921006944444429
 30
0.0
  0
SPLINE
  5
5D
100
AcDbEntity
  8
DR-07_080910
390
0
 62
     7
100
AcDbSpline
210
0.0
220
0.0
230
1.0
 70
     8
 71
     3
 72
    17
 73
    13
 74
     0
 42
0.00000001
 43
0.00000001
 40
0.0
 40
0.0
 40
0.0
 40
0.0
 40
1.0
 40
1.0
 40
1.0
 40
2.0
 40
2.0
 40
2.0
 40
3.0
 40
3.0
 40
3.0
 40
4.0
 40
4.0
 40
4.0
 40
4.0
 10
24.7797105577256929
 20
-12.2921006944444429
 30
0.0
 10
24.7797105577256929
 20
-13.8940700954861107
 30
0.0
 10
26.0785115559895821
 20
-15.1921820746527771
 30
0.0
 10
27.680136447482635
 20
-15.1921820746527771
 30
0.0
 10
29.2815890842013857
 20
-15.1921820746527771
 30
0.0
 10
30.5800455729166636
 20
-13.8940700954861107
 30
0.0
 10
30.5800455729166636
 20
-12.2921006944444429
 30
0.0
 10
30.5800455729166636
 20
-10.6904758029513882
 30
0.0
 10
29.2815890842013857
 20
-9.3920193142361104
 30
0.0
 10
27.680136447482635
 20
-9.3920193142361104
 30
0.0
 10
26.0785115559895821
 20
-9.3920193142361104
 30
0.0
 10
24.7797105577256929
 20
-10.6904758029513882
 30
0.0
 10
24.7797105577256929
 20
-12.2921006944444429
 30
0.0
  0
LINE
  5
5C
100
AcDbEntity
  8
DR-07_080910
390
0
 62
     7
100
AcDbLine
 10
24.835866
 20
-12.291584
 30
0.0
 11
17.780999
 21
-12.291584
 31
0.0
  0
LINE
  5
5B
100
AcDbEntity
  8
DR-07_080910
390
0
 62
     7
100
AcDbLine
 10
37.579791
 20
-12.291584
 30
0.0
 11
30.459123
 21
-12.291584
 31
0.0
  0
LINE
  5
5A
100
AcDbEntity
  8
DR-07_080910
390
0
 62
     7
100
AcDbLine
 10
24.857914
 20
-12.591996
 30
0.0
 11
17.780999
 21
-12.591996
 31
0.0
  0
LINE
  5
59
100
AcDbEntity
  8
DR-07_080910
390
0
 62
     7
100
AcDbLine
 10
37.579791
 20
-12.591824
 30
0.0
 11
30.591414
 21
-12.591824
 31
0.0
  0
LINE
  5
58
100
AcDbEntity
  8
DR-07_080910
390
0
 62
     7
100
AcDbLine
 10
5.48063
 20
-0.292489
 30
0.0
 11
5.48063
 21
-17.291968
 31
0.0
  0
LINE
  5
57
100
AcDbEntity
  8
DR-07_080910
390
0
 62
     7
100
AcDbLine
 10
3.481097
 20
-0.292489
 30
0.0
 11
3.481097
 21
-17.291968
 31
0.0
  0
LINE
  5
56
100
AcDbEntity
  8
DR-07_080910
390
0
 62
     7
100
AcDbLine
 10
7.480853
 20
-0.292489
 30
0.0
 11
7.480853
 21
-17.291968
 31
0.0
  0
LINE
  5
55
100
AcDbEntity
  8
DR-07_080910
390
0
 62
     7
100
AcDbLine
 10
9.481075
 20
-0.292489
 30
0.0
 11
9.481075
 21
-17.291968
 31
0.0
  0
LINE
  5
54
100
AcDbEntity
  8
DR-07_080910
390
0
 62
     7
100
AcDbLine
 10
11.480953
 20
-0.292489
 30
0.0
 11
11.480953
 21
-17.291968
 31
0.0
  0
LINE
  5
53
100
AcDbEntity
  8
DR-07_080910
390
0
 62
     7
100
AcDbLine
 10
13.480831
 20
-0.292489
 30
0.0
 11
13.480831
 21
-17.291968
 31
0.0
  0
LINE
  5
52
100
AcDbEntity
  8
DR-07_080910
390
0
 62
     7
100
AcDbLine
 10
41.879959
 20
-0.292489
 30
0.0
 11
41.879959
 21
-17.291968
 31
0.0
  0
LINE
  5
51
100
AcDbEntity
  8
DR-07_080910
390
0
 62
     7
100
AcDbLine
 10
43.879492
 20
-0.292489
 30
0.0
 11
43.879492
 21
-17.291968
 31
0.0
  0
LINE
  5
50
100
AcDbEntity
  8
DR-07_080910
390
0
 62
     7
100
AcDbLine
 10
45.879715
 20
-0.292489
 30
0.0
 11
45.879715
 21
-17.291968
 31
0.0
  0
LINE
  5
4F
100
AcDbEntity
  8
DR-07_080910
390
0
 62
     7
100
AcDbLine
 10
47.879937
 20
-0.292489
 30
0.0
 11
47.879937
 21
-17.291968
 31
0.0
  0
LINE
  5
4E
100
AcDbEntity
  8
DR-07_080910
390
0
 62
     7
100
AcDbLine
 10
49.87947
 20
-0.292489
 30
0.0
 11
49.87947
 21
-17.291968
 31
0.0
  0
LINE
  5
4D
100
AcDbEntity
  8
DR-07_080910
390
0
 62
     7
100
AcDbLine
 10
51.880037
 20
-0.292489
 30
0.0
 11
51.880037
 21
-17.291968
 31
0.0
  0
SPLINE
  5
4C
100
AcDbEntity
  8
DR-07_080910
390
0
 62
     7
100
AcDbSpline
210
0.0
220
0.0
230
1.0
 70
     8
 71
     3
 72
     8
 73
     4
 74
     0
 42
0.00000001
 43
0.00000001
 40
0.0
 40
0.0
 40
0.0
 40
0.0
 40
1.0
 40
1.0
 40
1.0
 40
1.0
 10
18.380790201822915
 20
-0.7916829427083333
 30
0.0
 10
18.0497165256076357
 20
-0.7916829427083333
 30
0.0
 10
17.7809990776909714
 20
-1.0604003906249999
 30
0.0
 10
17.7809990776909714
 20
-1.3918185763888888
 30
0.0
  0
SPLINE
  5
4B
100
AcDbEntity
  8
DR-07_080910
390
0
 62
     7
100
AcDbSpline
210
0.0
220
0.0
230
1.0
 70
     8
 71
     3
 72
     8
 73
     4
 74
     0
 42
0.00000001
 43
0.00000001
 40
0.0
 40
0.0
 40
0.0
 40
0.0
 40
1.0
 40
1.0
 40
1.0
 40
1.0
 10
18.3714884440104136
 20
-0.3638020833333333
 30
0.0
 10
18.04420437282986
 20
-0.3693142361111111
 30
0.0
 10
17.7809990776909714
 20
-0.6363091362847222
 30
0.0
 10
17.7809990776909714
 20
-0.9639377170138888
 30
0.0
  0
LINE
  5
4A
100
AcDbEntity
  8
DR-07_080910
390
0
 62
     7
100
AcDbLine
 10
36.979655
 20
-0.791683
 30
0.0
 11
18.38079
 21
-0.791683
 31
0.0
  0
SPLINE
  5
49
100
AcDbEntity
  8
DR-07_080910
390
0
 62
     7
100
AcDbSpline
210
0.0
220
0.0
230
1.0
 70
     8
 71
     3
 72
     8
 73
     4
 74
     0
 42
0.00000001
 43
0.00000001
 40
0.0
 40
0.0
 40
0.0
 40
0.0
 40
1.0
 40
1.0
 40
1.0
 40
1.0
 10
37.5797905815972157
 20
-1.3918185763888888
 30
0.0
 10
37.5797905815972157
 20
-1.0604003906249999
 30
0.0
 10
37.31072862413194
 20
-0.7916829427083333
 30
0.0
 10
36.9796549479166643
 20
-0.7916829427083333
 30
0.0
  0
SPLINE
  5
48
100
AcDbEntity
  8
DR-07_080910
390
0
 62
     7
100
AcDbSpline
210
0.0
220
0.0
230
1.0
 70
     8
 71
     3
 72
     8
 73
     4
 74
     0
 42
0.00000001
 43
0.00000001
 40
0.0
 40
0.0
 40
0.0
 40
0.0
 40
1.0
 40
1.0
 40
1.0
 40
1.0
 10
36.9893012152777771
 20
-0.3644911024305555
 30
0.0
 10
30.7836507161458321
 20
-0.2680284288194444
 30
0.0
 10
24.5771389431423586
 20
-0.2680284288194444
 30
0.0
 10
18.3714884440104136
 20
-0.3644911024305555
 30
0.0
  0
SPLINE
  5
47
100
AcDbEntity
  8
DR-07_080910
390
0
 62
     7
100
AcDbSpline
210
0.0
220
0.0
230
1.0
 70
     8
 71
     3
 72
     8
 73
     4
 74
     0
 42
0.00000001
 43
0.00000001
 40
0.0
 40
0.0
 40
0.0
 40
0.0
 40
1.0
 40
1.0
 40
1.0
 40
1.0
 10
37.5797905815972157
 20
-0.9639377170138888
 30
0.0
 10
37.5797905815972157
 20
-0.6363091362847222
 30
0.0
 10
37.3162407769097157
 20
-0.3693142361111111
 30
0.0
 10
36.9886121961805543
 20
-0.3644911024305555
 30
0.0
  0
LINE
  5
46
100
AcDbEntity
  8
DR-07_080910
390
0
 62
     7
100
AcDbLine
 10
37.579791
 20
-22.292524
 30
0.0
 11
17.780999
 21
-22.292524
 31
0.0
  0
SPLINE
  5
45
100
AcDbEntity
  8
DR-07_080910
390
0
 62
     7
100
AcDbSpline
210
0.0
220
0.0
230
1.0
 70
     8
 71
     3
 72
     8
 73
     4
 74
     0
 42
0.00000001
 43
0.00000001
 40
0.0
 40
0.0
 40
0.0
 40
0.0
 40
1.0
 40
1.0
 40
1.0
 40
1.0
 10
0.3725870768229166
 20
-22.4737358940972207
 30
0.0
 10
3.7026163736979165
 20
-25.57087673611111
 30
0.0
 10
8.0823662651909718
 20
-27.2920464409722214
 30
0.0
 10
12.6298923068576379
 20
-27.2920464409722214
 30
0.0
  0
SPLINE
  5
44
100
AcDbEntity
  8
DR-07_080910
390
0
 62
     7
100
AcDbSpline
210
0.0
220
0.0
230
1.0
 70
     8
 71
     3
 72
     8
 73
     4
 74
     0
 42
0.00000001
 43
0.00000001
 40
0.0
 40
0.0
 40
0.0
 40
0.0
 40
1.0
 40
1.0
 40
1.0
 40
1.0
 10
0.1810397677951389
 20
-22.0341417100694414
 30
0.0
 10
0.1810397677951389
 20
-22.2012288411458307
 30
0.0
 10
0.2506306966145833
 20
-22.3603922526041643
 30
0.0
 10
0.3725870768229166
 20
-22.4737358940972207
 30
0.0
  0
SPLINE
  5
43
100
AcDbEntity
  8
DR-07_080910
390
0
 62
     7
100
AcDbSpline
210
0.0
220
0.0
230
1.0
 70
     8
 71
     3
 72
     8
 73
     4
 74
     0
 42
0.00000001
 43
0.00000001
 40
0.0
 40
0.0
 40
0.0
 40
0.0
 40
1.0
 40
1.0
 40
1.0
 40
1.0
 10
42.7312418619791643
 20
-27.2920464409722214
 30
0.0
 10
47.27911241319444
 20
-27.2920464409722214
 30
0.0
 10
51.6585177951388843
 20
-25.5701877170138872
 30
0.0
 10
54.9892361111111043
 20
-22.4730468749999979
 30
0.0
  0
SPLINE
  5
42
100
AcDbEntity
  8
DR-07_080910
390
0
 62
     7
100
AcDbSpline
210
0.0
220
0.0
230
1.0
 70
     8
 71
     3
 72
     8
 73
     4
 74
     0
 42
0.00000001
 43
0.00000001
 40
0.0
 40
0.0
 40
0.0
 40
0.0
 40
1.0
 40
1.0
 40
1.0
 40
1.0
 10
54.9892361111111043
 20
-22.4730468749999979
 30
0.0
 10
55.1111924913194429
 20
-22.35935872395833
 30
0.0
 10
55.1811279296874915
 20
-22.2001953124999964
 30
0.0
 10
55.1811279296874915
 20
-22.0334526909722186
 30
0.0
  0
SPLINE
  5
41
100
AcDbEntity
  8
DR-07_080910
390
0
 62
     7
100
AcDbSpline
210
0.0
220
0.0
230
1.0
 70
     8
 71
     3
 72
    11
 73
     7
 74
     0
 42
0.00000001
 43
0.00000001
 40
0.0
 40
0.0
 40
0.0
 40
0.0
 40
1.0
 40
1.0
 40
1.0
 40
2.0
 40
2.0
 40
2.0
 40
2.0
 10
13.1797295464409707
 20
-27.2941134982638864
 30
0.0
 10
13.6517076280381939
 20
-27.9238769531249957
 30
0.0
 10
14.3924031575520814
 20
-28.2938802083333307
 30
0.0
 10
15.1792629665798593
 20
-28.2938802083333307
 30
0.0
 10
15.9661227756076372
 20
-28.2938802083333307
 30
0.0
 10
16.7075073242187493
 20
-27.9238769531249957
 30
0.0
 10
17.1794854058159707
 20
-27.2941134982638864
 30
0.0
  0
SPLINE
  5
40
100
AcDbEntity
  8
DR-07_080910
390
0
 62
     7
100
AcDbSpline
210
0.0
220
0.0
230
1.0
 70
     8
 71
     3
 72
    11
 73
     7
 74
     0
 42
0.00000001
 43
0.00000001
 40
0.0
 40
0.0
 40
0.0
 40
0.0
 40
1.0
 40
1.0
 40
1.0
 40
2.0
 40
2.0
 40
2.0
 40
2.0
 10
38.1778591579861057
 20
-27.2941134982638864
 30
0.0
 10
38.6498372395833272
 20
-27.9238769531249957
 30
0.0
 10
39.39053276909722
 20
-28.2938802083333307
 30
0.0
 10
40.1780815972222172
 20
-28.2938802083333307
 30
0.0
 10
40.9645968967013872
 20
-28.2938802083333307
 30
0.0
 10
41.7056369357638843
 20
-27.9238769531249957
 30
0.0
 10
42.1776150173611057
 20
-27.2941134982638864
 30
0.0
  0
SPLINE
  5
3F
100
AcDbEntity
  8
DR-07_080910
390
0
 62
     7
100
AcDbSpline
210
0.0
220
0.0
230
1.0
 70
     8
 71
     3
 72
    11
 73
     7
 74
     0
 42
0.00000001
 43
0.00000001
 40
0.0
 40
0.0
 40
0.0
 40
0.0
 40
1.0
 40
1.0
 40
1.0
 40
2.0
 40
2.0
 40
2.0
 40
2.0
 10
38.1778591579861057
 20
-27.2941134982638864
 30
0.0
 10
38.6498372395833272
 20
-27.9238769531249957
 30
0.0
 10
39.39053276909722
 20
-28.2938802083333307
 30
0.0
 10
40.1780815972222172
 20
-28.2938802083333307
 30
0.0
 10
40.9645968967013872
 20
-28.2938802083333307
 30
0.0
 10
41.7056369357638843
 20
-27.9238769531249957
 30
0.0
 10
42.1776150173611057
 20
-27.2941134982638864
 30
0.0
  0
LINE
  5
3E
100
AcDbEntity
  8
DR-07_080910
390
0
 62
     7
100
AcDbLine
 10
37.22908
 20
-27.64448
 30
0.0
 11
30.128738
 21
-27.64448
 31
0.0
  0
LINE
  5
3D
100
AcDbEntity
  8
DR-07_080910
390
0
 62
     7
100
AcDbLine
 10
37.22908
 20
-27.294113
 30
0.0
 11
37.22908
 21
-27.64448
 31
0.0
  0
LINE
  5
3C
100
AcDbEntity
  8
DR-07_080910
390
0
 62
     7
100
AcDbLine
 10
30.128738
 20
-27.294113
 30
0.0
 11
30.128738
 21
-27.64448
 31
0.0
  0
LINE
  5
3B
100
AcDbEntity
  8
DR-07_080910
390
0
 62
     7
100
AcDbLine
 10
17.780999
 20
-0.963938
 30
0.0
 11
17.780999
 21
-26.692255
 31
0.0
  0
SPLINE
  5
3A
100
AcDbEntity
  8
DR-07_080910
390
0
 62
     7
100
AcDbSpline
210
0.0
220
0.0
230
1.0
 70
     8
 71
     3
 72
    11
 73
     7
 74
     0
 42
0.00000001
 43
0.00000001
 40
0.0
 40
0.0
 40
0.0
 40
0.0
 40
1.0
 40
1.0
 40
1.0
 40
2.0
 40
2.0
 40
2.0
 40
2.0
 10
17.7809990776909714
 20
-26.6922553168402743
 30
0.0
 10
17.7809990776909714
 20
-26.8514187282986079
 30
0.0
 10
17.8443888346354136
 20
-27.0040364583333314
 30
0.0
 10
17.9566989474826357
 20
-27.1163465711805536
 30
0.0
 10
18.0693535698784693
 20
-27.2290011935763872
 30
0.0
 10
18.2219712999131929
 20
-27.2920464409722214
 30
0.0
 10
18.380790201822915
 20
-27.2920464409722214
 30
0.0
  0
LINE
  5
39
100
AcDbEntity
  8
DR-07_080910
390
0
 62
     7
100
AcDbLine
 10
37.579791
 20
-0.963938
 30
0.0
 11
37.579791
 21
-26.692255
 31
0.0
  0
SPLINE
  5
38
100
AcDbEntity
  8
DR-07_080910
390
0
 62
     7
100
AcDbSpline
210
0.0
220
0.0
230
1.0
 70
     8
 71
     3
 72
    11
 73
     7
 74
     0
 42
0.00000001
 43
0.00000001
 40
0.0
 40
0.0
 40
0.0
 40
0.0
 40
1.0
 40
1.0
 40
1.0
 40
2.0
 40
2.0
 40
2.0
 40
2.0
 10
36.9796549479166643
 20
-27.2920464409722214
 30
0.0
 10
37.1384738498263829
 20
-27.2920464409722214
 30
0.0
 10
37.2914360894097214
 20
-27.2290011935763872
 30
0.0
 10
37.4044352213541629
 20
-27.1163465711805536
 30
0.0
 10
37.5164008246527771
 20
-27.0040364583333314
 30
0.0
 10
37.5797905815972157
 20
-26.8514187282986079
 30
0.0
 10
37.5797905815972157
 20
-26.6922553168402743
 30
0.0
  0
LINE
  5
37
100
AcDbEntity
  8
DR-07_080910
390
0
 62
     7
100
AcDbLine
 10
42.731242
 20
-27.292046
 30
0.0
 11
12.629892
 21
-27.292046
 31
0.0
  0
LINE
  5
36
100
AcDbEntity
  8
DR-07_080910
390
0
 62
     7
100
AcDbLine
 10
16.781232
 20
-18.291734
 30
0.0
 11
0.781175
 21
-18.291734
 31
0.0
  0
SPLINE
  5
35
100
AcDbEntity
  8
DR-07_080910
390
0
 62
     7
100
AcDbSpline
210
0.0
220
0.0
230
1.0
 70
     8
 71
     3
 72
     8
 73
     4
 74
     0
 42
0.00000001
 43
0.00000001
 40
0.0
 40
0.0
 40
0.0
 40
0.0
 40
1.0
 40
1.0
 40
1.0
 40
1.0
 10
0.7811754014756944
 20
-18.2917344835069429
 30
0.0
 10
0.4494127061631944
 20
-18.2917344835069429
 30
0.0
 10
0.1810397677951389
 20
-18.5604519314236107
 30
0.0
 10
0.1810397677951389
 20
-18.8922146267361093
 30
0.0
  0
LINE
  5
34
100
AcDbEntity
  8
DR-07_080910
390
0
 62
     7
100
AcDbLine
 10
54.580648
 20
-18.291734
 30
0.0
 11
38.579213
 21
-18.291734
 31
0.0
  0
SPLINE
  5
33
100
AcDbEntity
  8
DR-07_080910
390
0
 62
     7
100
AcDbSpline
210
0.0
220
0.0
230
1.0
 70
     8
 71
     3
 72
     8
 73
     4
 74
     0
 42
0.00000001
 43
0.00000001
 40
0.0
 40
0.0
 40
0.0
 40
0.0
 40
1.0
 40
1.0
 40
1.0
 40
1.0
 10
55.1811279296874915
 20
-18.8922146267361093
 30
0.0
 10
55.1811279296874915
 20
-18.5604519314236107
 30
0.0
 10
54.9124104817708272
 20
-18.2920789930555543
 30
0.0
 10
54.5806477864583286
 20
-18.2920789930555543
 30
0.0
  0
LINE
  5
32
100
AcDbEntity
  8
DR-07_080910
390
0
 62
     7
100
AcDbLine
 10
0.18104
 20
-22.034142
 30
0.0
 11
0.18104
 21
-2.791561
 31
0.0
  0
LINE
  5
31
100
AcDbEntity
  8
DR-07_080910
390
0
 62
     7
100
AcDbLine
 10
55.181128
 20
-3.093007
 30
0.0
 11
55.181128
 21
-22.033453
 31
0.0
  0
HATCH
  5
2F
100
AcDbEntity
  8
FIX-SILK_081020
390
0
 62
     7
100
AcDbHatch
 10
0.0
 20
0.0
 30
0.0
210
0.0
220
0.0
230
1.0
  2
SOLID
 70
     1
 71
     0
 91
        5
 92
       16
 93
        1
 72
     4
 94
        3
 73
     0
 74
     0
 95
       35
 96
       31
 40
0.0
 40
0.0
 40
0.0
 40
0.0
 40
1.0
 40
1.0
 40
1.0
 40
2.0
 40
2.0
 40
2.0
 40
3.0
 40
3.0
 40
3.0
 40
4.0
 40
4.0
 40
4.0
 40
5.0
 40
5.0
 40
5.0
 40
6.0
 40
6.0
 40
6.0
 40
7.0
 40
7.0
 40
7.0
 40
8.0
 40
8.0
 40
8.0
 40
9.0
 40
9.0
 40
9.0
 40
10.0
 40
10.0
 40
10.0
 40
10.0
 10
30.10186631944444
 20
-17.8156222873263879
 10
30.10186631944444
 20
-17.8156222873263879
 10
30.10186631944444
 20
-19.6143066406249993
 10
30.10186631944444
 20
-19.6143066406249993
 10
30.10186631944444
 20
-19.6143066406249993
 10
30.4467203776041622
 20
-19.6143066406249993
 10
30.4467203776041622
 20
-19.6143066406249993
 10
30.4467203776041622
 20
-19.6143066406249993
 10
30.4467203776041622
 20
-18.3926757812499986
 10
30.4467203776041622
 20
-18.3926757812499986
 10
30.4467203776041622
 20
-18.3926757812499986
 10
31.1608886718749964
 20
-19.6108615451388886
 10
31.1608886718749964
 20
-19.6108615451388886
 10
31.1608886718749964
 20
-19.6108615451388886
 10
31.5202121310763843
 20
-19.6108615451388886
 10
31.5202121310763843
 20
-19.6108615451388886
 10
31.5202121310763843
 20
-19.6108615451388886
 10
31.5202121310763843
 20
-17.8159667968749993
 10
31.5202121310763843
 20
-17.8159667968749993
 10
31.5202121310763843
 20
-17.8159667968749993
 10
31.1750135633680543
 20
-17.8159667968749993
 10
31.1750135633680543
 20
-17.8159667968749993
 10
31.1750135633680543
 20
-17.8159667968749993
 10
31.1750135633680543
 20
-19.0251953124999993
 10
31.1750135633680543
 20
-19.0251953124999993
 10
31.1750135633680543
 20
-19.0251953124999993
 10
30.46739095052083
 20
-17.8156222873263879
 10
30.46739095052083
 20
-17.8156222873263879
 10
30.46739095052083
 20
-17.8156222873263879
 10
30.10186631944444
 20
-17.8156222873263879
 10
30.10186631944444
 20
-17.8156222873263879
 97
        0
 92
       16
 93
        1
 72
     4
 94
        3
 73
     0
 74
     0
 95
       17
 96
       13
 40
0.0
 40
0.0
 40
0.0
 40
0.0
 40
1.0
 40
1.0
 40
1.0
 40
2.0
 40
2.0
 40
2.0
 40
3.0
 40
3.0
 40
3.0
 40
4.0
 40
4.0
 40
4.0
 40
4.0
 10
29.4049235026041629
 20
-17.8180338541666643
 10
29.4049235026041629
 20
-17.8180338541666643
 10
29.4049235026041629
 20
-19.6143066406249993
 10
29.4049235026041629
 20
-19.6143066406249993
 10
29.4049235026041629
 20
-19.6143066406249993
 10
29.7597683376736093
 20
-19.6143066406249993
 10
29.7597683376736093
 20
-19.6143066406249993
 10
29.7597683376736093
 20
-19.6143066406249993
 10
29.7597683376736093
 20
-17.8180338541666643
 10
29.7597683376736093
 20
-17.8180338541666643
 10
29.7597683376736093
 20
-17.8180338541666643
 10
29.4049235026041629
 20
-17.8180338541666643
 10
29.4049235026041629
 20
-17.8180338541666643
 97
        0
 92
       16
 93
        1
 72
     4
 94
        3
 73
     0
 74
     0
 95
       56
 96
       52
 40
0.0
 40
0.0
 40
0.0
 40
0.0
 40
1.0
 40
1.0
 40
1.0
 40
2.0
 40
2.0
 40
2.0
 40
3.0
 40
3.0
 40
3.0
 40
4.0
 40
4.0
 40
4.0
 40
5.0
 40
5.0
 40
5.0
 40
6.0
 40
6.0
 40
6.0
 40
7.0
 40
7.0
 40
7.0
 40
8.0
 40
8.0
 40
8.0
 40
9.0
 40
9.0
 40
9.0
 40
10.0
 40
10.0
 40
10.0
 40
11.0
 40
11.0
 40
11.0
 40
12.0
 40
12.0
 40
12.0
 40
13.0
 40
13.0
 40
13.0
 40
14.0
 40
14.0
 40
14.0
 40
15.0
 40
15.0
 40
15.0
 40
16.0
 40
16.0
 40
16.0
 40
17.0
 40
17.0
 40
17.0
 40
17.0
 10
28.1956949869791629
 20
-18.3764838324652757
 10
28.1757134331597214
 20
-18.12051323784722
 10
28.01792805989583
 20
-17.8986490885416636
 10
27.7902072482638864
 20
-17.8076985677083321
 10
27.5704101562499986
 20
-17.7181260850694429
 10
27.3261528862847207
 20
-17.7246717664930529
 10
27.1111789279513857
 20
-17.8263020833333314
 10
26.9141194661458307
 20
-17.9162190755208321
 10
26.7635687934027757
 20
-18.0912299262152771
 10
26.6991455078124993
 20
-18.3072374131944429
 10
26.6236979166666643
 20
-18.5587293836805536
 10
26.6188747829861079
 20
-18.8274468315972214
 10
26.6863986545138872
 20
-19.0813503689236086
 10
26.7625352647569414
 20
-19.3552354600694443
 10
26.9664849175347214
 20
-19.5695203993055529
 10
27.22727864583333
 20
-19.64875759548611
 10
27.3960883246527764
 20
-19.6987114800347207
 10
27.5748887803819436
 20
-19.697333441840275
 10
27.7430094401041636
 20
-19.6446234809027764
 10
28.0013916015624957
 20
-19.5657307942708307
 10
28.1867377387152764
 20
-19.3269856770833321
 10
28.208441840277775
 20
-19.0444878472222214
 10
28.208441840277775
 20
-19.0444878472222214
 10
27.8529079861111093
 20
-19.0444878472222214
 10
27.8529079861111093
 20
-19.0444878472222214
 10
27.8436062282986079
 20
-19.1182128906249993
 10
27.8146674262152764
 20
-19.1878038194444436
 10
27.7695366753472186
 20
-19.2449924045138872
 10
27.6861653645833314
 20
-19.3352539062499993
 10
27.5697211371527757
 20
-19.38279622395833
 10
27.4505208333333321
 20
-19.3759060329861086
 10
27.331320529513885
 20
-19.36970486111111
 10
27.2203884548611086
 20
-19.3090711805555522
 10
27.1463189019097193
 20
-19.210196940104165
 10
27.0825846354166657
 20
-19.126136610243055
 10
27.0374538845486079
 20
-19.0279513888888872
 10
27.0150607638888864
 20
-18.9232204861111093
 10
26.9937011718749993
 20
-18.8122884114583329
 10
26.9871554904513857
 20
-18.6982557508680536
 10
26.9961127387152757
 20
-18.58560112847222
 10
27.0067925347222193
 20
-18.4626112196180543
 10
27.0474446614583321
 20
-18.3447889539930529
 10
27.1149685329861079
 20
-18.2441921657986086
 10
27.2059190538194429
 20
-18.1091444227430536
 10
27.3588812934027743
 20
-18.03645290798611
 10
27.5149441189236086
 20
-18.0536783854166636
 10
27.6844428168402743
 20
-18.0671142578124986
 10
27.8229356553819436
 20
-18.2000949435763886
 10
27.8508409288194407
 20
-18.3764838324652757
 10
27.8508409288194407
 20
-18.3764838324652757
 10
28.1956949869791629
 20
-18.3764838324652757
 10
28.1956949869791629
 20
-18.3764838324652757
 97
        0
 92
       16
 93
        1
 72
     4
 94
        3
 73
     0
 74
     0
 95
       17
 96
       13
 40
0.0
 40
0.0
 40
0.0
 40
0.0
 40
1.0
 40
1.0
 40
1.0
 40
2.0
 40
2.0
 40
2.0
 40
3.0
 40
3.0
 40
3.0
 40
4.0
 40
4.0
 40
4.0
 40
4.0
 10
25.9932454427083321
 20
-17.8180338541666643
 10
25.9932454427083321
 20
-17.8180338541666643
 10
25.9932454427083321
 20
-19.6143066406249993
 10
25.9932454427083321
 20
-19.6143066406249993
 10
25.9932454427083321
 20
-19.6143066406249993
 10
26.3484347873263864
 20
-19.6143066406249993
 10
26.3484347873263864
 20
-19.6143066406249993
 10
26.3484347873263864
 20
-19.6143066406249993
 10
26.3484347873263864
 20
-17.8180338541666643
 10
26.3484347873263864
 20
-17.8180338541666643
 10
26.3484347873263864
 20
-17.8180338541666643
 10
25.9932454427083321
 20
-17.8180338541666643
 10
25.9932454427083321
 20
-17.8180338541666643
 97
        0
 92
       16
 93
        1
 72
     4
 94
        3
 73
     0
 74
     0
 95
       44
 96
       40
 40
0.0
 40
0.0
 40
0.0
 40
0.0
 40
1.0
 40
1.0
 40
1.0
 40
2.0
 40
2.0
 40
2.0
 40
3.0
 40
3.0
 40
3.0
 40
4.0
 40
4.0
 40
4.0
 40
5.0
 40
5.0
 40
5.0
 40
6.0
 40
6.0
 40
6.0
 40
7.0
 40
7.0
 40
7.0
 40
8.0
 40
8.0
 40
8.0
 40
9.0
 40
9.0
 40
9.0
 40
10.0
 40
10.0
 40
10.0
 40
11.0
 40
11.0
 40
11.0
 40
12.0
 40
12.0
 40
12.0
 40
13.0
 40
13.0
 40
13.0
 40
13.0
 10
23.94306911892361
 20
-17.8128662109375
 10
23.94306911892361
 20
-17.8128662109375
 10
23.94306911892361
 20
-19.6143066406249993
 10
23.94306911892361
 20
-19.6143066406249993
 10
23.94306911892361
 20
-19.6143066406249993
 10
24.261740451388885
 20
-19.6143066406249993
 10
24.261740451388885
 20
-19.6143066406249993
 10
24.261740451388885
 20
-19.6143066406249993
 10
24.261740451388885
 20
-18.3258409288194422
 10
24.261740451388885
 20
-18.3258409288194422
 10
24.261740451388885
 20
-18.3258409288194422
 10
24.6200303819444422
 20
-19.6129286024305536
 10
24.6200303819444422
 20
-19.6129286024305536
 10
24.6200303819444422
 20
-19.6129286024305536
 10
24.9624728732638879
 20
-19.6129286024305536
 10
24.9624728732638879
 20
-19.6129286024305536
 10
24.9624728732638879
 20
-19.6129286024305536
 10
25.3290310329861086
 20
-18.3237738715277771
 10
25.3290310329861086
 20
-18.3237738715277771
 10
25.3290310329861086
 20
-18.3237738715277771
 10
25.3290310329861086
 20
-19.6115505642361079
 10
25.3290310329861086
 20
-19.6115505642361079
 10
25.3290310329861086
 20
-19.6115505642361079
 10
25.6514919704861093
 20
-19.6115505642361079
 10
25.6514919704861093
 20
-19.6115505642361079
 10
25.6514919704861093
 20
-19.6115505642361079
 10
25.6514919704861093
 20
-17.8142442491319422
 10
25.6514919704861093
 20
-17.8142442491319422
 10
25.6514919704861093
 20
-17.8142442491319422
 10
25.1509195963541643
 20
-17.8142442491319422
 10
25.1509195963541643
 20
-17.8142442491319422
 10
25.1509195963541643
 20
-17.8142442491319422
 10
24.7981418185763864
 20
-19.1023654513888879
 10
24.7981418185763864
 20
-19.1023654513888879
 10
24.7981418185763864
 20
-19.1023654513888879
 10
24.4408854166666636
 20
-17.8128662109375
 10
24.4408854166666636
 20
-17.8128662109375
 10
24.4408854166666636
 20
-17.8128662109375
 10
23.94306911892361
 20
-17.8128662109375
 10
23.94306911892361
 20
-17.8128662109375
 97
        0
 75
     2
 76
     1
 98
        1
 10
0.0
 20
0.0
  0
LINE
  5
2D
100
AcDbEntity
  8
COMMENT
390
0
 62
     7
100
AcDbLine
 10
27.864794
 20
-11.786361
 30
0.0
 11
27.864794
 21
10.698055
 31
0.0
  0
LINE
  5
2C
100
AcDbEntity
  8
COMMENT
390
0
 62
     7
100
AcDbLine
 10
27.755929
 20
-12.169455
 30
0.0
 11
27.755929
 21
14.964806
 31
0.0
  0
HATCH
  5
2B
100
AcDbEntity
  8
COMMENT
390
0
 62
     7
100
AcDbHatch
 10
0.0
 20
0.0
 30
0.0
210
0.0
220
0.0
230
1.0
  2
SOLID
 70
     1
 71
     0
 91
        4
 92
        1
 93
        1
 72
     4
 94
        3
 73
     0
 74
     0
 95
       59
 96
       55
 40
0.0
 40
0.0
 40
0.0
 40
0.0
 40
1.0
 40
1.0
 40
1.0
 40
2.0
 40
2.0
 40
2.0
 40
3.0
 40
3.0
 40
3.0
 40
4.0
 40
4.0
 40
4.0
 40
5.0
 40
5.0
 40
5.0
 40
6.0
 40
6.0
 40
6.0
 40
7.0
 40
7.0
 40
7.0
 40
8.0
 40
8.0
 40
8.0
 40
9.0
 40
9.0
 40
9.0
 40
10.0
 40
10.0
 40
10.0
 40
11.0
 40
11.0
 40
11.0
 40
12.0
 40
12.0
 40
12.0
 40
13.0
 40
13.0
 40
13.0
 40
14.0
 40
14.0
 40
14.0
 40
15.0
 40
15.0
 40
15.0
 40
16.0
 40
16.0
 40
16.0
 40
17.0
 40
17.0
 40
17.0
 40
18.0
 40
18.0
 40
18.0
 40
18.0
 10
28.8044433593749964
 20
16.1581868489583336
 10
28.2142985026041657
 20
16.1581868489583336
 10
27.8777126736111072
 20
16.4820258246527764
 10
27.8777126736111072
 20
17.2378797743055543
 10
27.8777126736111072
 20
17.2378797743055543
 10
28.3727728949652764
 20
17.2378797743055543
 10
28.3727728949652764
 20
17.2378797743055543
 10
28.3727728949652764
 20
16.92024197048611
 10
28.4613118489583314
 20
16.5647081163194443
 10
28.81753472222222
 20
16.5647081163194443
 10
29.1417182074652743
 20
16.5647081163194443
 10
29.2684977213541657
 20
16.8568522135416643
 10
29.2684977213541657
 20
17.21238606770833
 10
29.2684977213541657
 20
17.6568033854166657
 10
29.1344835069444414
 20
17.8855577256944436
 10
28.7410536024305543
 20
17.8855577256944436
 10
28.7410536024305543
 20
17.8855577256944436
 10
28.5377929687499972
 20
17.8855577256944436
 10
28.5377929687499972
 20
17.8855577256944436
 10
28.5377929687499972
 20
17.8855577256944436
 10
28.5377929687499972
 20
18.2982801649305529
 10
28.5377929687499972
 20
18.2982801649305529
 10
28.5377929687499972
 20
18.2982801649305529
 10
28.7279622395833307
 20
18.2982801649305529
 10
28.7279622395833307
 20
18.2982801649305529
 10
29.0772949218749979
 20
18.2982801649305529
 10
29.1978732638888872
 20
18.5587293836805536
 10
29.1978732638888872
 20
18.9142632378472193
 10
29.1978732638888872
 20
19.17471245659722
 10
29.0903862847222179
 20
19.4348171657986093
 10
28.82408040364583
 20
19.4348171657986093
 10
28.4998969184027757
 20
19.4348171657986093
 10
28.4041232638888879
 20
19.1299262152777771
 10
28.4041232638888879
 20
18.7998860677083321
 10
28.4041232638888879
 20
18.7998860677083321
 10
27.9097520616319414
 20
18.7998860677083321
 10
27.9097520616319414
 20
18.7998860677083321
 10
27.9097520616319414
 20
19.4730577256944422
 10
28.2263563368055515
 20
19.84133843315972
 10
28.8495741102430543
 20
19.84133843315972
 10
29.2364583333333314
 20
19.84133843315972
 10
29.718771701388885
 20
19.6446234809027764
 10
29.718771701388885
 20
18.9204644097222214
 10
29.718771701388885
 20
18.54563802083333
 10
29.5227457682291643
 20
18.1839029947916657
 10
29.20510796440972
 20
18.1267144097222221
 10
29.20510796440972
 20
18.1267144097222221
 10
29.20510796440972
 20
18.1143120659722214
 10
29.20510796440972
 20
18.1143120659722214
 10
29.5348036024305536
 20
18.0822726779513872
 10
29.7952528211805543
 20
17.777381727430555
 10
29.7952528211805543
 20
17.2757758246527757
 10
29.7952528211805543
 20
16.5585069444444422
 10
29.4714138454861079
 20
16.1581868489583336
 10
28.8044433593749964
 20
16.1581868489583336
 97
        0
 92
        1
 93
        1
 72
     4
 94
        3
 73
     0
 74
     0
 95
       35
 96
       31
 40
0.0
 40
0.0
 40
0.0
 40
0.0
 40
1.0
 40
1.0
 40
1.0
 40
2.0
 40
2.0
 40
2.0
 40
3.0
 40
3.0
 40
3.0
 40
4.0
 40
4.0
 40
4.0
 40
5.0
 40
5.0
 40
5.0
 40
6.0
 40
6.0
 40
6.0
 40
7.0
 40
7.0
 40
7.0
 40
8.0
 40
8.0
 40
8.0
 40
9.0
 40
9.0
 40
9.0
 40
10.0
 40
10.0
 40
10.0
 40
10.0
 10
25.6869764539930543
 20
16.2281222873263857
 10
25.6869764539930543
 20
17.8028754340277757
 10
27.0515787760416657
 20
17.7649793836805543
 10
27.0515787760416657
 20
18.8887695312499986
 10
27.0515787760416657
 20
19.1809136284722221
 10
26.9378906249999979
 20
19.4348171657986093
 10
26.6454020182291629
 20
19.4348171657986093
 10
26.2519721137152757
 20
19.4348171657986093
 10
26.18858235677083
 20
19.0475884331597207
 10
26.18858235677083
 20
18.6793077256944429
 10
26.18858235677083
 20
18.6793077256944429
 10
25.6931776258680529
 20
18.6793077256944429
 10
25.6931776258680529
 20
18.6793077256944429
 10
25.6931776258680529
 20
19.3965766059027764
 10
25.9598280164930522
 20
19.84133843315972
 10
26.651603190104165
 20
19.84133843315972
 10
27.3189181857638879
 20
19.84133843315972
 10
27.5724772135416636
 20
19.4031222873263864
 10
27.5724772135416636
 20
18.8760226779513864
 10
27.5724772135416636
 20
17.6760959201388879
 10
26.518622504340275
 20
17.5996148003472221
 10
26.270575629340275
 20
16.7169813368055529
 10
26.270575629340275
 20
16.7169813368055529
 10
27.5855685763888872
 20
16.7169813368055529
 10
27.5855685763888872
 20
16.7169813368055529
 10
27.5855685763888872
 20
16.7169813368055529
 10
27.5855685763888872
 20
16.2281222873263857
 10
27.5855685763888872
 20
16.2281222873263857
 10
27.5855685763888872
 20
16.2281222873263857
 10
25.6869764539930543
 20
16.2281222873263857
 10
25.6869764539930543
 20
16.2281222873263857
 97
        0
 92
       16
 93
        1
 72
     4
 94
        3
 73
     0
 74
     0
 95
       17
 96
       13
 40
0.0
 40
0.0
 40
0.0
 40
0.0
 40
1.0
 40
1.0
 40
1.0
 40
2.0
 40
2.0
 40
2.0
 40
3.0
 40
3.0
 40
3.0
 40
4.0
 40
4.0
 40
4.0
 40
4.0
 10
27.6675618489583321
 20
20.6602376302083321
 10
26.1568874782986072
 20
20.6602376302083321
 10
24.9311225043402764
 20
19.4348171657986093
 10
24.9311225043402764
 20
17.923453776041665
 10
24.9311225043402764
 20
16.4186360677083307
 10
26.1568874782986072
 20
15.1928710937499982
 10
27.6675618489583321
 20
15.1928710937499982
 10
29.1730685763888857
 20
15.1928710937499982
 10
30.3984890407986086
 20
16.4186360677083307
 10
30.3984890407986086
 20
17.923453776041665
 10
30.3984890407986086
 20
19.4348171657986093
 10
29.1730685763888857
 20
20.6602376302083321
 10
27.6675618489583321
 20
20.6602376302083321
 97
        0
 92
        1
 93
        1
 72
     4
 94
        3
 73
     0
 74
     0
 95
       17
 96
       13
 40
0.0
 40
0.0
 40
0.0
 40
0.0
 40
1.0
 40
1.0
 40
1.0
 40
2.0
 40
2.0
 40
2.0
 40
3.0
 40
3.0
 40
3.0
 40
4.0
 40
4.0
 40
4.0
 40
4.0
 10
27.6675618489583321
 20
15.0151041666666654
 10
26.0549126519097207
 20
15.0151041666666654
 10
24.7533555772569436
 20
16.3170057508680557
 10
24.7533555772569436
 20
17.923453776041665
 10
24.7533555772569436
 20
19.5364474826388879
 10
26.0549126519097207
 20
20.838004557291665
 10
27.6675618489583321
 20
20.838004557291665
 10
29.2743543836805529
 20
20.838004557291665
 10
30.5762559678819414
 20
19.5364474826388879
 10
30.5762559678819414
 20
17.923453776041665
 10
30.5762559678819414
 20
16.3170057508680557
 10
29.2743543836805529
 20
15.0151041666666654
 10
27.6675618489583321
 20
15.0151041666666654
 97
        0
 75
     2
 76
     1
 98
        1
 10
0.0
 20
0.0
  0
ELLIPSE
  5
2A
100
AcDbEntity
  8
COMMENT
390
0
 62
     7
100
AcDbEllipse
 10
27.751794
 20
-12.213553
 30
0.0
 11
0.0
 21
-0.5732638888888888
 31
0.0
210
0.0
220
0.0
230
1.0
 40
0.922776
 41
0.0
 42
6.2831853071795862
  0
HATCH
  5
29
100
AcDbEntity
  8
COMMENT
390
0
 62
     7
100
AcDbHatch
 10
0.0
 20
0.0
 30
0.0
210
0.0
220
0.0
230
1.0
  2
SOLID
 70
     1
 71
     0
 91
        1
 92
        1
 93
        1
 72
     4
 94
        3
 73
     0
 74
     0
 95
       17
 96
       13
 40
0.0
 40
0.0
 40
0.0
 40
0.0
 40
1.0
 40
1.0
 40
1.0
 40
2.0
 40
2.0
 40
2.0
 40
3.0
 40
3.0
 40
3.0
 40
4.0
 40
4.0
 40
4.0
 40
4.0
 10
28.2807888454861072
 20
-12.2135525173611104
 10
28.2807888454861072
 20
-12.5301567925347204
 10
28.0437662760416657
 20
-12.7868164062499989
 10
27.7517944335937479
 20
-12.7868164062499989
 10
27.45982259114583
 20
-12.7868164062499989
 10
27.222800021701385
 20
-12.5301567925347204
 10
27.222800021701385
 20
-12.2135525173611104
 10
27.222800021701385
 20
-11.8969482421874986
 10
27.45982259114583
 20
-11.6402886284722218
 10
27.7517944335937479
 20
-11.6402886284722218
 10
28.0437662760416657
 20
-11.6402886284722218
 10
28.2807888454861072
 20
-11.8969482421874986
 10
28.2807888454861072
 20
-12.2135525173611104
 97
        0
 75
     2
 76
     1
 98
        1
 10
0.0
 20
0.0
  0
ENDSEC
  0
SECTION
  2
OBJECTS
  0
DICTIONARY
  5
19
100
AcDbDictionary
280
     0
281
     1
  3
ACAD_GROUP
350
1A
  3
ACAD_MLINESTYLE
350
1B
  3
ACAD_LAYOUT
350
1E
  3
ACAD_PLOTSETTINGS
350
22
  3
ACAD_PLOTSTYLENAME
350
1F
  3
ACAD_WIPEOUT_VARS
350
23
  0
DICTIONARY
  5
1A
102
{ACAD_REACTORS
330
19
102
}
100
AcDbDictionary
280
     0
281
     1
  0
DICTIONARY
  5
1B
102
{ACAD_REACTORS
330
19
102
}
100
AcDbDictionary
280
     0
281
     1
  3
Standard
350
1C
  0
MLINESTYLE
  5
1C
102
{ACAD_REACTORS
330
1B
102
}
100
AcDbMlineStyle
  2
Standard
 70
     0
  3

 62
     0
 51
90.0
 52
90.0
 71
     2
 49
0.5
 62
   256
  6
ByLayer
 49
-0.5
 62
   256
  6
ByLayer
  0
ACDBDICTIONARYWDFLT
  5
1F
102
{ACAD_REACTORS
330
19
102
}
100
AcDbDictionary
281
     1
  3
Normal
350
1D
100
AcDbDictionaryWithDefault
340
1D
  0
ACDBPLACEHOLDER
  5
1D
102
{ACAD_REACTORS
330
1F
102
}
  0
LAYOUT
  5
20
102
{ACAD_REACTORS
330
1E
102
}
100
AcDbPlotSettings
  1

  2

  4

  6

 40
0.0
 41
0.0
 42
0.0
 43
0.0
 44
0.0
 45
0.0
 46
0.0
 47
0.0
 48
0.0
 49
0.0
140
0.0
141
0.0
142
1.0
143
1.0
 70
  1024
 72
     0
 73
     0
 74
     0
  7

 75
     0
147
1.0
148
0.0
149
0.0
100
AcDbLayout
  1
Model
 70
     0
 71
     0
 10
0.0
 20
0.0
 11
0.0
 21
0.0
 12
0.0
 22
0.0
 32
0.0
 14
0.0
 24
0.0
 34
0.0
 15
0.0
 25
0.0
 35
0.0
146
0.0
 13
0.0
 23
0.0
 33
0.0
 16
0.0
 26
0.0
 36
0.0
 17
0.0
 27
0.0
 37
0.0
 76
     0
330
A
331
0
345
0
346
0
  0
LAYOUT
  5
21
102
{ACAD_REACTORS
330
1E
102
}
100
AcDbPlotSettings
  1

  2

  4

  6

 40
0.0
 41
0.0
 42
0.0
 43
0.0
 44
0.0
 45
0.0
 46
0.0
 47
0.0
 48
0.0
 49
0.0
140
0.0
141
0.0
142
1.0
143
1.0
 70
     0
 72
     0
 73
     0
 74
     0
  7

 75
     0
147
1.0
148
0.0
149
0.0
100
AcDbLayout
  1
Layout1
 70
     0
 71
     0
 10
0.0
 20
0.0
 11
0.0
 21
0.0
 12
0.0
 22
0.0
 32
0.0
 14
0.0
 24
0.0
 34
0.0
 15
0.0
 25
0.0
 35
0.0
146
0.0
 13
0.0
 23
0.0
 33
0.0
 16
0.0
 26
0.0
 36
0.0
 17
0.0
 27
0.0
 37
0.0
 76
     0
330
B
331
0
345
0
346
0
  0
DICTIONARY
  5
1E
102
{ACAD_REACTORS
330
19
102
}
100
AcDbDictionary
280
     0
281
     1
  3
Layout1
350
21
  3
Model
350
20
  0
DICTIONARY
  5
22
102
{ACAD_REACTORS
330
19
102
}
100
AcDbDictionary
280
     0
281
     1
  0
WIPEOUTVARIABLES
  5
23
100
AcDbWipeoutVariables
 70
     1
  0
ENDSEC
  0
EOF
