  0
SECTION
  2
HEADER
  9
$ACADVER
  1
AC1015
  9
$ACADMAINTVER
 70
     6
  9
$DWGCODEPAGE
  3
ANSI_932
  9
$INSBASE
 10
0.0
 20
0.0
 30
0.0
  9
$EXTMIN
 10
-0.046853
 20
-20.969607
 30
1.000000E+20
  9
$EXTMAX
 10
137.805887
 20
27.357331
 30
-1.000000E+20
  9
$LIMMIN
 10
-0.046853
 20
-20.969607
  9
$LIMMAX
 10
137.805887
 20
27.357331
  9
$ORTHOMODE
 70
     0
  9
$REGENMODE
 70
     1
  9
$FILLMODE
 70
     1
  9
$QTEXTMODE
 70
     0
  9
$MIRRTEXT
 70
     1
  9
$LTSCALE
 40
1.0
  9
$ATTMODE
 70
     1
  9
$TEXTSIZE
 40
0.2
  9
$TRACEWID
 40
0.05
  9
$TEXTSTYLE
  7
Standard
  9
$CLAYER
  8
0
  9
$CELTYPE
  6
Continuous
  9
$CECOLOR
 62
   256
  9
$CELTSCALE
 40
1.0
  9
$DISPSILH
 70
     0
  9
$DIMSCALE
 40
1.0
  9
$DIMASZ
 40
0.18
  9
$DIMEXO
 40
0.0625
  9
$DIMDLI
 40
0.38
  9
$DIMRND
 40
0.0
  9
$DIMDLE
 40
0.0
  9
$DIMEXE
 40
0.18
  9
$DIMTP
 40
0.0
  9
$DIMTM
 40
0.0
  9
$DIMTXT
 40
0.18
  9
$DIMCEN
 40
0.09
  9
$DIMTSZ
 40
0.0
  9
$DIMTOL
 70
     0
  9
$DIMLIM
 70
     0
  9
$DIMTIH
 70
     1
  9
$DIMTOH
 70
     1
  9
$DIMSE1
 70
     0
  9
$DIMSE2
 70
     0
  9
$DIMTAD
 70
     0
  9
$DIMZIN
 70
     0
  9
$DIMBLK
  1

  9
$DIMASO
 70
     1
  9
$DIMSHO
 70
     1
  9
$DIMPOST
  1

  9
$DIMAPOST
  1

  9
$DIMALT
 70
     0
  9
$DIMALTD
 70
     2
  9
$DIMALTF
 40
25.4
  9
$DIMLFAC
 40
1.0
  9
$DIMTOFL
 70
     0
  9
$DIMTVP
 40
0.0
  9
$DIMTIX
 70
     0
  9
$DIMSOXD
 70
     0
  9
$DIMSAH
 70
     0
  9
$DIMBLK1
  1

  9
$DIMBLK2
  1

  9
$DIMSTYLE
  2
Standard
  9
$DIMCLRD
 70
     0
  9
$DIMCLRE
 70
     0
  9
$DIMCLRT
 70
     0
  9
$DIMTFAC
 40
1.0
  9
$DIMGAP
 40
0.09
  9
$DIMJUST
 70
     0
  9
$DIMSD1
 70
     0
  9
$DIMSD2
 70
     0
  9
$DIMTOLJ
 70
     1
  9
$DIMTZIN
 70
     0
  9
$DIMALTZ
 70
     0
  9
$DIMALTTZ
 70
     0
  9
$DIMUPT
 70
     0
  9
$DIMDEC
 70
     4
  9
$DIMTDEC
 70
     4
  9
$DIMALTU
 70
     2
  9
$DIMALTTD
 70
     2
  9
$DIMTXSTY
  7
Standard
  9
$DIMAUNIT
 70
     0
  9
$DIMADEC
 70
     0
  9
$DIMALTRND
 40
0.0
  9
$DIMAZIN
 70
     0
  9
$DIMDSEP
 70
     0
  9
$DIMATFIT
 70
     3
  9
$DIMFRAC
 70
     0
  9
$DIMLDRBLK
  1

  9
$DIMLUNIT
 70
     2
  9
$DIMLWD
 70
     0
  9
$DIMLWE
 70
     0
  9
$DIMTMOVE
 70
     0
  9
$LUNITS
 70
     2
  9
$LUPREC
 70
     4
  9
$SKETCHINC
 40
0.1
  9
$FILLETRAD
 40
0.0
  9
$AUNITS
 70
     0
  9
$AUPREC
 70
     0
  9
$MENU
  1
acad
  9
$ELEVATION
 40
0.0
  9
$PELEVATION
 40
0.0
  9
$THICKNESS
 40
0.0
  9
$LIMCHECK
 70
     0
  9
$CHAMFERA
 40
0.0
  9
$CHAMFERB
 40
0.0
  9
$CHAMFERC
 40
0.0
  9
$CHAMFERD
 40
0.0
  9
$SKPOLY
 70
     0
  9
$TDCREATE
 40
0.000000000
  9
$TDUCREATE
 40
0.000000000
  9
$TDUPDATE
 40
0.000000000
  9
$TDUUPDATE
 40
0.000000000
  9
$TDINDWG
 40
0.0000000000
  9
$TDUSRTIMER
 40
0.0000000000
  9
$USRTIMER
 70
     1
  9
$ANGBASE
 50
0.0
  9
$ANGDIR
 70
     0
  9
$PDMODE
 70
     0
  9
$PDSIZE
 40
0.0
  9
$PLINEWID
 40
0.0
  9
$SPLFRAME
 70
     0
  9
$SPLINETYPE
 70
     6
  9
$SPLINESEGS
 70
     8
  9
$HANDSEED
  5
116
  9
$SURFTAB1
 70
     6
  9
$SURFTAB2
 70
     6
  9
$SURFTYPE
 70
     6
  9
$SURFU
 70
     6
  9
$SURFV
 70
     6
  9
$UCSBASE
  2

  9
$UCSNAME
  2

  9
$UCSORG
 10
0.0
 20
0.0
 30
0.0
  9
$UCSXDIR
 10
1.0
 20
0.0
 30
0.0
  9
$UCSYDIR
 10
0.0
 20
1.0
 30
0.0
  9
$UCSORTHOREF
  2

  9
$UCSORTHOVIEW
 70
     0
  9
$UCSORGTOP
 10
0.0
 20
0.0
 30
0.0
  9
$UCSORGBOTTOM
 10
0.0
 20
0.0
 30
0.0
  9
$UCSORGLEFT
 10
0.0
 20
0.0
 30
0.0
  9
$UCSORGRIGHT
 10
0.0
 20
0.0
 30
0.0
  9
$UCSORGFRONT
 10
0.0
 20
0.0
 30
0.0
  9
$UCSORGBACK
 10
0.0
 20
0.0
 30
0.0
  9
$PUCSBASE
  2

  9
$PUCSNAME
  2

  9
$PUCSORG
 10
0.0
 20
0.0
 30
0.0
  9
$PUCSXDIR
 10
1.0
 20
0.0
 30
0.0
  9
$PUCSYDIR
 10
0.0
 20
1.0
 30
0.0
  9
$PUCSORTHOREF
  2

  9
$PUCSORTHOVIEW
 70
     0
  9
$PUCSORGTOP
 10
0.0
 20
0.0
 30
0.0
  9
$PUCSORGBOTTOM
 10
0.0
 20
0.0
 30
0.0
  9
$PUCSORGLEFT
 10
0.0
 20
0.0
 30
0.0
  9
$PUCSORGRIGHT
 10
0.0
 20
0.0
 30
0.0
  9
$PUCSORGFRONT
 10
0.0
 20
0.0
 30
0.0
  9
$PUCSORGBACK
 10
0.0
 20
0.0
 30
0.0
  9
$USERI1
 70
     0
  9
$USERI2
 70
     0
  9
$USERI3
 70
     0
  9
$USERI4
 70
     0
  9
$USERI5
 70
     0
  9
$USERR1
 40
0.0
  9
$USERR2
 40
0.0
  9
$USERR3
 40
0.0
  9
$USERR4
 40
0.0
  9
$USERR5
 40
0.0
  9
$WORLDVIEW
 70
     1
  9
$SHADEDGE
 70
     3
  9
$SHADEDIF
 70
    70
  9
$TILEMODE
 70
     1
  9
$MAXACTVP
 70
    16
  9
$PINSBASE
 10
0.0
 20
0.0
 30
0.0
  9
$PLIMCHECK
 70
     0
  9
$PEXTMIN
 10
1.000000E+20
 20
1.000000E+20
 30
1.000000E+20
  9
$PEXTMAX
 10
-1.000000E+20
 20
-1.000000E+20
 30
-1.000000E+20
  9
$PLIMMIN
 10
0.0
 20
0.0
  9
$PLIMMAX
 10
12.0
 20
9.0
  9
$UNITMODE
 70
     0
  9
$VISRETAIN
 70
     0
  9
$PLINEGEN
 70
     1
  9
$PSLTSCALE
 70
     0
  9
$TREEDEPTH
 70
  3020
  9
$CMLSTYLE
  2
Standard
  9
$CMLJUST
 70
     0
  9
$CMLSCALE
 40
1.0
  9
$PROXYGRAPHICS
 70
     0
  9
$MEASUREMENT
 70
     1
  9
$CELWEIGHT
370
     0
  9
$ENDCAPS
280
     0
  9
$JOINSTYLE
280
     0
  9
$LWDISPLAY
290
     0
  9
$INSUNITS
 70
     0
  9
$HYPERLINKBASE
  1

  9
$STYLESHEET
  1

  9
$XEDIT
290
     1
  9
$CEPSNTYPE
380
     0
  9
$PSTYLEMODE
290
     1
  9
$FINGERPRINTGUID
  2

  9
$VERSIONGUID
  2

  9
$EXTNAMES
290
     1
  9
$PSVPSCALE
 40
0.0
  0
ENDSEC
  0
SECTION
  2
CLASSES
  0
CLASS
  1
LWPOLYLINE
  2
AcDbPolyline
  3
AutoCAD 2000
 90
        0
280
     0
281
     1
  0
CLASS
  1
IMAGE
  2
AcDbRasterImage
  3
ISM
 90
      127
280
     0
281
     1
  0
CLASS
  1
OLE2FRAME
  2
AcDbOle2Frame
  3
AutoCAD 2000
 90
        0
280
     0
281
     1
  0
CLASS
  1
HATCH
  2
AcDbHatch
  3
AutoCAD 2000
 90
        0
280
     0
281
     1
  0
CLASS
  1
DICTIONARYVAR
  2
AcDbDictionaryVar
  3
AutoCAD 2000
 90
        0
280
     0
281
     0
  0
CLASS
  1
RASTERVARIABLES
  2
AcDbRasterVariables
  3
ISM
 90
        0
280
     0
281
     0
  0
CLASS
  1
IMAGEDEF
  2
AcDbRasterImageDef
  3
ISM
 90
        0
280
     0
281
     0
  0
CLASS
  1
IMAGEDEF_REACTOR
  2
AcDbRasterImageDefReactor
  3
ISM
 90
        1
280
     0
281
     0
  0
CLASS
  1
IDBUFFER
  2
AcDbIdBuffer
  3
AutoCAD 2000
 90
        0
280
     0
281
     0
  0
CLASS
  1
SPATIAL_FILTER
  2
AcDbSpatialFilter
  3
AutoCAD 2000
 90
        0
280
     0
281
     0
  0
CLASS
  1
XRECORD
  2
AcDbXrecord
  3
AutoCAD 2000
 90
        0
280
     0
281
     0
  0
CLASS
  1
SORTENTSTABLE
  2
AcDbSortentsTable
  3
AutoCAD 2000
 90
        0
280
     0
281
     0
  0
CLASS
  1
LAYER_INDEX
  2
AcDbLayerIndex
  3
AutoCAD 2000
 90
        0
280
     0
281
     0
  0
CLASS
  1
SPATIAL_INDEX
  2
AcDbSpatialIndex
  3
AutoCAD 2000
 90
        0
280
     0
281
     0
  0
CLASS
  1
OBJECT_PTR
  2
CAseDLPNTableRecord
  3
"ASE-LPNTableRecord"
 90
        1
280
     0
281
     0
  0
CLASS
  1
LAYOUT
  2
AcDbLayout
  3
AutoCAD 2000
 90
        0
280
     0
281
     0
  0
CLASS
  1
PLOTSETTINGS
  2
AcDbPlotSettings
  3
AutoCAD 2000
 90
        0
280
     0
281
     0
  0
CLASS
  1
ACDBDICTIONARYWDFLT
  2
AcDbDictionaryWithDefault
  3
AutoCAD 2000
 90
        0
280
     0
281
     0
  0
CLASS
  1
ACDBPLACEHOLDER
  2
AcDbPlaceHolder
  3
AutoCAD 2000
 90
        0
280
     0
281
     0
  0
CLASS
  1
VBA_PROJECT
  2
AcDbVbaProject
  3
acadvba
 90
        0
280
     0
281
     0
  0
CLASS
  1
WIPEOUT
  2
AcDbWipeout
  3
WipeOut|AutoCAD Express Tool|expresstools@autodesk.com
 90
      127
280
     0
281
     1
  0
CLASS
  1
WIPEOUTVARIABLES
  2
AcDbWipeoutVariables
  3
WipeOut|AutoCAD Express Tool|expresstools@autodesk.com
 90
        0
280
     0
281
     0
  0
CLASS
  1
RTEXT
  2
RText
  3
RText|AutoCAD Express Tool|expresstools@autodesk.com
 90
        0
280
     0
281
     1
  0
CLASS
  1
ARCALIGNEDTEXT
  2
AcDbArcAlignedText
  3
ATEXT|AutoCAD Express Tool|expresstools@autodesk.com
 90
        0
280
     0
281
     1
  0
ENDSEC
  0
SECTION
  2
TABLES
  0
TABLE
  2
VPORT
  5
7
100
AcDbSymbolTable
 70
     1
  0
VPORT
  5
15
100
AcDbSymbolTableRecord
100
AcDbViewportTableRecord
  2
*ACTIVE
 70
     0
 10
0.0
 20
0.0
 11
1.0
 21
1.0
 12
6.591288
 22
4.579184
 13
0.0
 23
0.0
 14
1.0
 24
1.0
 15
0.0
 25
0.0
 16
0.0
 26
0.0
 36
1.0
 17
0.0
 27
0.0
 37
0.0
 40
9.158369
 41
0.688564
 42
50.0
 43
0.0
 44
0.0
 50
0.0
 51
0.0
 71
     0
 72
   100
 73
     1
 74
     1
 75
     0
 76
     0
 77
     0
 78
     0
281
     0
 65
     0
110
0.0
120
0.0
130
0.0
111
1.0
121
0.0
131
0.0
112
0.0
122
1.0
132
0.0
345
0
346
0
 79
     0
146
0.0
  0
ENDTAB
  0
TABLE
  2
LTYPE
  5
4
100
AcDbSymbolTable
 70
     3
  0
LTYPE
  5
11
100
AcDbSymbolTableRecord
100
AcDbLinetypeTableRecord
  2
ByBlock
 70
    64
  3

 72
    65
 73
     0
 40
0.0
  0
LTYPE
  5
12
100
AcDbSymbolTableRecord
100
AcDbLinetypeTableRecord
  2
ByLayer
 70
    64
  3

 72
    65
 73
     0
 40
0.0
  0
LTYPE
  5
13
100
AcDbSymbolTableRecord
100
AcDbLinetypeTableRecord
  2
Continuous
 70
    64
  3
Solid line
 72
    65
 73
     0
 40
0.0
  0
ENDTAB
  0
TABLE
  2
LAYER
  5
2
100
AcDbSymbolTable
 70
     5
  0
LAYER
  5
14
100
AcDbSymbolTableRecord
100
AcDbLayerTableRecord
  2
0
 70
     0
 62
     7
  6
Continuous
290
     1
370
    -3
390
1D
  0
LAYER
  5
28
100
AcDbSymbolTableRecord
100
AcDbLayerTableRecord
  2
COMMENT
 70
     4
 62
    -3
  6
Continuous
290
     1
370
    -3
390
1D
  0
LAYER
  5
3D
100
AcDbSymbolTableRecord
100
AcDbLayerTableRecord
  2
FIX-SILK_091020
 70
     4
 62
     1
  6
Continuous
290
     1
370
    -3
390
1D
  0
LAYER
  5
52
100
AcDbSymbolTableRecord
100
AcDbLayerTableRecord
  2
KNOB
 70
     4
 62
     5
  6
Continuous
290
     1
370
    -3
390
1D
  0
LAYER
  5
65
100
AcDbSymbolTableRecord
100
AcDbLayerTableRecord
  2
DR-07_080910
 70
     4
 62
   160
  6
Continuous
290
     1
370
    -3
390
1D
  0
ENDTAB
  0
TABLE
  2
STYLE
  5
3
100
AcDbSymbolTable
 70
     5
  0
STYLE
  5
17
100
AcDbSymbolTableRecord
100
AcDbTextStyleTableRecord
  2
Standard
 70
     0
 40
0.0
 41
1.0
 50
0.0
 71
     0
 42
0.0
  3
txt
  4

  0
STYLE
  5
24
100
AcDbSymbolTableRecord
100
AcDbTextStyleTableRecord
  2
STD
 70
     0
 40
0.0
 41
1.0
 50
0.0
 71
     0
 42
0.0
  3
txt
  4

  0
STYLE
  5
25
100
AcDbSymbolTableRecord
100
AcDbTextStyleTableRecord
  2
TATESTD
 70
     4
 40
0.0
 41
1.0
 50
0.0
 71
     0
 42
0.0
  3
txt
  4

  0
STYLE
  5
26
100
AcDbSymbolTableRecord
100
AcDbTextStyleTableRecord
  2
KANJISTD
 70
     0
 40
0.0
 41
1.0
 50
0.0
 71
     0
 42
0.0
  3
txt
  4
extfont
  0
STYLE
  5
27
100
AcDbSymbolTableRecord
100
AcDbTextStyleTableRecord
  2
KANJITATE
 70
     4
 40
0.0
 41
1.0
 50
0.0
 71
     0
 42
0.0
  3
txt
  4
extfont
  0
ENDTAB
  0
TABLE
  2
VIEW
  5
5
100
AcDbSymbolTable
 70
     0
  0
ENDTAB
  0
TABLE
  2
UCS
  5
6
100
AcDbSymbolTable
 70
     0
  0
ENDTAB
  0
TABLE
  2
APPID
  5
8
100
AcDbSymbolTable
 70
     1
  0
APPID
  5
16
100
AcDbSymbolTableRecord
100
AcDbRegAppTableRecord
  2
ACAD
 70
     0
  0
ENDTAB
  0
TABLE
  2
DIMSTYLE
  5
9
100
AcDbSymbolTable
 70
     1
100
AcDbDimStyleTable
 71
     0
  0
DIMSTYLE
105
18
100
AcDbSymbolTableRecord
100
AcDbDimStyleTableRecord
  2
Standard
 70
     0
  3

  4

 40
1.0
 41
0.18
 42
0.0625
 43
0.38
 44
0.18
 45
0.0
 46
0.0
 47
0.0
 48
0.0
 71
     0
 72
     0
 73
     1
 74
     1
 75
     0
 76
     0
 77
     0
 78
     0
 79
     0
140
0.18
141
0.09
142
0.0
143
25.4
144
1.0
145
0.0
146
1.0
147
0.09
148
0.0
170
     0
171
     2
172
     0
173
     0
174
     0
175
     0
176
     0
177
     0
178
     0
179
     0
271
     4
272
     4
273
     2
274
     2
275
     0
276
     0
277
     2
278
    46
279
     0
280
     0
281
     0
282
     0
283
     1
284
     0
285
     0
286
     0
288
     0
289
     3
340
17
341
0
342
0
343
0
344
0
371
    -2
372
    -2
  0
ENDTAB
  0
TABLE
  2
BLOCK_RECORD
  5
1
100
AcDbSymbolTable
 70
     4
  0
BLOCK_RECORD
  5
A
100
AcDbSymbolTableRecord
100
AcDbBlockTableRecord
  2
*MODEL_SPACE
340
20
  0
BLOCK_RECORD
  5
B
100
AcDbSymbolTableRecord
100
AcDbBlockTableRecord
  2
*PAPER_SPACE
340
21
  0
BLOCK_RECORD
  5
3F
100
AcDbSymbolTableRecord
100
AcDbBlockTableRecord
  2
AI9-BLK1
340
0
102
{BLKREFS
331
40
102
}
  0
BLOCK_RECORD
  5
46
100
AcDbSymbolTableRecord
100
AcDbBlockTableRecord
  2
AI9-BLK2
340
0
102
{BLKREFS
331
47
102
}
  0
BLOCK_RECORD
  5
4B
100
AcDbSymbolTableRecord
100
AcDbBlockTableRecord
  2
AI9-BLK3
340
0
102
{BLKREFS
331
4C
102
}
  0
BLOCK_RECORD
  5
53
100
AcDbSymbolTableRecord
100
AcDbBlockTableRecord
  2
AI9-BLK4
340
0
102
{BLKREFS
331
54
102
}
  0
ENDTAB
  0
ENDSEC
  0
SECTION
  2
BLOCKS
  0
BLOCK
  5
D
100
AcDbEntity
  8
0
390
0
100
AcDbBlockBegin
  2
*MODEL_SPACE
 70
     0
 10
0.0
 20
0.0
 30
0.0
  3
*MODEL_SPACE
  1

  0
ENDBLK
  5
E
100
AcDbEntity
  8
0
390
0
100
AcDbBlockEnd
  0
BLOCK
  5
F
100
AcDbEntity
 67
     1
  8
0
390
0
100
AcDbBlockBegin
  2
*PAPER_SPACE
 70
     0
 10
0.0
 20
0.0
 30
0.0
  3
*PAPER_SPACE
  1

  0
ENDBLK
  5
10
100
AcDbEntity
 67
     1
  8
0
390
0
100
AcDbBlockEnd
  0
BLOCK
  5
41
100
AcDbEntity
  8
FIX-SILK_091020
390
0
 62
     7
100
AcDbBlockBegin
  2
AI9-BLK1
 70
     0
 10
0.0
 20
0.0
 30
0.0
  3
AI9-BLK1
  1

  0
HATCH
  5
42
100
AcDbEntity
  8
FIX-SILK_091020
390
0
 62
     7
100
AcDbHatch
 10
0.0
 20
0.0
 30
0.0
210
0.0
220
0.0
230
1.0
  2
SOLID
 70
     1
 71
     0
 91
        1
 92
        3
 72
     0
 73
     1
 93
        4
 10
0.241845703125
 20
0.907265896267361
 10
-0.5401909722222221
 20
-0.907265896267361
 10
-0.2366780598958333
 20
-0.907265896267361
 10
0.5401909722222221
 20
0.907265896267361
 97
        0
 75
     2
 76
     1
 98
        1
 10
0.0
 20
0.0
  0
ENDBLK
  5
43
100
AcDbEntity
  8
FIX-SILK_091020
390
0
100
AcDbBlockEnd
  0
BLOCK
  5
48
100
AcDbEntity
  8
FIX-SILK_091020
390
0
 62
     7
100
AcDbBlockBegin
  2
AI9-BLK2
 70
     0
 10
0.0
 20
0.0
 30
0.0
  3
AI9-BLK2
  1

  0
HATCH
  5
49
100
AcDbEntity
  8
FIX-SILK_091020
390
0
 62
     7
100
AcDbHatch
 10
0.0
 20
0.0
 30
0.0
210
0.0
220
0.0
230
1.0
  2
SOLID
 70
     1
 71
     0
 91
        1
 92
        3
 72
     0
 73
     1
 93
        4
 10
0.9952880859375
 20
-0.1619194878472222
 10
0.9952880859375
 20
0.1619194878472222
 10
-0.9952880859375
 20
0.1619194878472222
 10
-0.9952880859375
 20
-0.1619194878472222
 97
        0
 75
     2
 76
     1
 98
        1
 10
0.0
 20
0.0
  0
ENDBLK
  5
4A
100
AcDbEntity
  8
FIX-SILK_091020
390
0
100
AcDbBlockEnd
  0
BLOCK
  5
4D
100
AcDbEntity
  8
FIX-SILK_091020
390
0
 62
     7
100
AcDbBlockBegin
  2
AI9-BLK3
 70
     0
 10
0.0
 20
0.0
 30
0.0
  3
AI9-BLK3
  1

  0
HATCH
  5
4E
100
AcDbEntity
  8
FIX-SILK_091020
390
0
 62
     7
100
AcDbHatch
 10
0.0
 20
0.0
 30
0.0
210
0.0
220
0.0
230
1.0
  2
SOLID
 70
     1
 71
     0
 91
        1
 92
        3
 72
     0
 73
     1
 93
       12
 10
0.16123046875
 20
-0.9877088758680554
 10
0.16123046875
 20
-0.1767333984375
 10
0.9914984809027777
 20
-0.1767333984375
 10
0.9914984809027777
 20
0.1808675130208333
 10
0.1639865451388889
 20
0.1808675130208333
 10
0.1639865451388889
 20
0.9877088758680554
 10
-0.1619194878472222
 20
0.9877088758680554
 10
-0.1619194878472222
 20
0.1801784939236111
 10
-0.9914984809027777
 20
0.1801784939236111
 10
-0.9914984809027777
 20
-0.1774224175347222
 10
-0.1639865451388889
 20
-0.1774224175347222
 10
-0.1639865451388889
 20
-0.9877088758680554
 97
        0
 75
     2
 76
     1
 98
        1
 10
0.0
 20
0.0
  0
ENDBLK
  5
4F
100
AcDbEntity
  8
FIX-SILK_091020
390
0
100
AcDbBlockEnd
  0
BLOCK
  5
55
100
AcDbEntity
  8
KNOB
390
0
 62
     7
100
AcDbBlockBegin
  2
AI9-BLK4
 70
     0
 10
0.0
 20
0.0
 30
0.0
  3
AI9-BLK4
  1

  0
LINE
  5
63
100
AcDbEntity
  8
KNOB
390
0
 62
    18
100
AcDbLine
 10
-4.92218
 20
1.06686
 30
0.0
 11
4.92218
 21
1.06686
 31
0.0
  0
LINE
  5
62
100
AcDbEntity
  8
KNOB
390
0
 62
    18
100
AcDbLine
 10
-4.331174
 20
0.927161
 30
0.0
 11
-4.331174
 21
-1.014667
 31
0.0
  0
LINE
  5
61
100
AcDbEntity
  8
KNOB
390
0
 62
    18
100
AcDbLine
 10
-3.445957
 20
0.927161
 30
0.0
 11
-3.445957
 21
-1.014667
 31
0.0
  0
LINE
  5
60
100
AcDbEntity
  8
KNOB
390
0
 62
    18
100
AcDbLine
 10
-2.608626
 20
0.927161
 30
0.0
 11
-2.608626
 21
-1.014667
 31
0.0
  0
LINE
  5
5F
100
AcDbEntity
  8
KNOB
390
0
 62
    18
100
AcDbLine
 10
-1.772329
 20
0.927161
 30
0.0
 11
-1.772329
 21
-1.014667
 31
0.0
  0
LINE
  5
5E
100
AcDbEntity
  8
KNOB
390
0
 62
    18
100
AcDbLine
 10
-0.935516
 20
0.99658
 30
0.0
 11
-0.935516
 21
-0.945593
 31
0.0
  0
LINE
  5
5D
100
AcDbEntity
  8
KNOB
390
0
 62
    18
100
AcDbLine
 10
-0.09853
 20
0.927161
 30
0.0
 11
-0.09853
 21
-1.016217
 31
0.0
  0
LINE
  5
5C
100
AcDbEntity
  8
KNOB
390
0
 62
    18
100
AcDbLine
 10
0.738284
 20
0.99658
 30
0.0
 11
0.738284
 21
-0.945593
 31
0.0
  0
LINE
  5
5B
100
AcDbEntity
  8
KNOB
390
0
 62
    18
100
AcDbLine
 10
1.574581
 20
0.99658
 30
0.0
 11
1.574581
 21
-0.945593
 31
0.0
  0
LINE
  5
5A
100
AcDbEntity
  8
KNOB
390
0
 62
    18
100
AcDbLine
 10
2.461004
 20
0.99658
 30
0.0
 11
2.461004
 21
-0.945593
 31
0.0
  0
LINE
  5
59
100
AcDbEntity
  8
KNOB
390
0
 62
    18
100
AcDbLine
 10
3.248725
 20
0.927161
 30
0.0
 11
3.248725
 21
-1.014667
 31
0.0
  0
LINE
  5
58
100
AcDbEntity
  8
KNOB
390
0
 62
    18
100
AcDbLine
 10
4.085366
 20
0.927161
 30
0.0
 11
4.085366
 21
-1.014667
 31
0.0
  0
LINE
  5
57
100
AcDbEntity
  8
KNOB
390
0
 62
    18
100
AcDbLine
 10
4.872743
 20
0.927161
 30
0.0
 11
4.872743
 21
-1.014667
 31
0.0
  0
LINE
  5
56
100
AcDbEntity
  8
KNOB
390
0
 62
    18
100
AcDbLine
 10
-4.92218
 20
-1.06686
 30
0.0
 11
4.92218
 21
-1.06686
 31
0.0
  0
ENDBLK
  5
64
100
AcDbEntity
  8
KNOB
390
0
100
AcDbBlockEnd
  0
ENDSEC
  0
SECTION
  2
ENTITIES
  0
SPLINE
  5
115
100
AcDbEntity
  8
DR-07_080910
390
0
 62
     7
100
AcDbSpline
210
0.0
220
0.0
230
1.0
 70
     8
 71
     3
 72
    11
 73
     7
 74
     0
 42
0.00000001
 43
0.00000001
 40
0.0
 40
0.0
 40
0.0
 40
0.0
 40
1.0
 40
1.0
 40
1.0
 40
2.0
 40
2.0
 40
2.0
 40
2.0
 10
120.4519070095486057
 20
0.0716579861111111
 30
0.0
 10
120.8325900607638772
 20
-0.5374348958333333
 30
0.0
 10
121.4999050564236001
 20
-0.9067491319444444
 30
0.0
 10
122.2175184461805486
 20
-0.9067491319444444
 30
0.0
 10
122.9358208550347058
 20
-0.9067491319444444
 30
0.0
 10
123.6031358506944287
 20
-0.5374348958333333
 30
0.0
 10
123.9838189019097143
 20
0.0716579861111111
 30
0.0
  0
SPLINE
  5
114
100
AcDbEntity
  8
DR-07_080910
390
0
 62
     7
100
AcDbSpline
210
0.0
220
0.0
230
1.0
 70
     8
 71
     3
 72
    11
 73
     7
 74
     0
 42
0.00000001
 43
0.00000001
 40
0.0
 40
0.0
 40
0.0
 40
0.0
 40
1.0
 40
1.0
 40
1.0
 40
2.0
 40
2.0
 40
2.0
 40
2.0
 10
137.2181532118055429
 20
18.5930080837673586
 30
0.0
 10
137.2181532118055429
 20
20.8474785698784686
 30
0.0
 10
136.3224283854166572
 20
23.0092759874131936
 30
0.0
 10
134.7283827039930486
 20
24.6033216688368022
 30
0.0
 10
133.1339925130208144
 20
26.1977118598090257
 30
0.0
 10
130.9721950954860858
 20
27.0927476671006922
 30
0.0
 10
128.7177246093749829
 20
27.0927476671006922
 30
0.0
  0
SPLINE
  5
113
100
AcDbEntity
  8
DR-07_080910
390
0
 62
     7
100
AcDbSpline
210
0.0
220
0.0
230
1.0
 70
     8
 71
     3
 72
    11
 73
     7
 74
     0
 42
0.00000001
 43
0.00000001
 40
0.0
 40
0.0
 40
0.0
 40
0.0
 40
1.0
 40
1.0
 40
1.0
 40
2.0
 40
2.0
 40
2.0
 40
2.0
 10
103.7177001953124886
 20
8.0932183159722211
 30
0.0
 10
104.5131727430555486
 20
8.0932183159722211
 30
0.0
 10
105.2762613932291629
 20
8.4094780815972214
 30
0.0
 10
105.8388454861110972
 20
8.971717664930555
 30
0.0
 10
106.4017740885416572
 20
9.5339572482638886
 30
0.0
 10
106.7180338541666629
 20
10.2973904079861107
 30
0.0
 10
106.7180338541666629
 20
11.0932074652777768
 30
0.0
  0
LINE
  5
112
100
AcDbEntity
  8
DR-07_080910
390
0
 62
     7
100
AcDbLine
 10
106.718034
 20
11.093207
 30
0.0
 11
106.718034
 21
17.093014
 31
0.0
  0
SPLINE
  5
111
100
AcDbEntity
  8
DR-07_080910
390
0
 62
     7
100
AcDbSpline
210
0.0
220
0.0
230
1.0
 70
     8
 71
     3
 72
    11
 73
     7
 74
     0
 42
0.00000001
 43
0.00000001
 40
0.0
 40
0.0
 40
0.0
 40
0.0
 40
1.0
 40
1.0
 40
1.0
 40
2.0
 40
2.0
 40
2.0
 40
2.0
 10
106.7180338541666629
 20
17.0930135091145807
 30
0.0
 10
106.7180338541666629
 20
17.8884860568576372
 30
0.0
 10
106.4017740885416572
 20
18.6515747070312479
 30
0.0
 10
105.8388454861110972
 20
19.2145033094618043
 30
0.0
 10
105.2762613932291629
 20
19.7770874023437493
 30
0.0
 10
104.5131727430555486
 20
20.0930026584201364
 30
0.0
 10
103.7177001953124886
 20
20.0930026584201364
 30
0.0
  0
SPLINE
  5
110
100
AcDbEntity
  8
DR-07_080910
390
0
 62
     7
100
AcDbSpline
210
0.0
220
0.0
230
1.0
 70
     8
 71
     3
 72
    11
 73
     7
 74
     0
 42
0.00000001
 43
0.00000001
 40
0.0
 40
0.0
 40
0.0
 40
0.0
 40
1.0
 40
1.0
 40
1.0
 40
2.0
 40
2.0
 40
2.0
 40
2.0
 10
103.7177001953124886
 20
8.3929416232638889
 30
0.0
 10
104.4339355468749915
 20
8.3929416232638889
 30
0.0
 10
105.1208875868055515
 20
8.6775065104166664
 30
0.0
 10
105.62731662326388
 20
9.1839355468749986
 30
0.0
 10
106.1330566406249858
 20
9.6903645833333325
 30
0.0
 10
106.41796603732638
 20
10.3773166232638872
 30
0.0
 10
106.41796603732638
 20
11.0932074652777768
 30
0.0
  0
LINE
  5
10F
100
AcDbEntity
  8
DR-07_080910
390
0
 62
     7
100
AcDbLine
 10
106.417622
 20
11.093207
 30
0.0
 11
106.417622
 21
17.093014
 31
0.0
  0
SPLINE
  5
10E
100
AcDbEntity
  8
DR-07_080910
390
0
 62
     7
100
AcDbSpline
210
0.0
220
0.0
230
1.0
 70
     8
 71
     3
 72
    11
 73
     7
 74
     0
 42
0.00000001
 43
0.00000001
 40
0.0
 40
0.0
 40
0.0
 40
0.0
 40
1.0
 40
1.0
 40
1.0
 40
2.0
 40
2.0
 40
2.0
 40
2.0
 10
106.4176215277777686
 20
17.0930135091145807
 30
0.0
 10
106.4176215277777686
 20
17.8089043511284721
 30
0.0
 10
106.1330566406249858
 20
18.495856391059025
 30
0.0
 10
105.62731662326388
 20
19.0019409179687493
 30
0.0
 10
105.1208875868055515
 20
19.5087144639756929
 30
0.0
 10
104.4339355468749915
 20
19.7929348415798607
 30
0.0
 10
103.7177001953124886
 20
19.7929348415798607
 30
0.0
  0
SPLINE
  5
10D
100
AcDbEntity
  8
DR-07_080910
390
0
 62
     7
100
AcDbSpline
210
0.0
220
0.0
230
1.0
 70
     8
 71
     3
 72
     8
 73
     4
 74
     0
 42
0.00000001
 43
0.00000001
 40
0.0
 40
0.0
 40
0.0
 40
0.0
 40
1.0
 40
1.0
 40
1.0
 40
1.0
 10
15.2176757812499979
 20
19.7929348415798607
 30
0.0
 10
13.72663845486111
 20
19.7929348415798607
 30
0.0
 10
12.5180989583333329
 20
18.5840508355034721
 30
0.0
 10
12.5180989583333329
 20
17.0930135091145807
 30
0.0
  0
SPLINE
  5
10C
100
AcDbEntity
  8
DR-07_080910
390
0
 62
     7
100
AcDbSpline
210
0.0
220
0.0
230
1.0
 70
     8
 71
     3
 72
     8
 73
     4
 74
     0
 42
0.00000001
 43
0.00000001
 40
0.0
 40
0.0
 40
0.0
 40
0.0
 40
1.0
 40
1.0
 40
1.0
 40
1.0
 10
15.2176757812499979
 20
20.0930026584201364
 30
0.0
 10
13.5609293619791647
 20
20.0930026584201364
 30
0.0
 10
12.2176866319444439
 20
18.7497599283854157
 30
0.0
 10
12.2176866319444439
 20
17.0930135091145807
 30
0.0
  0
LINE
  5
10B
100
AcDbEntity
  8
DR-07_080910
390
0
 62
     7
100
AcDbLine
 10
137.218153
 20
18.593008
 30
0.0
 11
137.218153
 21
5.093229
 31
0.0
  0
LINE
  5
10A
100
AcDbEntity
  8
DR-07_080910
390
0
 62
     7
100
AcDbLine
 10
9.964939
 20
0.093018
 30
0.0
 11
132.217942
 21
0.093018
 31
0.0
  0
SPLINE
  5
109
100
AcDbEntity
  8
DR-07_080910
390
0
 62
     7
100
AcDbSpline
210
0.0
220
0.0
230
1.0
 70
     8
 71
     3
 72
    11
 73
     7
 74
     0
 42
0.00000001
 43
0.00000001
 40
0.0
 40
0.0
 40
0.0
 40
0.0
 40
1.0
 40
1.0
 40
1.0
 40
2.0
 40
2.0
 40
2.0
 40
2.0
 10
132.2179416232638687
 20
0.093017578125
 30
0.0
 10
133.5436143663194457
 20
0.093017578125
 30
0.0
 10
134.8155436197916686
 20
0.6201171874999999
 30
0.0
 10
135.7532986111110915
 20
1.5578721788194443
 30
0.0
 10
136.6907090928819457
 20
2.4949381510416666
 30
0.0
 10
137.2181532118055429
 20
3.7668674045138886
 30
0.0
 10
137.2181532118055429
 20
5.0932291666666663
 30
0.0
  0
LINE
  5
108
100
AcDbEntity
  8
DR-07_080910
390
0
 62
     7
100
AcDbLine
 10
12.518099
 20
15.092791
 30
0.0
 11
0.21773
 21
15.092791
 31
0.0
  0
LINE
  5
107
100
AcDbEntity
  8
DR-07_080910
390
0
 62
     7
100
AcDbLine
 10
12.518099
 20
14.793068
 30
0.0
 11
0.21773
 21
14.793068
 31
0.0
  0
SPLINE
  5
106
100
AcDbEntity
  8
DR-07_080910
390
0
 62
     7
100
AcDbSpline
210
0.0
220
0.0
230
1.0
 70
     8
 71
     3
 72
    17
 73
    13
 74
     0
 42
0.00000001
 43
0.00000001
 40
0.0
 40
0.0
 40
0.0
 40
0.0
 40
1.0
 40
1.0
 40
1.0
 40
2.0
 40
2.0
 40
2.0
 40
3.0
 40
3.0
 40
3.0
 40
4.0
 40
4.0
 40
4.0
 40
4.0
 10
128.7177246093749829
 20
9.5932128906249989
 30
0.0
 10
133.4123562282985915
 20
9.5932128906249989
 30
0.0
 10
137.2181532118055429
 20
13.3984931098090261
 30
0.0
 10
137.2181532118055429
 20
18.092780219184025
 30
0.0
 10
137.2181532118055429
 20
22.7870673285590257
 30
0.0
 10
133.4123562282985915
 20
26.5932088216145814
 30
0.0
 10
128.7177246093749829
 20
26.5932088216145814
 30
0.0
 10
124.0234374999999858
 20
26.5932088216145814
 30
0.0
 10
120.21798502604166
 20
22.7870673285590257
 30
0.0
 10
120.21798502604166
 20
18.092780219184025
 30
0.0
 10
120.21798502604166
 20
13.3984931098090261
 30
0.0
 10
124.0234374999999858
 20
9.5932128906249989
 30
0.0
 10
128.7177246093749829
 20
9.5932128906249989
 30
0.0
  0
SPLINE
  5
105
100
AcDbEntity
  8
DR-07_080910
390
0
 62
     7
100
AcDbSpline
210
0.0
220
0.0
230
1.0
 70
     8
 71
     3
 72
    17
 73
    13
 74
     0
 42
0.00000001
 43
0.00000001
 40
0.0
 40
0.0
 40
0.0
 40
0.0
 40
1.0
 40
1.0
 40
1.0
 40
2.0
 40
2.0
 40
2.0
 40
3.0
 40
3.0
 40
3.0
 40
4.0
 40
4.0
 40
4.0
 40
4.0
 10
128.7177246093749829
 20
11.793250868055555
 30
0.0
 10
132.1972710503472115
 20
11.793250868055555
 30
0.0
 10
135.0181152343749886
 20
14.6132337782118036
 30
0.0
 10
135.0181152343749886
 20
18.092780219184025
 30
0.0
 10
135.0181152343749886
 20
21.5723266601562464
 30
0.0
 10
132.1972710503472115
 20
24.3931708441840271
 30
0.0
 10
128.7177246093749829
 20
24.3931708441840271
 30
0.0
 10
125.2381781684027686
 20
24.3931708441840271
 30
0.0
 10
122.4180230034722143
 20
21.5723266601562464
 30
0.0
 10
122.4180230034722143
 20
18.092780219184025
 30
0.0
 10
122.4180230034722143
 20
14.6132337782118036
 30
0.0
 10
125.2381781684027686
 20
11.793250868055555
 30
0.0
 10
128.7177246093749829
 20
11.793250868055555
 30
0.0
  0
SPLINE
  5
104
100
AcDbEntity
  8
DR-07_080910
390
0
 62
     7
100
AcDbSpline
210
0.0
220
0.0
230
1.0
 70
     8
 71
     3
 72
    17
 73
    13
 74
     0
 42
0.00000001
 43
0.00000001
 40
0.0
 40
0.0
 40
0.0
 40
0.0
 40
1.0
 40
1.0
 40
1.0
 40
2.0
 40
2.0
 40
2.0
 40
3.0
 40
3.0
 40
3.0
 40
4.0
 40
4.0
 40
4.0
 40
4.0
 10
128.7177246093749829
 20
11.4935275607638872
 30
0.0
 10
132.3626356336805543
 20
11.4935275607638872
 30
0.0
 10
135.3174940321180486
 20
14.4478691948784714
 30
0.0
 10
135.3174940321180486
 20
18.092780219184025
 30
0.0
 10
135.3174940321180486
 20
21.7376912434895821
 30
0.0
 10
132.3626356336805543
 20
24.6928941514756914
 30
0.0
 10
128.7177246093749829
 20
24.6928941514756914
 30
0.0
 10
125.07281358506944
 20
24.6928941514756914
 30
0.0
 10
122.1176106770833201
 20
21.7376912434895821
 30
0.0
 10
122.1176106770833201
 20
18.092780219184025
 30
0.0
 10
122.1176106770833201
 20
14.4478691948784714
 30
0.0
 10
125.07281358506944
 20
11.4935275607638872
 30
0.0
 10
128.7177246093749829
 20
11.4935275607638872
 30
0.0
  0
SPLINE
  5
103
100
AcDbEntity
  8
DR-07_080910
390
0
 62
     7
100
AcDbSpline
210
0.0
220
0.0
230
1.0
 70
     8
 71
     3
 72
     8
 73
     4
 74
     0
 42
0.00000001
 43
0.00000001
 40
0.0
 40
0.0
 40
0.0
 40
0.0
 40
1.0
 40
1.0
 40
1.0
 40
1.0
 10
119.7177571614583229
 20
18.092780219184025
 30
0.0
 10
119.7177571614583229
 20
13.47084011501736
 30
0.0
 10
123.2190077039930429
 20
9.6001030815972221
 30
0.0
 10
127.8178656684027601
 20
9.13777126736111
 30
0.0
  0
SPLINE
  5
102
100
AcDbEntity
  8
DR-07_080910
390
0
 62
     7
100
AcDbSpline
210
0.0
220
0.0
230
1.0
 70
     8
 71
     3
 72
     8
 73
     4
 74
     0
 42
0.00000001
 43
0.00000001
 40
0.0
 40
0.0
 40
0.0
 40
0.0
 40
1.0
 40
1.0
 40
1.0
 40
1.0
 10
128.7177246093749829
 20
8.1435167100694432
 30
0.0
 10
128.7177246093749829
 20
8.6561469184027775
 30
0.0
 10
128.3291178385416629
 20
9.086783854166665
 30
0.0
 10
127.8178656684027601
 20
9.13777126736111
 30
0.0
  0
LINE
  5
101
100
AcDbEntity
  8
DR-07_080910
390
0
 62
     7
100
AcDbLine
 10
128.717725
 20
0.093018
 30
0.0
 11
128.717725
 21
8.143517
 31
0.0
  0
LINE
  5
100
100
AcDbEntity
  8
DR-07_080910
390
0
 62
     7
100
AcDbLine
 10
119.717757
 20
18.09278
 30
0.0
 11
119.717757
 21
27.092748
 31
0.0
  0
LINE
  5
FF
100
AcDbEntity
  8
DR-07_080910
390
0
 62
     7
100
AcDbLine
 10
136.551183
 20
14.793068
 30
0.0
 11
137.218153
 21
14.793068
 31
0.0
  0
LINE
  5
FE
100
AcDbEntity
  8
DR-07_080910
390
0
 62
     7
100
AcDbLine
 10
136.670728
 20
15.092791
 30
0.0
 11
137.218153
 21
15.092791
 31
0.0
  0
LINE
  5
FD
100
AcDbEntity
  8
DR-07_080910
390
0
 62
     7
100
AcDbLine
 10
7.751465
 20
27.092748
 30
0.0
 11
128.717725
 21
27.092748
 31
0.0
  0
SPLINE
  5
FC
100
AcDbEntity
  8
DR-07_080910
390
0
 62
     7
100
AcDbSpline
210
0.0
220
0.0
230
1.0
 70
     8
 71
     3
 72
    11
 73
     7
 74
     0
 42
0.00000001
 43
0.00000001
 40
0.0
 40
0.0
 40
0.0
 40
0.0
 40
1.0
 40
1.0
 40
1.0
 40
2.0
 40
2.0
 40
2.0
 40
2.0
 10
13.4510308159722207
 20
0.0702799479166667
 30
0.0
 10
13.8313693576388879
 20
-0.5388129340277777
 30
0.0
 10
14.4983398437499993
 20
-0.9095052083333333
 30
0.0
 10
15.2169867621527768
 20
-0.9095052083333333
 30
0.0
 10
15.9349446614583314
 20
-0.9095052083333333
 30
0.0
 10
16.6026041666666657
 20
-0.5395019531249999
 30
0.0
 10
16.9836317274305557
 20
0.0689019097222222
 30
0.0
  0
SPLINE
  5
FB
100
AcDbEntity
  8
DR-07_080910
390
0
 62
     7
100
AcDbSpline
210
0.0
220
0.0
230
1.0
 70
     8
 71
     3
 72
    17
 73
    13
 74
     0
 42
0.00000001
 43
0.00000001
 40
0.0
 40
0.0
 40
0.0
 40
0.0
 40
1.0
 40
1.0
 40
1.0
 40
2.0
 40
2.0
 40
2.0
 40
3.0
 40
3.0
 40
3.0
 40
4.0
 40
4.0
 40
4.0
 40
4.0
 10
18.2176649305555536
 20
12.5932020399305546
 30
0.0
 10
19.5984592013888879
 20
12.5932020399305546
 30
0.0
 10
20.7174262152777757
 20
13.7119967990451368
 30
0.0
 10
20.7174262152777757
 20
15.0927910698784711
 30
0.0
 10
20.7174262152777757
 20
16.4735853407118036
 30
0.0
 10
19.5984592013888879
 20
17.5932413736979143
 30
0.0
 10
18.2176649305555536
 20
17.5932413736979143
 30
0.0
 10
16.8368706597222193
 20
17.5932413736979143
 30
0.0
 10
15.7179036458333314
 20
16.4735853407118036
 30
0.0
 10
15.7179036458333314
 20
15.0927910698784711
 30
0.0
 10
15.7179036458333314
 20
13.7119967990451368
 30
0.0
 10
16.8368706597222193
 20
12.5932020399305546
 30
0.0
 10
18.2176649305555536
 20
12.5932020399305546
 30
0.0
  0
SPLINE
  5
FA
100
AcDbEntity
  8
DR-07_080910
390
0
 62
     7
100
AcDbSpline
210
0.0
220
0.0
230
1.0
 70
     8
 71
     3
 72
    17
 73
    13
 74
     0
 42
0.00000001
 43
0.00000001
 40
0.0
 40
0.0
 40
0.0
 40
0.0
 40
1.0
 40
1.0
 40
1.0
 40
2.0
 40
2.0
 40
2.0
 40
3.0
 40
3.0
 40
3.0
 40
4.0
 40
4.0
 40
4.0
 40
4.0
 10
18.2176649305555536
 20
13.2930731879340271
 30
0.0
 10
19.2119194878472221
 20
13.2930731879340271
 30
0.0
 10
20.0177273220486107
 20
14.0988810221354157
 30
0.0
 10
20.0177273220486107
 20
15.0927910698784711
 30
0.0
 10
20.0177273220486107
 20
16.0870456271701379
 30
0.0
 10
19.2119194878472221
 20
16.8931979709201379
 30
0.0
 10
18.2176649305555536
 20
16.8931979709201379
 30
0.0
 10
17.2240993923611079
 20
16.8931979709201379
 30
0.0
 10
16.4176025390625
 20
16.0870456271701379
 30
0.0
 10
16.4176025390625
 20
15.0927910698784711
 30
0.0
 10
16.4176025390625
 20
14.0988810221354157
 30
0.0
 10
17.2240993923611079
 20
13.2930731879340271
 30
0.0
 10
18.2176649305555536
 20
13.2930731879340271
 30
0.0
  0
SPLINE
  5
F9
100
AcDbEntity
  8
DR-07_080910
390
0
 62
     7
100
AcDbSpline
210
0.0
220
0.0
230
1.0
 70
     8
 71
     3
 72
    17
 73
    13
 74
     0
 42
0.00000001
 43
0.00000001
 40
0.0
 40
0.0
 40
0.0
 40
0.0
 40
1.0
 40
1.0
 40
1.0
 40
2.0
 40
2.0
 40
2.0
 40
3.0
 40
3.0
 40
3.0
 40
4.0
 40
4.0
 40
4.0
 40
4.0
 10
18.2176649305555536
 20
12.2927897135416657
 30
0.0
 10
19.7641682942708314
 20
12.2927897135416657
 30
0.0
 10
21.0178385416666664
 20
13.5466322157118046
 30
0.0
 10
21.0178385416666664
 20
15.0927910698784711
 30
0.0
 10
21.0178385416666664
 20
16.6396389431423586
 30
0.0
 10
19.7641682942708314
 20
17.8929646809895821
 30
0.0
 10
18.2176649305555536
 20
17.8929646809895821
 30
0.0
 10
16.6715060763888872
 20
17.8929646809895821
 30
0.0
 10
15.4178358289930539
 20
16.6396389431423586
 30
0.0
 10
15.4178358289930539
 20
15.0927910698784711
 30
0.0
 10
15.4178358289930539
 20
13.5466322157118046
 30
0.0
 10
16.6715060763888872
 20
12.2927897135416657
 30
0.0
 10
18.2176649305555536
 20
12.2927897135416657
 30
0.0
  0
LINE
  5
F8
100
AcDbEntity
  8
DR-07_080910
390
0
 62
     7
100
AcDbLine
 10
42.617898
 20
16.592786
 30
0.0
 11
35.368039
 21
16.592786
 31
0.0
  0
LINE
  5
F7
100
AcDbEntity
  8
DR-07_080910
390
0
 62
     7
100
AcDbLine
 10
35.368039
 20
13.592796
 30
0.0
 11
42.617898
 21
13.592796
 31
0.0
  0
SPLINE
  5
F6
100
AcDbEntity
  8
DR-07_080910
390
0
 62
     7
100
AcDbSpline
210
0.0
220
0.0
230
1.0
 70
     8
 71
     3
 72
    14
 73
    10
 74
     0
 42
0.00000001
 43
0.00000001
 40
0.0
 40
0.0
 40
0.0
 40
0.0
 40
1.0
 40
1.0
 40
1.0
 40
2.0
 40
2.0
 40
2.0
 40
3.0
 40
3.0
 40
3.0
 40
3.0
 10
42.6178982204861043
 20
13.5927964952256932
 30
0.0
 10
43.1536105685763829
 20
13.5927964952256932
 30
0.0
 10
43.64901529947916
 20
13.8787394205729147
 30
0.0
 10
43.91738823784722
 20
14.3427937825520821
 30
0.0
 10
44.1847276475694386
 20
14.8071926540798593
 30
0.0
 10
44.1847276475694386
 20
15.3787339952256925
 30
0.0
 10
43.91738823784722
 20
15.8431328667534714
 30
0.0
 10
43.64901529947916
 20
16.3071872287326372
 30
0.0
 10
43.1536105685763829
 20
16.5927856445312472
 30
0.0
 10
42.6178982204861043
 20
16.5927856445312472
 30
0.0
  0
LINE
  5
F5
100
AcDbEntity
  8
DR-07_080910
390
0
 62
     7
100
AcDbLine
 10
34.867811
 20
16.592786
 30
0.0
 11
27.617952
 21
16.592786
 31
0.0
  0
LINE
  5
F4
100
AcDbEntity
  8
DR-07_080910
390
0
 62
     7
100
AcDbLine
 10
27.617952
 20
13.592796
 30
0.0
 11
34.867811
 21
13.592796
 31
0.0
  0
SPLINE
  5
F3
100
AcDbEntity
  8
DR-07_080910
390
0
 62
     7
100
AcDbSpline
210
0.0
220
0.0
230
1.0
 70
     8
 71
     3
 72
    11
 73
     7
 74
     0
 42
0.00000001
 43
0.00000001
 40
0.0
 40
0.0
 40
0.0
 40
0.0
 40
1.0
 40
1.0
 40
1.0
 40
2.0
 40
2.0
 40
2.0
 40
2.0
 10
27.6179524739583293
 20
16.5927856445312472
 30
0.0
 10
26.7894070095486079
 20
16.5927856445312472
 30
0.0
 10
26.1179578993055515
 20
15.9216810438368039
 30
0.0
 10
26.1179578993055515
 20
15.0927910698784711
 30
0.0
 10
26.1179578993055515
 20
14.2645901150173593
 30
0.0
 10
26.7894070095486079
 20
13.5927964952256932
 30
0.0
 10
27.6179524739583293
 20
13.5927964952256932
 30
0.0
  0
LINE
  5
F2
100
AcDbEntity
  8
DR-07_080910
390
0
 62
     7
100
AcDbLine
 10
34.867811
 20
16.592786
 30
0.0
 11
34.867811
 21
13.592796
 31
0.0
  0
LINE
  5
F1
100
AcDbEntity
  8
DR-07_080910
390
0
 62
     7
100
AcDbLine
 10
35.368039
 20
16.592786
 30
0.0
 11
35.368039
 21
13.592796
 31
0.0
  0
SPLINE
  5
F0
100
AcDbEntity
  8
DR-07_080910
390
0
 62
     7
100
AcDbSpline
210
0.0
220
0.0
230
1.0
 70
     8
 71
     3
 72
    14
 73
    10
 74
     0
 42
0.00000001
 43
0.00000001
 40
0.0
 40
0.0
 40
0.0
 40
0.0
 40
1.0
 40
1.0
 40
1.0
 40
2.0
 40
2.0
 40
2.0
 40
3.0
 40
3.0
 40
3.0
 40
3.0
 10
27.6179524739583293
 20
16.892508951822915
 30
0.0
 10
26.9737196180555543
 20
16.892508951822915
 30
0.0
 10
26.379096137152775
 20
16.5486884223090271
 30
0.0
 10
26.05801323784722
 20
15.9909274631076368
 30
0.0
 10
25.7365858289930536
 20
15.4324774848090271
 30
0.0
 10
25.7383083767361072
 20
14.7455254448784707
 30
0.0
 10
26.0614583333333307
 20
14.1891425238715261
 30
0.0
 10
26.3852973090277771
 20
13.6320705837673604
 30
0.0
 10
26.9812988281249986
 20
13.2903171115451375
 30
0.0
 10
27.6248426649305543
 20
13.2934176974826368
 30
0.0
  0
LINE
  5
EF
100
AcDbEntity
  8
DR-07_080910
390
0
 62
     7
100
AcDbLine
 10
27.617952
 20
13.292729
 30
0.0
 11
42.617898
 21
13.293073
 31
0.0
  0
SPLINE
  5
EE
100
AcDbEntity
  8
DR-07_080910
390
0
 62
     7
100
AcDbSpline
210
0.0
220
0.0
230
1.0
 70
     8
 71
     3
 72
    14
 73
    10
 74
     0
 42
0.00000001
 43
0.00000001
 40
0.0
 40
0.0
 40
0.0
 40
0.0
 40
1.0
 40
1.0
 40
1.0
 40
2.0
 40
2.0
 40
2.0
 40
3.0
 40
3.0
 40
3.0
 40
3.0
 10
42.6178982204861043
 20
13.2930731879340271
 30
0.0
 10
43.2607530381944372
 20
13.2930731879340271
 30
0.0
 10
43.85537651909722
 20
13.6358601888020825
 30
0.0
 10
44.1764594184027715
 20
14.1929321289062482
 30
0.0
 10
44.4982313368055529
 20
14.7500040690104157
 30
0.0
 10
44.4982313368055529
 20
15.4359225802951379
 30
0.0
 10
44.1764594184027715
 20
15.993339029947915
 30
0.0
 10
43.85537651909722
 20
16.5500664605034693
 30
0.0
 10
43.2607530381944372
 20
16.8931979709201379
 30
0.0
 10
42.6178982204861043
 20
16.8931979709201379
 30
0.0
  0
LINE
  5
ED
100
AcDbEntity
  8
DR-07_080910
390
0
 62
     7
100
AcDbLine
 10
42.617898
 20
16.893198
 30
0.0
 11
27.617952
 21
16.892509
 31
0.0
  0
SPLINE
  5
EC
100
AcDbEntity
  8
DR-07_080910
390
0
 62
     7
100
AcDbSpline
210
0.0
220
0.0
230
1.0
 70
     8
 71
     3
 72
    17
 73
    13
 74
     0
 42
0.00000001
 43
0.00000001
 40
0.0
 40
0.0
 40
0.0
 40
0.0
 40
1.0
 40
1.0
 40
1.0
 40
2.0
 40
2.0
 40
2.0
 40
3.0
 40
3.0
 40
3.0
 40
4.0
 40
4.0
 40
4.0
 40
4.0
 10
112.2177842881944372
 20
12.5932020399305546
 30
0.0
 10
113.5985785590277715
 20
12.5932020399305546
 30
0.0
 10
114.7175455729166629
 20
13.7119967990451368
 30
0.0
 10
114.7175455729166629
 20
15.0927910698784711
 30
0.0
 10
114.7175455729166629
 20
16.4735853407118036
 30
0.0
 10
113.5985785590277715
 20
17.5932413736979143
 30
0.0
 10
112.2177842881944372
 20
17.5932413736979143
 30
0.0
 10
110.8369900173611029
 20
17.5932413736979143
 30
0.0
 10
109.7180230034722115
 20
16.4735853407118036
 30
0.0
 10
109.7180230034722115
 20
15.0927910698784711
 30
0.0
 10
109.7180230034722115
 20
13.7119967990451368
 30
0.0
 10
110.8369900173611029
 20
12.5932020399305546
 30
0.0
 10
112.2177842881944372
 20
12.5932020399305546
 30
0.0
  0
SPLINE
  5
EB
100
AcDbEntity
  8
DR-07_080910
390
0
 62
     7
100
AcDbSpline
210
0.0
220
0.0
230
1.0
 70
     8
 71
     3
 72
    17
 73
    13
 74
     0
 42
0.00000001
 43
0.00000001
 40
0.0
 40
0.0
 40
0.0
 40
0.0
 40
1.0
 40
1.0
 40
1.0
 40
2.0
 40
2.0
 40
2.0
 40
3.0
 40
3.0
 40
3.0
 40
4.0
 40
4.0
 40
4.0
 40
4.0
 10
112.2177842881944372
 20
13.2930731879340271
 30
0.0
 10
113.2120388454861057
 20
13.2930731879340271
 30
0.0
 10
114.0178466796874943
 20
14.0988810221354157
 30
0.0
 10
114.0178466796874943
 20
15.0927910698784711
 30
0.0
 10
114.0178466796874943
 20
16.0870456271701379
 30
0.0
 10
113.2120388454861057
 20
16.8931979709201379
 30
0.0
 10
112.2177842881944372
 20
16.8931979709201379
 30
0.0
 10
111.22387424045138
 20
16.8931979709201379
 30
0.0
 10
110.4173773871527686
 20
16.0870456271701379
 30
0.0
 10
110.4173773871527686
 20
15.0927910698784711
 30
0.0
 10
110.4173773871527686
 20
14.0988810221354157
 30
0.0
 10
111.22387424045138
 20
13.2930731879340271
 30
0.0
 10
112.2177842881944372
 20
13.2930731879340271
 30
0.0
  0
SPLINE
  5
EA
100
AcDbEntity
  8
DR-07_080910
390
0
 62
     7
100
AcDbSpline
210
0.0
220
0.0
230
1.0
 70
     8
 71
     3
 72
    17
 73
    13
 74
     0
 42
0.00000001
 43
0.00000001
 40
0.0
 40
0.0
 40
0.0
 40
0.0
 40
1.0
 40
1.0
 40
1.0
 40
2.0
 40
2.0
 40
2.0
 40
3.0
 40
3.0
 40
3.0
 40
4.0
 40
4.0
 40
4.0
 40
4.0
 10
112.2177842881944372
 20
12.2927897135416657
 30
0.0
 10
113.7642876519097115
 20
12.2927897135416657
 30
0.0
 10
115.0179578993055429
 20
13.5466322157118046
 30
0.0
 10
115.0179578993055429
 20
15.0927910698784711
 30
0.0
 10
115.0179578993055429
 20
16.6396389431423586
 30
0.0
 10
113.7642876519097115
 20
17.8929646809895821
 30
0.0
 10
112.2177842881944372
 20
17.8929646809895821
 30
0.0
 10
110.6716254340277743
 20
17.8929646809895821
 30
0.0
 10
109.4176106770833172
 20
16.6396389431423586
 30
0.0
 10
109.4176106770833172
 20
15.0927910698784711
 30
0.0
 10
109.4176106770833172
 20
13.5466322157118046
 30
0.0
 10
110.6716254340277743
 20
12.2927897135416657
 30
0.0
 10
112.2177842881944372
 20
12.2927897135416657
 30
0.0
  0
LINE
  5
E9
100
AcDbEntity
  8
DR-07_080910
390
0
 62
     7
100
AcDbLine
 10
106.717689
 20
14.792896
 30
0.0
 11
109.39005
 21
14.792896
 31
0.0
  0
LINE
  5
E8
100
AcDbEntity
  8
DR-07_080910
390
0
 62
     7
100
AcDbLine
 10
115.007967
 20
14.793068
 30
0.0
 11
120.385072
 21
14.793068
 31
0.0
  0
LINE
  5
E7
100
AcDbEntity
  8
DR-07_080910
390
0
 62
     7
100
AcDbLine
 10
106.717689
 20
15.092619
 30
0.0
 11
109.416577
 21
15.092619
 31
0.0
  0
LINE
  5
E6
100
AcDbEntity
  8
DR-07_080910
390
0
 62
     7
100
AcDbLine
 10
115.066534
 20
15.092791
 30
0.0
 11
120.205927
 21
15.092791
 31
0.0
  0
LINE
  5
E5
100
AcDbEntity
  8
DR-07_080910
390
0
 62
     7
100
AcDbLine
 10
60.217858
 20
17.392737
 30
0.0
 11
50.217779
 21
17.392737
 31
0.0
  0
LINE
  5
E4
100
AcDbEntity
  8
DR-07_080910
390
0
 62
     7
100
AcDbLine
 10
50.217779
 20
14.492655
 30
0.0
 11
60.217858
 21
14.492655
 31
0.0
  0
LINE
  5
E3
100
AcDbEntity
  8
DR-07_080910
390
0
 62
     7
100
AcDbLine
 10
60.217858
 20
14.492655
 30
0.0
 11
60.217858
 21
17.392737
 31
0.0
  0
LINE
  5
E2
100
AcDbEntity
  8
DR-07_080910
390
0
 62
     7
100
AcDbLine
 10
63.71773
 20
11.293023
 30
0.0
 11
63.71773
 21
18.393193
 31
0.0
  0
SPLINE
  5
E1
100
AcDbEntity
  8
DR-07_080910
390
0
 62
     7
100
AcDbSpline
210
0.0
220
0.0
230
1.0
 70
     8
 71
     3
 72
    11
 73
     7
 74
     0
 42
0.00000001
 43
0.00000001
 40
0.0
 40
0.0
 40
0.0
 40
0.0
 40
1.0
 40
1.0
 40
1.0
 40
2.0
 40
2.0
 40
2.0
 40
2.0
 10
63.7177300347222157
 20
18.3931925455729157
 30
0.0
 10
63.7177300347222157
 20
18.5258287217881943
 30
0.0
 10
63.6653645833333286
 20
18.6526082356770821
 30
0.0
 10
63.5713134765624943
 20
18.7466593424479164
 30
0.0
 10
63.4776068793402715
 20
18.8403659396701357
 30
0.0
 10
63.3504828559027686
 20
18.8930759006076379
 30
0.0
 10
63.2178466796874972
 20
18.8930759006076379
 30
0.0
  0
LINE
  5
E0
100
AcDbEntity
  8
DR-07_080910
390
0
 62
     7
100
AcDbLine
 10
63.217847
 20
18.893076
 30
0.0
 11
47.21779
 21
18.893076
 31
0.0
  0
LINE
  5
DF
100
AcDbEntity
  8
DR-07_080910
390
0
 62
     7
100
AcDbLine
 10
47.21779
 20
10.792795
 30
0.0
 11
63.217847
 21
10.792795
 31
0.0
  0
SPLINE
  5
DE
100
AcDbEntity
  8
DR-07_080910
390
0
 62
     7
100
AcDbSpline
210
0.0
220
0.0
230
1.0
 70
     8
 71
     3
 72
    11
 73
     7
 74
     0
 42
0.00000001
 43
0.00000001
 40
0.0
 40
0.0
 40
0.0
 40
0.0
 40
1.0
 40
1.0
 40
1.0
 40
2.0
 40
2.0
 40
2.0
 40
2.0
 10
63.2178466796874972
 20
10.7927951388888879
 30
0.0
 10
63.3504828559027686
 20
10.7927951388888879
 30
0.0
 10
63.4776068793402715
 20
10.8458496093749996
 30
0.0
 10
63.5713134765624943
 20
10.9388671874999996
 30
0.0
 10
63.6653645833333286
 20
11.0332628038194436
 30
0.0
 10
63.7177300347222157
 20
11.1607313368055543
 30
0.0
 10
63.7177300347222157
 20
11.2930230034722214
 30
0.0
  0
LINE
  5
DD
100
AcDbEntity
  8
DR-07_080910
390
0
 62
     7
100
AcDbLine
 10
46.717562
 20
18.393193
 30
0.0
 11
46.717562
 21
11.293023
 31
0.0
  0
SPLINE
  5
DC
100
AcDbEntity
  8
DR-07_080910
390
0
 62
     7
100
AcDbSpline
210
0.0
220
0.0
230
1.0
 70
     8
 71
     3
 72
     8
 73
     4
 74
     0
 42
0.00000001
 43
0.00000001
 40
0.0
 40
0.0
 40
0.0
 40
0.0
 40
1.0
 40
1.0
 40
1.0
 40
1.0
 10
46.7175618489583258
 20
11.2930230034722214
 30
0.0
 10
46.7175618489583258
 20
11.0167263454861093
 30
0.0
 10
46.9418375651041657
 20
10.7927951388888879
 30
0.0
 10
47.2177897135416629
 20
10.7927951388888879
 30
0.0
  0
LINE
  5
DB
100
AcDbEntity
  8
DR-07_080910
390
0
 62
     7
100
AcDbLine
 10
50.217779
 20
17.392737
 30
0.0
 11
50.217779
 21
14.492655
 31
0.0
  0
SPLINE
  5
DA
100
AcDbEntity
  8
DR-07_080910
390
0
 62
     7
100
AcDbSpline
210
0.0
220
0.0
230
1.0
 70
     8
 71
     3
 72
     8
 73
     4
 74
     0
 42
0.00000001
 43
0.00000001
 40
0.0
 40
0.0
 40
0.0
 40
0.0
 40
1.0
 40
1.0
 40
1.0
 40
1.0
 10
47.2177897135416629
 20
18.8930759006076379
 30
0.0
 10
46.9418375651041657
 20
18.8930759006076379
 30
0.0
 10
46.7175618489583258
 20
18.6694892035590279
 30
0.0
 10
46.7175618489583258
 20
18.3931925455729157
 30
0.0
  0
SPLINE
  5
D9
100
AcDbEntity
  8
DR-07_080910
390
0
 62
     7
100
AcDbSpline
210
0.0
220
0.0
230
1.0
 70
     8
 71
     3
 72
     8
 73
     4
 74
     0
 42
0.00000001
 43
0.00000001
 40
0.0
 40
0.0
 40
0.0
 40
0.0
 40
1.0
 40
1.0
 40
1.0
 40
1.0
 10
7.7514648437499991
 20
27.0927476671006922
 30
0.0
 10
5.1979600694444441
 20
27.0927476671006922
 30
0.0
 10
2.692686631944444
 20
26.3944268120659693
 30
0.0
 10
0.5074625651041667
 20
25.0728881835937472
 30
0.0
  0
SPLINE
  5
D8
100
AcDbEntity
  8
DR-07_080910
390
0
 62
     7
100
AcDbSpline
210
0.0
220
0.0
230
1.0
 70
     8
 71
     3
 72
     8
 73
     4
 74
     0
 42
0.00000001
 43
0.00000001
 40
0.0
 40
0.0
 40
0.0
 40
0.0
 40
1.0
 40
1.0
 40
1.0
 40
1.0
 10
0.5074625651041667
 20
25.0728881835937472
 30
0.0
 10
0.3279730902777778
 20
24.9643676757812472
 30
0.0
 10
0.2177300347222222
 20
24.7697197808159686
 30
0.0
 10
0.2177300347222222
 20
24.559913465711805
 30
0.0
  0
LINE
  5
D7
100
AcDbEntity
  8
DR-07_080910
390
0
 62
     7
100
AcDbLine
 10
0.21773
 20
24.559913
 30
0.0
 11
0.21773
 21
5.2896
 31
0.0
  0
SPLINE
  5
D6
100
AcDbEntity
  8
DR-07_080910
390
0
 62
     7
100
AcDbSpline
210
0.0
220
0.0
230
1.0
 70
     8
 71
     3
 72
     8
 73
     4
 74
     0
 42
0.00000001
 43
0.00000001
 40
0.0
 40
0.0
 40
0.0
 40
0.0
 40
1.0
 40
1.0
 40
1.0
 40
1.0
 10
0.3365858289930555
 20
4.9313096788194439
 30
0.0
 10
2.6007025824652774
 20
1.8872233072916664
 30
0.0
 10
6.1711995442708325
 20
0.093017578125
 30
0.0
 10
9.9649386935763875
 20
0.093017578125
 30
0.0
  0
SPLINE
  5
D5
100
AcDbEntity
  8
DR-07_080910
390
0
 62
     7
100
AcDbSpline
210
0.0
220
0.0
230
1.0
 70
     8
 71
     3
 72
     8
 73
     4
 74
     0
 42
0.00000001
 43
0.00000001
 40
0.0
 40
0.0
 40
0.0
 40
0.0
 40
1.0
 40
1.0
 40
1.0
 40
1.0
 10
0.2177300347222222
 20
5.2895996093749993
 30
0.0
 10
0.2177300347222222
 20
5.1600640190972218
 30
0.0
 10
0.2594156901041667
 20
5.034662543402777
 30
0.0
 10
0.3365858289930555
 20
4.9313096788194439
 30
0.0
  0
SPLINE
  5
D4
100
AcDbEntity
  8
DR-07_080910
390
0
 62
     7
100
AcDbSpline
210
0.0
220
0.0
230
1.0
 70
     8
 71
     3
 72
     8
 73
     4
 74
     0
 42
0.00000001
 43
0.00000001
 40
0.0
 40
0.0
 40
0.0
 40
0.0
 40
1.0
 40
1.0
 40
1.0
 40
1.0
 10
46.2180230034722186
 20
11.2930230034722214
 30
0.0
 10
46.2180230034722186
 20
10.7404296874999989
 30
0.0
 10
46.66554090711805
 20
10.2932562934027771
 30
0.0
 10
47.2177897135416629
 20
10.2932562934027771
 30
0.0
  0
LINE
  5
D3
100
AcDbEntity
  8
DR-07_080910
390
0
 62
     7
100
AcDbLine
 10
47.21779
 20
10.293256
 30
0.0
 11
63.217847
 21
10.293256
 31
0.0
  0
SPLINE
  5
D2
100
AcDbEntity
  8
DR-07_080910
390
0
 62
     7
100
AcDbSpline
210
0.0
220
0.0
230
1.0
 70
     8
 71
     3
 72
    11
 73
     7
 74
     0
 42
0.00000001
 43
0.00000001
 40
0.0
 40
0.0
 40
0.0
 40
0.0
 40
1.0
 40
1.0
 40
1.0
 40
2.0
 40
2.0
 40
2.0
 40
2.0
 10
63.2178466796874972
 20
10.2932562934027771
 30
0.0
 10
63.4831190321180472
 20
10.2932562934027771
 30
0.0
 10
63.7377115885416643
 20
10.397987196180555
 30
0.0
 10
63.9247802734374915
 20
10.5854003906249989
 30
0.0
 10
64.1125379774305486
 20
10.7735026041666657
 30
0.0
 10
64.2179578993055458
 20
11.0277506510416661
 30
0.0
 10
64.2179578993055458
 20
11.2930230034722214
 30
0.0
  0
LINE
  5
D1
100
AcDbEntity
  8
DR-07_080910
390
0
 62
     7
100
AcDbLine
 10
64.217958
 20
11.293023
 30
0.0
 11
64.217958
 21
18.393193
 31
0.0
  0
SPLINE
  5
D0
100
AcDbEntity
  8
DR-07_080910
390
0
 62
     7
100
AcDbSpline
210
0.0
220
0.0
230
1.0
 70
     8
 71
     3
 72
    11
 73
     7
 74
     0
 42
0.00000001
 43
0.00000001
 40
0.0
 40
0.0
 40
0.0
 40
0.0
 40
1.0
 40
1.0
 40
1.0
 40
2.0
 40
2.0
 40
2.0
 40
2.0
 10
64.2179578993055458
 20
18.3931925455729157
 30
0.0
 10
64.2179578993055458
 20
18.6584648980034693
 30
0.0
 10
64.1125379774305486
 20
18.9127129448784714
 30
0.0
 10
63.9247802734374915
 20
19.1001261393229136
 30
0.0
 10
63.7377115885416643
 20
19.2875393337673593
 30
0.0
 10
63.4831190321180472
 20
19.39295925564236
 30
0.0
 10
63.2178466796874972
 20
19.39295925564236
 30
0.0
  0
LINE
  5
CF
100
AcDbEntity
  8
DR-07_080910
390
0
 62
     7
100
AcDbLine
 10
63.217847
 20
19.392959
 30
0.0
 11
47.21779
 21
19.392959
 31
0.0
  0
SPLINE
  5
CE
100
AcDbEntity
  8
DR-07_080910
390
0
 62
     7
100
AcDbSpline
210
0.0
220
0.0
230
1.0
 70
     8
 71
     3
 72
     8
 73
     4
 74
     0
 42
0.00000001
 43
0.00000001
 40
0.0
 40
0.0
 40
0.0
 40
0.0
 40
1.0
 40
1.0
 40
1.0
 40
1.0
 10
47.2177897135416629
 20
19.39295925564236
 30
0.0
 10
46.66554090711805
 20
19.39295925564236
 30
0.0
 10
46.2180230034722186
 20
18.9450968424479136
 30
0.0
 10
46.2180230034722186
 20
18.3931925455729157
 30
0.0
  0
LINE
  5
CD
100
AcDbEntity
  8
DR-07_080910
390
0
 62
     7
100
AcDbLine
 10
46.218023
 20
18.393193
 30
0.0
 11
46.218023
 21
11.293023
 31
0.0
  0
LINE
  5
CC
100
AcDbEntity
  8
DR-07_080910
390
0
 62
     7
100
AcDbLine
 10
64.217958
 20
21.393182
 30
0.0
 11
46.218023
 21
21.393182
 31
0.0
  0
LINE
  5
CB
100
AcDbEntity
  8
DR-07_080910
390
0
 62
     7
100
AcDbLine
 10
64.217958
 20
21.692905
 30
0.0
 11
46.218023
 21
21.692905
 31
0.0
  0
LINE
  5
CA
100
AcDbEntity
  8
DR-07_080910
390
0
 62
     7
100
AcDbLine
 10
12.217687
 20
17.093014
 30
0.0
 11
12.217687
 21
11.093207
 31
0.0
  0
LINE
  5
C9
100
AcDbEntity
  8
DR-07_080910
390
0
 62
     7
100
AcDbLine
 10
15.217676
 20
8.093218
 30
0.0
 11
103.7177
 21
8.093218
 31
0.0
  0
SPLINE
  5
C8
100
AcDbEntity
  8
DR-07_080910
390
0
 62
     7
100
AcDbSpline
210
0.0
220
0.0
230
1.0
 70
     8
 71
     3
 72
     8
 73
     4
 74
     0
 42
0.00000001
 43
0.00000001
 40
0.0
 40
0.0
 40
0.0
 40
0.0
 40
1.0
 40
1.0
 40
1.0
 40
1.0
 10
12.2176866319444439
 20
11.0932074652777768
 30
0.0
 10
12.2176866319444439
 20
9.4361165364583321
 30
0.0
 10
13.5609293619791647
 20
8.0932183159722211
 30
0.0
 10
15.2176757812499979
 20
8.0932183159722211
 30
0.0
  0
LINE
  5
C7
100
AcDbEntity
  8
DR-07_080910
390
0
 62
     7
100
AcDbLine
 10
15.217676
 20
8.392942
 30
0.0
 11
103.7177
 21
8.392942
 31
0.0
  0
LINE
  5
C6
100
AcDbEntity
  8
DR-07_080910
390
0
 62
     7
100
AcDbLine
 10
12.518099
 20
17.093014
 30
0.0
 11
12.518099
 21
11.092518
 31
0.0
  0
SPLINE
  5
C5
100
AcDbEntity
  8
DR-07_080910
390
0
 62
     7
100
AcDbSpline
210
0.0
220
0.0
230
1.0
 70
     8
 71
     3
 72
     8
 73
     4
 74
     0
 42
0.00000001
 43
0.00000001
 40
0.0
 40
0.0
 40
0.0
 40
0.0
 40
1.0
 40
1.0
 40
1.0
 40
1.0
 10
12.5180989583333329
 20
11.0925184461805539
 30
0.0
 10
12.5180989583333329
 20
9.6014811197916661
 30
0.0
 10
13.72663845486111
 20
8.3929416232638889
 30
0.0
 10
15.2176757812499979
 20
8.3929416232638889
 30
0.0
  0
LINE
  5
C4
100
AcDbEntity
  8
DR-07_080910
390
0
 62
     7
100
AcDbLine
 10
68.413395
 20
19.792935
 30
0.0
 11
103.7177
 21
19.792935
 31
0.0
  0
LINE
  5
C3
100
AcDbEntity
  8
DR-07_080910
390
0
 62
     7
100
AcDbLine
 10
15.217676
 20
19.792935
 30
0.0
 11
42.022241
 21
19.792935
 31
0.0
  0
SPLINE
  5
C2
100
AcDbEntity
  8
DR-07_080910
390
0
 62
     7
100
AcDbSpline
210
0.0
220
0.0
230
1.0
 70
     8
 71
     3
 72
     8
 73
     4
 74
     0
 42
0.00000001
 43
0.00000001
 40
0.0
 40
0.0
 40
0.0
 40
0.0
 40
1.0
 40
1.0
 40
1.0
 40
1.0
 10
46.2180230034722186
 20
21.3931816948784714
 30
0.0
 10
45.48077256944444
 20
21.3931816948784714
 30
0.0
 10
44.7697048611111086
 20
21.1217081705729157
 30
0.0
 10
44.2198676215277757
 20
20.6311265733506914
 30
0.0
  0
SPLINE
  5
C1
100
AcDbEntity
  8
DR-07_080910
390
0
 62
     7
100
AcDbSpline
210
0.0
220
0.0
230
1.0
 70
     8
 71
     3
 72
     8
 73
     4
 74
     0
 42
0.00000001
 43
0.00000001
 40
0.0
 40
0.0
 40
0.0
 40
0.0
 40
1.0
 40
1.0
 40
1.0
 40
1.0
 10
42.0222412109374943
 20
19.7929348415798607
 30
0.0
 10
42.8328721788194429
 20
19.7929348415798607
 30
0.0
 10
43.6155978732638872
 20
20.0916246202256943
 30
0.0
 10
44.2198676215277757
 20
20.6311265733506914
 30
0.0
  0
LINE
  5
C0
100
AcDbEntity
  8
DR-07_080910
390
0
 62
     7
100
AcDbLine
 10
68.413395
 20
20.093003
 30
0.0
 11
103.7177
 21
20.093003
 31
0.0
  0
LINE
  5
BF
100
AcDbEntity
  8
DR-07_080910
390
0
 62
     7
100
AcDbLine
 10
15.217676
 20
20.093003
 30
0.0
 11
42.022586
 21
20.093003
 31
0.0
  0
SPLINE
  5
BE
100
AcDbEntity
  8
DR-07_080910
390
0
 62
     7
100
AcDbSpline
210
0.0
220
0.0
230
1.0
 70
     8
 71
     3
 72
     8
 73
     4
 74
     0
 42
0.00000001
 43
0.00000001
 40
0.0
 40
0.0
 40
0.0
 40
0.0
 40
1.0
 40
1.0
 40
1.0
 40
1.0
 10
46.2180230034722186
 20
21.6929050021701357
 30
0.0
 10
45.4070475260416657
 20
21.6929050021701357
 30
0.0
 10
44.6250108506944372
 20
21.394904242621525
 30
0.0
 10
44.0203965928819372
 20
20.854713270399305
 30
0.0
  0
SPLINE
  5
BD
100
AcDbEntity
  8
DR-07_080910
390
0
 62
     7
100
AcDbSpline
210
0.0
220
0.0
230
1.0
 70
     8
 71
     3
 72
     8
 73
     4
 74
     0
 42
0.00000001
 43
0.00000001
 40
0.0
 40
0.0
 40
0.0
 40
0.0
 40
1.0
 40
1.0
 40
1.0
 40
1.0
 10
42.0225857204861057
 20
20.0930026584201364
 30
0.0
 10
42.7598361545138843
 20
20.0930026584201364
 30
0.0
 10
43.4702148437499929
 20
20.3641316731770807
 30
0.0
 10
44.0203965928819372
 20
20.854713270399305
 30
0.0
  0
SPLINE
  5
BC
100
AcDbEntity
  8
DR-07_080910
390
0
 62
     7
100
AcDbSpline
210
0.0
220
0.0
230
1.0
 70
     8
 71
     3
 72
     8
 73
     4
 74
     0
 42
0.00000001
 43
0.00000001
 40
0.0
 40
0.0
 40
0.0
 40
0.0
 40
1.0
 40
1.0
 40
1.0
 40
1.0
 10
66.2157687717013772
 20
20.6311265733506914
 30
0.0
 10
65.66558702256944
 20
21.1217081705729157
 30
0.0
 10
64.9545193142361086
 20
21.3931816948784714
 30
0.0
 10
64.2179578993055458
 20
21.3931816948784714
 30
0.0
  0
SPLINE
  5
BB
100
AcDbEntity
  8
DR-07_080910
390
0
 62
     7
100
AcDbSpline
210
0.0
220
0.0
230
1.0
 70
     8
 71
     3
 72
     8
 73
     4
 74
     0
 42
0.00000001
 43
0.00000001
 40
0.0
 40
0.0
 40
0.0
 40
0.0
 40
1.0
 40
1.0
 40
1.0
 40
1.0
 10
66.2157687717013772
 20
20.6311265733506914
 30
0.0
 10
66.8203830295138772
 20
20.0916246202256943
 30
0.0
 10
67.6024197048611057
 20
19.7929348415798607
 30
0.0
 10
68.4133951822916657
 20
19.7929348415798607
 30
0.0
  0
SPLINE
  5
BA
100
AcDbEntity
  8
DR-07_080910
390
0
 62
     7
100
AcDbSpline
210
0.0
220
0.0
230
1.0
 70
     8
 71
     3
 72
     8
 73
     4
 74
     0
 42
0.00000001
 43
0.00000001
 40
0.0
 40
0.0
 40
0.0
 40
0.0
 40
1.0
 40
1.0
 40
1.0
 40
1.0
 10
66.4152398003472229
 20
20.854713270399305
 30
0.0
 10
65.8109700520833343
 20
21.3945597330729136
 30
0.0
 10
65.0282443576388829
 20
21.6929050021701357
 30
0.0
 10
64.2179578993055458
 20
21.6929050021701357
 30
0.0
  0
SPLINE
  5
B9
100
AcDbEntity
  8
DR-07_080910
390
0
 62
     7
100
AcDbSpline
210
0.0
220
0.0
230
1.0
 70
     8
 71
     3
 72
     8
 73
     4
 74
     0
 42
0.00000001
 43
0.00000001
 40
0.0
 40
0.0
 40
0.0
 40
0.0
 40
1.0
 40
1.0
 40
1.0
 40
1.0
 10
66.4152398003472229
 20
20.854713270399305
 30
0.0
 10
66.9650770399305486
 20
20.3641316731770807
 30
0.0
 10
67.67614474826388
 20
20.0930026584201364
 30
0.0
 10
68.4133951822916657
 20
20.0930026584201364
 30
0.0
  0
LINE
  5
B8
100
AcDbEntity
  8
DR-07_080910
390
0
 62
     7
100
AcDbLine
 10
57.667453
 20
-0.257004
 30
0.0
 11
57.667453
 21
0.093018
 31
0.0
  0
LINE
  5
B7
100
AcDbEntity
  8
DR-07_080910
390
0
 62
     7
100
AcDbLine
 10
58.767817
 20
0.093018
 30
0.0
 11
58.767817
 21
-0.257004
 31
0.0
  0
LINE
  5
B6
100
AcDbEntity
  8
DR-07_080910
390
0
 62
     7
100
AcDbLine
 10
57.667453
 20
-0.257004
 30
0.0
 11
58.767817
 21
-0.257004
 31
0.0
  0
LINE
  5
B5
100
AcDbEntity
  8
DR-07_080910
390
0
 62
     7
100
AcDbLine
 10
137.217464
 20
17.592552
 30
0.0
 11
137.517532
 21
17.592552
 31
0.0
  0
LINE
  5
B4
100
AcDbEntity
  8
DR-07_080910
390
0
 62
     7
100
AcDbLine
 10
137.717692
 20
17.392737
 30
0.0
 11
137.517532
 21
17.592552
 31
0.0
  0
LINE
  5
B3
100
AcDbEntity
  8
DR-07_080910
390
0
 62
     7
100
AcDbLine
 10
137.517532
 20
12.592513
 30
0.0
 11
137.517532
 21
17.592552
 31
0.0
  0
LINE
  5
B2
100
AcDbEntity
  8
DR-07_080910
390
0
 62
     7
100
AcDbLine
 10
137.717692
 20
12.793018
 30
0.0
 11
137.517532
 21
12.592513
 31
0.0
  0
LINE
  5
B1
100
AcDbEntity
  8
DR-07_080910
390
0
 62
     7
100
AcDbLine
 10
137.717692
 20
12.793018
 30
0.0
 11
137.717692
 21
17.392048
 31
0.0
  0
LINE
  5
B0
100
AcDbEntity
  8
DR-07_080910
390
0
 62
     7
100
AcDbLine
 10
137.217464
 20
12.592513
 30
0.0
 11
137.517532
 21
12.592513
 31
0.0
  0
SPLINE
  5
AF
100
AcDbEntity
  8
DR-07_080910
390
0
 62
     7
100
AcDbSpline
210
0.0
220
0.0
230
1.0
 70
     8
 71
     3
 72
    11
 73
     7
 74
     0
 42
0.00000001
 43
0.00000001
 40
0.0
 40
0.0
 40
0.0
 40
0.0
 40
1.0
 40
1.0
 40
1.0
 40
2.0
 40
2.0
 40
2.0
 40
2.0
 10
129.1528401692708314
 20
24.5028971354166636
 30
0.0
 10
129.2306993272569287
 20
24.3623372395833329
 30
0.0
 10
129.3716037326388744
 20
24.2675971137152757
 30
0.0
 10
129.5311116536458087
 20
24.248649088541665
 30
0.0
 10
129.6909640842013687
 20
24.2297010633680543
 30
0.0
 10
129.8497829861111086
 20
24.2884399414062493
 30
0.0
 10
129.9583034939236086
 20
24.4067789713541643
 30
0.0
  0
SPLINE
  5
AE
100
AcDbEntity
  8
DR-07_080910
390
0
 62
     7
100
AcDbSpline
210
0.0
220
0.0
230
1.0
 70
     8
 71
     3
 72
    11
 73
     7
 74
     0
 42
0.00000001
 43
0.00000001
 40
0.0
 40
0.0
 40
0.0
 40
0.0
 40
1.0
 40
1.0
 40
1.0
 40
2.0
 40
2.0
 40
2.0
 40
2.0
 10
127.7217475043402715
 20
24.4067789713541643
 30
0.0
 10
127.82992350260416
 20
24.2884399414062493
 30
0.0
 10
127.9894314236110944
 20
24.2297010633680543
 30
0.0
 10
128.1489393446180429
 20
24.248649088541665
 30
0.0
 10
128.3084472656249773
 20
24.2672526041666643
 30
0.0
 10
128.4496961805555486
 20
24.3618204752604157
 30
0.0
 10
128.5275553385416458
 20
24.5025526258680522
 30
0.0
  0
SPLINE
  5
AD
100
AcDbEntity
  8
DR-07_080910
390
0
 62
     7
100
AcDbSpline
210
0.0
220
0.0
230
1.0
 70
     8
 71
     3
 72
    17
 73
    13
 74
     0
 42
0.00000001
 43
0.00000001
 40
0.0
 40
0.0
 40
0.0
 40
0.0
 40
1.0
 40
1.0
 40
1.0
 40
2.0
 40
2.0
 40
2.0
 40
3.0
 40
3.0
 40
3.0
 40
4.0
 40
4.0
 40
4.0
 40
4.0
 10
127.3400309244791515
 20
22.9457139756944422
 30
0.0
 10
127.6163275824652601
 20
22.9457139756944422
 30
0.0
 10
127.8402587890624886
 20
23.1696451822916636
 30
0.0
 10
127.8402587890624886
 20
23.4459418402777757
 30
0.0
 10
127.8402587890624886
 20
23.7218939887152764
 30
0.0
 10
127.6163275824652601
 20
23.9458251953124979
 30
0.0
 10
127.3400309244791515
 20
23.9458251953124979
 30
0.0
 10
127.0640787760416544
 20
23.9458251953124979
 30
0.0
 10
126.8404920789930372
 20
23.7218939887152764
 30
0.0
 10
126.8404920789930372
 20
23.4459418402777757
 30
0.0
 10
126.8404920789930372
 20
23.1696451822916636
 30
0.0
 10
127.0640787760416544
 20
22.9457139756944422
 30
0.0
 10
127.3400309244791515
 20
22.9457139756944422
 30
0.0
  0
SPLINE
  5
AC
100
AcDbEntity
  8
DR-07_080910
390
0
 62
     7
100
AcDbSpline
210
0.0
220
0.0
230
1.0
 70
     8
 71
     3
 72
    14
 73
    10
 74
     0
 42
0.00000001
 43
0.00000001
 40
0.0
 40
0.0
 40
0.0
 40
0.0
 40
1.0
 40
1.0
 40
1.0
 40
2.0
 40
2.0
 40
2.0
 40
3.0
 40
3.0
 40
3.0
 40
3.0
 10
125.3411865234374858
 20
23.4805650499131922
 30
0.0
 10
125.3243055555555401
 20
23.2351019965277743
 30
0.0
 10
125.4886366102430486
 20
23.0139268663194407
 30
0.0
 10
125.7280707465277629
 20
22.9588053385416657
 30
0.0
 10
125.9675048828124915
 20
22.9033393012152757
 30
0.0
 10
126.2117621527777658
 20
23.030463324652775
 30
0.0
 10
126.3037462022569315
 20
23.2581841362847186
 30
0.0
 10
126.3957302517360972
 20
23.486593967013885
 30
0.0
 10
126.3085693359374915
 20
23.7475599500868029
 30
0.0
 10
126.0980740017360944
 20
23.874167209201385
 30
0.0
  0
SPLINE
  5
AB
100
AcDbEntity
  8
DR-07_080910
390
0
 62
     7
100
AcDbSpline
210
0.0
220
0.0
230
1.0
 70
     8
 71
     3
 72
    17
 73
    13
 74
     0
 42
0.00000001
 43
0.00000001
 40
0.0
 40
0.0
 40
0.0
 40
0.0
 40
1.0
 40
1.0
 40
1.0
 40
2.0
 40
2.0
 40
2.0
 40
3.0
 40
3.0
 40
3.0
 40
4.0
 40
4.0
 40
4.0
 40
4.0
 10
130.3400200737847001
 20
22.9457139756944422
 30
0.0
 10
130.6163167317708087
 20
22.9457139756944422
 30
0.0
 10
130.8402479383680372
 20
23.1696451822916636
 30
0.0
 10
130.8402479383680372
 20
23.4459418402777757
 30
0.0
 10
130.8402479383680372
 20
23.7218939887152764
 30
0.0
 10
130.6163167317708087
 20
23.9458251953124979
 30
0.0
 10
130.3400200737847001
 20
23.9458251953124979
 30
0.0
 10
130.0640679253472172
 20
23.9458251953124979
 30
0.0
 10
129.8401367187499886
 20
23.7218939887152764
 30
0.0
 10
129.8401367187499886
 20
23.4459418402777757
 30
0.0
 10
129.8401367187499886
 20
23.1696451822916636
 30
0.0
 10
130.0640679253472172
 20
22.9457139756944422
 30
0.0
 10
130.3400200737847001
 20
22.9457139756944422
 30
0.0
  0
SPLINE
  5
AA
100
AcDbEntity
  8
DR-07_080910
390
0
 62
     7
100
AcDbSpline
210
0.0
220
0.0
230
1.0
 70
     8
 71
     3
 72
    17
 73
    13
 74
     0
 42
0.00000001
 43
0.00000001
 40
0.0
 40
0.0
 40
0.0
 40
0.0
 40
1.0
 40
1.0
 40
1.0
 40
2.0
 40
2.0
 40
2.0
 40
3.0
 40
3.0
 40
3.0
 40
4.0
 40
4.0
 40
4.0
 40
4.0
 10
128.84002549913194
 20
22.9457139756944422
 30
0.0
 10
129.1163221571180486
 20
22.9457139756944422
 30
0.0
 10
129.3402533637152771
 20
23.1696451822916636
 30
0.0
 10
129.3402533637152771
 20
23.4459418402777757
 30
0.0
 10
129.3402533637152771
 20
23.7218939887152764
 30
0.0
 10
129.1163221571180486
 20
23.9458251953124979
 30
0.0
 10
128.84002549913194
 20
23.9458251953124979
 30
0.0
 10
128.5640733506944287
 20
23.9458251953124979
 30
0.0
 10
128.3404866536458258
 20
23.7218939887152764
 30
0.0
 10
128.3404866536458258
 20
23.4459418402777757
 30
0.0
 10
128.3404866536458258
 20
23.1696451822916636
 30
0.0
 10
128.5640733506944287
 20
22.9457139756944422
 30
0.0
 10
128.84002549913194
 20
22.9457139756944422
 30
0.0
  0
SPLINE
  5
A9
100
AcDbEntity
  8
DR-07_080910
390
0
 62
     7
100
AcDbSpline
210
0.0
220
0.0
230
1.0
 70
     8
 71
     3
 72
    14
 73
    10
 74
     0
 42
0.00000001
 43
0.00000001
 40
0.0
 40
0.0
 40
0.0
 40
0.0
 40
1.0
 40
1.0
 40
1.0
 40
2.0
 40
2.0
 40
2.0
 40
3.0
 40
3.0
 40
3.0
 40
3.0
 10
131.5823215060763687
 20
23.874167209201385
 30
0.0
 10
131.3714816623263744
 20
23.7475599500868029
 30
0.0
 10
131.2843207465277544
 20
23.4862494574652771
 30
0.0
 10
131.3766493055555316
 20
23.2578396267361107
 30
0.0
 10
131.4693223741319343
 20
23.0301188151041636
 30
0.0
 10
131.7135796440972229
 20
22.9029947916666643
 30
0.0
 10
131.953013780381923
 20
22.9588053385416657
 30
0.0
 10
132.1927924262152771
 20
23.0142713758680522
 30
0.0
 10
132.3564344618055486
 20
23.2357910156249972
 30
0.0
 10
132.33886447482638
 20
23.4810818142361093
 30
0.0
  0
SPLINE
  5
A8
100
AcDbEntity
  8
DR-07_080910
390
0
 62
     7
100
AcDbSpline
210
0.0
220
0.0
230
1.0
 70
     8
 71
     3
 72
    17
 73
    13
 74
     0
 42
0.00000001
 43
0.00000001
 40
0.0
 40
0.0
 40
0.0
 40
0.0
 40
1.0
 40
1.0
 40
1.0
 40
2.0
 40
2.0
 40
2.0
 40
3.0
 40
3.0
 40
3.0
 40
4.0
 40
4.0
 40
4.0
 40
4.0
 10
127.3400309244791515
 20
20.3477674696180522
 30
0.0
 10
127.6163275824652601
 20
20.3477674696180522
 30
0.0
 10
127.8402587890624886
 20
20.5713541666666657
 30
0.0
 10
127.8402587890624886
 20
20.8476508246527743
 30
0.0
 10
127.8402587890624886
 20
21.1239474826388864
 30
0.0
 10
127.6163275824652601
 20
21.3478786892361079
 30
0.0
 10
127.3400309244791515
 20
21.3478786892361079
 30
0.0
 10
127.0640787760416544
 20
21.3478786892361079
 30
0.0
 10
126.8404920789930372
 20
21.1239474826388864
 30
0.0
 10
126.8404920789930372
 20
20.8476508246527743
 30
0.0
 10
126.8404920789930372
 20
20.5713541666666657
 30
0.0
 10
127.0640787760416544
 20
20.3477674696180522
 30
0.0
 10
127.3400309244791515
 20
20.3477674696180522
 30
0.0
  0
SPLINE
  5
A7
100
AcDbEntity
  8
DR-07_080910
390
0
 62
     7
100
AcDbSpline
210
0.0
220
0.0
230
1.0
 70
     8
 71
     3
 72
    17
 73
    13
 74
     0
 42
0.00000001
 43
0.00000001
 40
0.0
 40
0.0
 40
0.0
 40
0.0
 40
1.0
 40
1.0
 40
1.0
 40
2.0
 40
2.0
 40
2.0
 40
3.0
 40
3.0
 40
3.0
 40
4.0
 40
4.0
 40
4.0
 40
4.0
 10
125.8400363498263772
 20
20.3477674696180522
 30
0.0
 10
126.1163330078124858
 20
20.3477674696180522
 30
0.0
 10
126.3402642144097143
 20
20.5713541666666657
 30
0.0
 10
126.3402642144097143
 20
20.8476508246527743
 30
0.0
 10
126.3402642144097143
 20
21.1239474826388864
 30
0.0
 10
126.1163330078124858
 20
21.3478786892361079
 30
0.0
 10
125.8400363498263772
 20
21.3478786892361079
 30
0.0
 10
125.56408420138888
 20
21.3478786892361079
 30
0.0
 10
125.3404975043402629
 20
21.1239474826388864
 30
0.0
 10
125.3404975043402629
 20
20.8476508246527743
 30
0.0
 10
125.3404975043402629
 20
20.5713541666666657
 30
0.0
 10
125.56408420138888
 20
20.3477674696180522
 30
0.0
 10
125.8400363498263772
 20
20.3477674696180522
 30
0.0
  0
SPLINE
  5
A6
100
AcDbEntity
  8
DR-07_080910
390
0
 62
     7
100
AcDbSpline
210
0.0
220
0.0
230
1.0
 70
     8
 71
     3
 72
    17
 73
    13
 74
     0
 42
0.00000001
 43
0.00000001
 40
0.0
 40
0.0
 40
0.0
 40
0.0
 40
1.0
 40
1.0
 40
1.0
 40
2.0
 40
2.0
 40
2.0
 40
3.0
 40
3.0
 40
3.0
 40
4.0
 40
4.0
 40
4.0
 40
4.0
 10
128.0903727213541572
 20
21.6469129774305529
 30
0.0
 10
128.3663248697916686
 20
21.6469129774305529
 30
0.0
 10
128.5899115668402715
 20
21.8708441840277743
 30
0.0
 10
128.5899115668402715
 20
22.1471408420138864
 30
0.0
 10
128.5899115668402715
 20
22.4227484809027757
 30
0.0
 10
128.3663248697916686
 20
22.6470241970486086
 30
0.0
 10
128.0903727213541572
 20
22.6470241970486086
 30
0.0
 10
127.8140760633680486
 20
22.6470241970486086
 30
0.0
 10
127.5901448567708201
 20
22.4227484809027757
 30
0.0
 10
127.5901448567708201
 20
22.1471408420138864
 30
0.0
 10
127.5901448567708201
 20
21.8708441840277743
 30
0.0
 10
127.8140760633680486
 20
21.6469129774305529
 30
0.0
 10
128.0903727213541572
 20
21.6469129774305529
 30
0.0
  0
SPLINE
  5
A5
100
AcDbEntity
  8
DR-07_080910
390
0
 62
     7
100
AcDbSpline
210
0.0
220
0.0
230
1.0
 70
     8
 71
     3
 72
    17
 73
    13
 74
     0
 42
0.00000001
 43
0.00000001
 40
0.0
 40
0.0
 40
0.0
 40
0.0
 40
1.0
 40
1.0
 40
1.0
 40
2.0
 40
2.0
 40
2.0
 40
3.0
 40
3.0
 40
3.0
 40
4.0
 40
4.0
 40
4.0
 40
4.0
 10
126.5903781467013829
 20
21.6469129774305529
 30
0.0
 10
126.86633029513888
 20
21.6469129774305529
 30
0.0
 10
127.0899169921874829
 20
21.8708441840277743
 30
0.0
 10
127.0899169921874829
 20
22.1471408420138864
 30
0.0
 10
127.0899169921874829
 20
22.4227484809027757
 30
0.0
 10
126.86633029513888
 20
22.6470241970486086
 30
0.0
 10
126.5903781467013829
 20
22.6470241970486086
 30
0.0
 10
126.3140814887152601
 20
22.6470241970486086
 30
0.0
 10
126.0904947916666572
 20
22.4227484809027757
 30
0.0
 10
126.0904947916666572
 20
22.1471408420138864
 30
0.0
 10
126.0904947916666572
 20
21.8708441840277743
 30
0.0
 10
126.3140814887152601
 20
21.6469129774305529
 30
0.0
 10
126.5903781467013829
 20
21.6469129774305529
 30
0.0
  0
SPLINE
  5
A4
100
AcDbEntity
  8
DR-07_080910
390
0
 62
     7
100
AcDbSpline
210
0.0
220
0.0
230
1.0
 70
     8
 71
     3
 72
    17
 73
    13
 74
     0
 42
0.00000001
 43
0.00000001
 40
0.0
 40
0.0
 40
0.0
 40
0.0
 40
1.0
 40
1.0
 40
1.0
 40
2.0
 40
2.0
 40
2.0
 40
3.0
 40
3.0
 40
3.0
 40
4.0
 40
4.0
 40
4.0
 40
4.0
 10
125.0903835720485944
 20
21.6469129774305529
 30
0.0
 10
125.3663357204861057
 20
21.6469129774305529
 30
0.0
 10
125.5906114366319315
 20
21.8708441840277743
 30
0.0
 10
125.5906114366319315
 20
22.1471408420138864
 30
0.0
 10
125.5906114366319315
 20
22.4227484809027757
 30
0.0
 10
125.3663357204861057
 20
22.6470241970486086
 30
0.0
 10
125.0903835720485944
 20
22.6470241970486086
 30
0.0
 10
124.8140869140624858
 20
22.6470241970486086
 30
0.0
 10
124.5901557074652715
 20
22.4227484809027757
 30
0.0
 10
124.5901557074652715
 20
22.1471408420138864
 30
0.0
 10
124.5901557074652715
 20
21.8708441840277743
 30
0.0
 10
124.8140869140624858
 20
21.6469129774305529
 30
0.0
 10
125.0903835720485944
 20
21.6469129774305529
 30
0.0
  0
SPLINE
  5
A3
100
AcDbEntity
  8
DR-07_080910
390
0
 62
     7
100
AcDbSpline
210
0.0
220
0.0
230
1.0
 70
     8
 71
     3
 72
    17
 73
    13
 74
     0
 42
0.00000001
 43
0.00000001
 40
0.0
 40
0.0
 40
0.0
 40
0.0
 40
1.0
 40
1.0
 40
1.0
 40
2.0
 40
2.0
 40
2.0
 40
3.0
 40
3.0
 40
3.0
 40
4.0
 40
4.0
 40
4.0
 40
4.0
 10
124.3400417751736029
 20
20.3477674696180522
 30
0.0
 10
124.6163384331597115
 20
20.3477674696180522
 30
0.0
 10
124.84026963975694
 20
20.5713541666666657
 30
0.0
 10
124.84026963975694
 20
20.8476508246527743
 30
0.0
 10
124.84026963975694
 20
21.1239474826388864
 30
0.0
 10
124.6163384331597115
 20
21.3478786892361079
 30
0.0
 10
124.3400417751736029
 20
21.3478786892361079
 30
0.0
 10
124.0637451171874943
 20
21.3478786892361079
 30
0.0
 10
123.8405029296874886
 20
21.1239474826388864
 30
0.0
 10
123.8405029296874886
 20
20.8476508246527743
 30
0.0
 10
123.8405029296874886
 20
20.5713541666666657
 30
0.0
 10
124.0637451171874943
 20
20.3477674696180522
 30
0.0
 10
124.3400417751736029
 20
20.3477674696180522
 30
0.0
  0
SPLINE
  5
A2
100
AcDbEntity
  8
DR-07_080910
390
0
 62
     7
100
AcDbSpline
210
0.0
220
0.0
230
1.0
 70
     8
 71
     3
 72
    11
 73
     7
 74
     0
 42
0.00000001
 43
0.00000001
 40
0.0
 40
0.0
 40
0.0
 40
0.0
 40
1.0
 40
1.0
 40
1.0
 40
2.0
 40
2.0
 40
2.0
 40
2.0
 10
122.9633816189236057
 20
20.3629258897569443
 30
0.0
 10
123.1225450303819287
 20
20.4035780164930536
 30
0.0
 10
123.2517361111111001
 20
20.5200222439236093
 30
0.0
 10
123.3089246961805401
 20
20.674018012152775
 30
0.0
 10
123.3661132812499943
 20
20.8283582899305522
 30
0.0
 10
123.3437201605902658
 20
21.0009575737847207
 30
0.0
 10
123.2493245442708201
 20
21.1353162977430529
 30
0.0
  0
SPLINE
  5
A1
100
AcDbEntity
  8
DR-07_080910
390
0
 62
     7
100
AcDbSpline
210
0.0
220
0.0
230
1.0
 70
     8
 71
     3
 72
    11
 73
     7
 74
     0
 42
0.00000001
 43
0.00000001
 40
0.0
 40
0.0
 40
0.0
 40
0.0
 40
1.0
 40
1.0
 40
1.0
 40
2.0
 40
2.0
 40
2.0
 40
2.0
 10
123.5896999782985972
 20
21.6469129774305529
 30
0.0
 10
123.7547200520833286
 20
21.6469129774305529
 30
0.0
 10
123.9094048394097172
 20
21.728217230902775
 30
0.0
 10
124.00311143663194
 20
21.8642985026041643
 30
0.0
 10
124.09612901475694
 20
22.000724283854165
 30
0.0
 10
124.1161105685763744
 20
22.1740125868055529
 30
0.0
 10
124.0561659071180429
 20
22.3280083550347186
 30
0.0
  0
SPLINE
  5
A0
100
AcDbEntity
  8
DR-07_080910
390
0
 62
     7
100
AcDbSpline
210
0.0
220
0.0
230
1.0
 70
     8
 71
     3
 72
    17
 73
    13
 74
     0
 42
0.00000001
 43
0.00000001
 40
0.0
 40
0.0
 40
0.0
 40
0.0
 40
1.0
 40
1.0
 40
1.0
 40
2.0
 40
2.0
 40
2.0
 40
3.0
 40
3.0
 40
3.0
 40
4.0
 40
4.0
 40
4.0
 40
4.0
 10
128.84002549913194
 20
20.3477674696180522
 30
0.0
 10
129.1163221571180486
 20
20.3477674696180522
 30
0.0
 10
129.3402533637152771
 20
20.5713541666666657
 30
0.0
 10
129.3402533637152771
 20
20.8476508246527743
 30
0.0
 10
129.3402533637152771
 20
21.1239474826388864
 30
0.0
 10
129.1163221571180486
 20
21.3478786892361079
 30
0.0
 10
128.84002549913194
 20
21.3478786892361079
 30
0.0
 10
128.5640733506944287
 20
21.3478786892361079
 30
0.0
 10
128.3404866536458258
 20
21.1239474826388864
 30
0.0
 10
128.3404866536458258
 20
20.8476508246527743
 30
0.0
 10
128.3404866536458258
 20
20.5713541666666657
 30
0.0
 10
128.5640733506944287
 20
20.3477674696180522
 30
0.0
 10
128.84002549913194
 20
20.3477674696180522
 30
0.0
  0
SPLINE
  5
9F
100
AcDbEntity
  8
DR-07_080910
390
0
 62
     7
100
AcDbSpline
210
0.0
220
0.0
230
1.0
 70
     8
 71
     3
 72
    17
 73
    13
 74
     0
 42
0.00000001
 43
0.00000001
 40
0.0
 40
0.0
 40
0.0
 40
0.0
 40
1.0
 40
1.0
 40
1.0
 40
2.0
 40
2.0
 40
2.0
 40
3.0
 40
3.0
 40
3.0
 40
4.0
 40
4.0
 40
4.0
 40
4.0
 10
130.3400200737847001
 20
20.3477674696180522
 30
0.0
 10
130.6163167317708087
 20
20.3477674696180522
 30
0.0
 10
130.8402479383680372
 20
20.5713541666666657
 30
0.0
 10
130.8402479383680372
 20
20.8476508246527743
 30
0.0
 10
130.8402479383680372
 20
21.1239474826388864
 30
0.0
 10
130.6163167317708087
 20
21.3478786892361079
 30
0.0
 10
130.3400200737847001
 20
21.3478786892361079
 30
0.0
 10
130.0640679253472172
 20
21.3478786892361079
 30
0.0
 10
129.8401367187499886
 20
21.1239474826388864
 30
0.0
 10
129.8401367187499886
 20
20.8476508246527743
 30
0.0
 10
129.8401367187499886
 20
20.5713541666666657
 30
0.0
 10
130.0640679253472172
 20
20.3477674696180522
 30
0.0
 10
130.3400200737847001
 20
20.3477674696180522
 30
0.0
  0
SPLINE
  5
9E
100
AcDbEntity
  8
DR-07_080910
390
0
 62
     7
100
AcDbSpline
210
0.0
220
0.0
230
1.0
 70
     8
 71
     3
 72
    17
 73
    13
 74
     0
 42
0.00000001
 43
0.00000001
 40
0.0
 40
0.0
 40
0.0
 40
0.0
 40
1.0
 40
1.0
 40
1.0
 40
2.0
 40
2.0
 40
2.0
 40
3.0
 40
3.0
 40
3.0
 40
4.0
 40
4.0
 40
4.0
 40
4.0
 10
131.8400146484374886
 20
20.3477674696180522
 30
0.0
 10
132.1163113064235972
 20
20.3477674696180522
 30
0.0
 10
132.3402425130208258
 20
20.5713541666666657
 30
0.0
 10
132.3402425130208258
 20
20.8476508246527743
 30
0.0
 10
132.3402425130208258
 20
21.1239474826388864
 30
0.0
 10
132.1163113064235972
 20
21.3478786892361079
 30
0.0
 10
131.8400146484374886
 20
21.3478786892361079
 30
0.0
 10
131.5640624999999773
 20
21.3478786892361079
 30
0.0
 10
131.3404758029513744
 20
21.1239474826388864
 30
0.0
 10
131.3404758029513744
 20
20.8476508246527743
 30
0.0
 10
131.3404758029513744
 20
20.5713541666666657
 30
0.0
 10
131.5640624999999773
 20
20.3477674696180522
 30
0.0
 10
131.8400146484374886
 20
20.3477674696180522
 30
0.0
  0
SPLINE
  5
9D
100
AcDbEntity
  8
DR-07_080910
390
0
 62
     7
100
AcDbSpline
210
0.0
220
0.0
230
1.0
 70
     8
 71
     3
 72
    17
 73
    13
 74
     0
 42
0.00000001
 43
0.00000001
 40
0.0
 40
0.0
 40
0.0
 40
0.0
 40
1.0
 40
1.0
 40
1.0
 40
2.0
 40
2.0
 40
2.0
 40
3.0
 40
3.0
 40
3.0
 40
4.0
 40
4.0
 40
4.0
 40
4.0
 10
129.5903672960069457
 20
21.6469129774305529
 30
0.0
 10
129.8663194444444287
 20
21.6469129774305529
 30
0.0
 10
130.0899061414930316
 20
21.8708441840277743
 30
0.0
 10
130.0899061414930316
 20
22.1471408420138864
 30
0.0
 10
130.0899061414930316
 20
22.4227484809027757
 30
0.0
 10
129.8663194444444287
 20
22.6470241970486086
 30
0.0
 10
129.5903672960069457
 20
22.6470241970486086
 30
0.0
 10
129.3140706380208087
 20
22.6470241970486086
 30
0.0
 10
129.0901394314236086
 20
22.4227484809027757
 30
0.0
 10
129.0901394314236086
 20
22.1471408420138864
 30
0.0
 10
129.0901394314236086
 20
21.8708441840277743
 30
0.0
 10
129.3140706380208087
 20
21.6469129774305529
 30
0.0
 10
129.5903672960069457
 20
21.6469129774305529
 30
0.0
  0
SPLINE
  5
9C
100
AcDbEntity
  8
DR-07_080910
390
0
 62
     7
100
AcDbSpline
210
0.0
220
0.0
230
1.0
 70
     8
 71
     3
 72
    17
 73
    13
 74
     0
 42
0.00000001
 43
0.00000001
 40
0.0
 40
0.0
 40
0.0
 40
0.0
 40
1.0
 40
1.0
 40
1.0
 40
2.0
 40
2.0
 40
2.0
 40
3.0
 40
3.0
 40
3.0
 40
4.0
 40
4.0
 40
4.0
 40
4.0
 10
131.0903618706597058
 20
21.6469129774305529
 30
0.0
 10
131.3666585286458144
 20
21.6469129774305529
 30
0.0
 10
131.5899007161458201
 20
21.8708441840277743
 30
0.0
 10
131.5899007161458201
 20
22.1471408420138864
 30
0.0
 10
131.5899007161458201
 20
22.4227484809027757
 30
0.0
 10
131.3666585286458144
 20
22.6470241970486086
 30
0.0
 10
131.0903618706597058
 20
22.6470241970486086
 30
0.0
 10
130.8140652126735972
 20
22.6470241970486086
 30
0.0
 10
130.5901340060763687
 20
22.4227484809027757
 30
0.0
 10
130.5901340060763687
 20
22.1471408420138864
 30
0.0
 10
130.5901340060763687
 20
21.8708441840277743
 30
0.0
 10
130.8140652126735972
 20
21.6469129774305529
 30
0.0
 10
131.0903618706597058
 20
21.6469129774305529
 30
0.0
  0
SPLINE
  5
9B
100
AcDbEntity
  8
DR-07_080910
390
0
 62
     7
100
AcDbSpline
210
0.0
220
0.0
230
1.0
 70
     8
 71
     3
 72
    17
 73
    13
 74
     0
 42
0.00000001
 43
0.00000001
 40
0.0
 40
0.0
 40
0.0
 40
0.0
 40
1.0
 40
1.0
 40
1.0
 40
2.0
 40
2.0
 40
2.0
 40
3.0
 40
3.0
 40
3.0
 40
4.0
 40
4.0
 40
4.0
 40
4.0
 10
132.5903564453124943
 20
21.6469129774305529
 30
0.0
 10
132.8666531032986029
 20
21.6469129774305529
 30
0.0
 10
133.0902398003472058
 20
21.8708441840277743
 30
0.0
 10
133.0902398003472058
 20
22.1471408420138864
 30
0.0
 10
133.0902398003472058
 20
22.4227484809027757
 30
0.0
 10
132.8666531032986029
 20
22.6470241970486086
 30
0.0
 10
132.5903564453124943
 20
22.6470241970486086
 30
0.0
 10
132.3140597873263857
 20
22.6470241970486086
 30
0.0
 10
132.0904730902777544
 20
22.4227484809027757
 30
0.0
 10
132.0904730902777544
 20
22.1471408420138864
 30
0.0
 10
132.0904730902777544
 20
21.8708441840277743
 30
0.0
 10
132.3140597873263857
 20
21.6469129774305529
 30
0.0
 10
132.5903564453124943
 20
21.6469129774305529
 30
0.0
  0
SPLINE
  5
9A
100
AcDbEntity
  8
DR-07_080910
390
0
 62
     7
100
AcDbSpline
210
0.0
220
0.0
230
1.0
 70
     8
 71
     3
 72
    17
 73
    13
 74
     0
 42
0.00000001
 43
0.00000001
 40
0.0
 40
0.0
 40
0.0
 40
0.0
 40
1.0
 40
1.0
 40
1.0
 40
2.0
 40
2.0
 40
2.0
 40
3.0
 40
3.0
 40
3.0
 40
4.0
 40
4.0
 40
4.0
 40
4.0
 10
133.3403537326388744
 20
20.3477674696180522
 30
0.0
 10
133.6163058810763857
 20
20.3477674696180522
 30
0.0
 10
133.8402370876735858
 20
20.5713541666666657
 30
0.0
 10
133.8402370876735858
 20
20.8476508246527743
 30
0.0
 10
133.8402370876735858
 20
21.1239474826388864
 30
0.0
 10
133.6163058810763857
 20
21.3478786892361079
 30
0.0
 10
133.3403537326388744
 20
21.3478786892361079
 30
0.0
 10
133.0640570746527658
 20
21.3478786892361079
 30
0.0
 10
132.8404703776041629
 20
21.1239474826388864
 30
0.0
 10
132.8404703776041629
 20
20.8476508246527743
 30
0.0
 10
132.8404703776041629
 20
20.5713541666666657
 30
0.0
 10
133.0640570746527658
 20
20.3477674696180522
 30
0.0
 10
133.3403537326388744
 20
20.3477674696180522
 30
0.0
  0
SPLINE
  5
99
100
AcDbEntity
  8
DR-07_080910
390
0
 62
     7
100
AcDbSpline
210
0.0
220
0.0
230
1.0
 70
     8
 71
     3
 72
    11
 73
     7
 74
     0
 42
0.00000001
 43
0.00000001
 40
0.0
 40
0.0
 40
0.0
 40
0.0
 40
1.0
 40
1.0
 40
1.0
 40
2.0
 40
2.0
 40
2.0
 40
2.0
 10
134.4314154730902544
 20
21.1356608072916643
 30
0.0
 10
134.3370198567708087
 20
21.0013020833333321
 30
0.0
 10
134.3142822265624829
 20
20.8287027994791636
 30
0.0
 10
134.371470811631923
 20
20.6745347764756922
 30
0.0
 10
134.4283148871527658
 20
20.5200222439236093
 30
0.0
 10
134.557505967881923
 20
20.403922526041665
 30
0.0
 10
134.7170138888888857
 20
20.3634426540798579
 30
0.0
  0
SPLINE
  5
98
100
AcDbEntity
  8
DR-07_080910
390
0
 62
     7
100
AcDbSpline
210
0.0
220
0.0
230
1.0
 70
     8
 71
     3
 72
    11
 73
     7
 74
     0
 42
0.00000001
 43
0.00000001
 40
0.0
 40
0.0
 40
0.0
 40
0.0
 40
1.0
 40
1.0
 40
1.0
 40
2.0
 40
2.0
 40
2.0
 40
2.0
 10
133.6238850911458087
 20
22.3273193359374993
 30
0.0
 10
133.5642849392361029
 20
22.17332356770833
 30
0.0
 10
133.5842664930555372
 20
22.0003797743055536
 30
0.0
 10
133.6779730902777601
 20
21.8639539930555529
 30
0.0
 10
133.7709906684027601
 20
21.728217230902775
 30
0.0
 10
133.92498643663194
 20
21.6469129774305529
 30
0.0
 10
134.0903510199652544
 20
21.6469129774305529
 30
0.0
  0
SPLINE
  5
97
100
AcDbEntity
  8
DR-07_080910
390
0
 62
     7
100
AcDbSpline
210
0.0
220
0.0
230
1.0
 70
     8
 71
     3
 72
    17
 73
    13
 74
     0
 42
0.00000001
 43
0.00000001
 40
0.0
 40
0.0
 40
0.0
 40
0.0
 40
1.0
 40
1.0
 40
1.0
 40
2.0
 40
2.0
 40
2.0
 40
3.0
 40
3.0
 40
3.0
 40
4.0
 40
4.0
 40
4.0
 40
4.0
 10
128.0903727213541572
 20
19.048621961805555
 30
0.0
 10
128.3663248697916686
 20
19.048621961805555
 30
0.0
 10
128.5899115668402715
 20
19.2725531684027764
 30
0.0
 10
128.5899115668402715
 20
19.5488498263888886
 30
0.0
 10
128.5899115668402715
 20
19.8251464843749972
 30
0.0
 10
128.3663248697916686
 20
20.0487331814236107
 30
0.0
 10
128.0903727213541572
 20
20.0487331814236107
 30
0.0
 10
127.8140760633680486
 20
20.0487331814236107
 30
0.0
 10
127.5901448567708201
 20
19.8251464843749972
 30
0.0
 10
127.5901448567708201
 20
19.5488498263888886
 30
0.0
 10
127.5901448567708201
 20
19.2725531684027764
 30
0.0
 10
127.8140760633680486
 20
19.048621961805555
 30
0.0
 10
128.0903727213541572
 20
19.048621961805555
 30
0.0
  0
SPLINE
  5
96
100
AcDbEntity
  8
DR-07_080910
390
0
 62
     7
100
AcDbSpline
210
0.0
220
0.0
230
1.0
 70
     8
 71
     3
 72
    17
 73
    13
 74
     0
 42
0.00000001
 43
0.00000001
 40
0.0
 40
0.0
 40
0.0
 40
0.0
 40
1.0
 40
1.0
 40
1.0
 40
2.0
 40
2.0
 40
2.0
 40
3.0
 40
3.0
 40
3.0
 40
4.0
 40
4.0
 40
4.0
 40
4.0
 10
126.5903781467013829
 20
19.048621961805555
 30
0.0
 10
126.86633029513888
 20
19.048621961805555
 30
0.0
 10
127.0899169921874829
 20
19.2725531684027764
 30
0.0
 10
127.0899169921874829
 20
19.5488498263888886
 30
0.0
 10
127.0899169921874829
 20
19.8251464843749972
 30
0.0
 10
126.86633029513888
 20
20.0487331814236107
 30
0.0
 10
126.5903781467013829
 20
20.0487331814236107
 30
0.0
 10
126.3140814887152601
 20
20.0487331814236107
 30
0.0
 10
126.0904947916666572
 20
19.8251464843749972
 30
0.0
 10
126.0904947916666572
 20
19.5488498263888886
 30
0.0
 10
126.0904947916666572
 20
19.2725531684027764
 30
0.0
 10
126.3140814887152601
 20
19.048621961805555
 30
0.0
 10
126.5903781467013829
 20
19.048621961805555
 30
0.0
  0
SPLINE
  5
95
100
AcDbEntity
  8
DR-07_080910
390
0
 62
     7
100
AcDbSpline
210
0.0
220
0.0
230
1.0
 70
     8
 71
     3
 72
    17
 73
    13
 74
     0
 42
0.00000001
 43
0.00000001
 40
0.0
 40
0.0
 40
0.0
 40
0.0
 40
1.0
 40
1.0
 40
1.0
 40
2.0
 40
2.0
 40
2.0
 40
3.0
 40
3.0
 40
3.0
 40
4.0
 40
4.0
 40
4.0
 40
4.0
 10
125.0903835720485944
 20
19.048621961805555
 30
0.0
 10
125.3663357204861057
 20
19.048621961805555
 30
0.0
 10
125.5906114366319315
 20
19.2725531684027764
 30
0.0
 10
125.5906114366319315
 20
19.5488498263888886
 30
0.0
 10
125.5906114366319315
 20
19.8251464843749972
 30
0.0
 10
125.3663357204861057
 20
20.0487331814236107
 30
0.0
 10
125.0903835720485944
 20
20.0487331814236107
 30
0.0
 10
124.8140869140624858
 20
20.0487331814236107
 30
0.0
 10
124.5901557074652715
 20
19.8251464843749972
 30
0.0
 10
124.5901557074652715
 20
19.5488498263888886
 30
0.0
 10
124.5901557074652715
 20
19.2725531684027764
 30
0.0
 10
124.8140869140624858
 20
19.048621961805555
 30
0.0
 10
125.0903835720485944
 20
19.048621961805555
 30
0.0
  0
SPLINE
  5
94
100
AcDbEntity
  8
DR-07_080910
390
0
 62
     7
100
AcDbSpline
210
0.0
220
0.0
230
1.0
 70
     8
 71
     3
 72
    17
 73
    13
 74
     0
 42
0.00000001
 43
0.00000001
 40
0.0
 40
0.0
 40
0.0
 40
0.0
 40
1.0
 40
1.0
 40
1.0
 40
2.0
 40
2.0
 40
2.0
 40
3.0
 40
3.0
 40
3.0
 40
4.0
 40
4.0
 40
4.0
 40
4.0
 10
123.5900444878472086
 20
19.048621961805555
 30
0.0
 10
123.8663411458333172
 20
19.048621961805555
 30
0.0
 10
124.0906168619791572
 20
19.2725531684027764
 30
0.0
 10
124.0906168619791572
 20
19.5488498263888886
 30
0.0
 10
124.0906168619791572
 20
19.8251464843749972
 30
0.0
 10
123.8663411458333172
 20
20.0487331814236107
 30
0.0
 10
123.5900444878472086
 20
20.0487331814236107
 30
0.0
 10
123.3137478298611001
 20
20.0487331814236107
 30
0.0
 10
123.0901611328124829
 20
19.8251464843749972
 30
0.0
 10
123.0901611328124829
 20
19.5488498263888886
 30
0.0
 10
123.0901611328124829
 20
19.2725531684027764
 30
0.0
 10
123.3137478298611001
 20
19.048621961805555
 30
0.0
 10
123.5900444878472086
 20
19.048621961805555
 30
0.0
  0
SPLINE
  5
93
100
AcDbEntity
  8
DR-07_080910
390
0
 62
     7
100
AcDbSpline
210
0.0
220
0.0
230
1.0
 70
     8
 71
     3
 72
    17
 73
    13
 74
     0
 42
0.00000001
 43
0.00000001
 40
0.0
 40
0.0
 40
0.0
 40
0.0
 40
1.0
 40
1.0
 40
1.0
 40
2.0
 40
2.0
 40
2.0
 40
3.0
 40
3.0
 40
3.0
 40
4.0
 40
4.0
 40
4.0
 40
4.0
 10
129.5903672960069457
 20
19.048621961805555
 30
0.0
 10
129.8663194444444287
 20
19.048621961805555
 30
0.0
 10
130.0899061414930316
 20
19.2725531684027764
 30
0.0
 10
130.0899061414930316
 20
19.5488498263888886
 30
0.0
 10
130.0899061414930316
 20
19.8251464843749972
 30
0.0
 10
129.8663194444444287
 20
20.0487331814236107
 30
0.0
 10
129.5903672960069457
 20
20.0487331814236107
 30
0.0
 10
129.3140706380208087
 20
20.0487331814236107
 30
0.0
 10
129.0901394314236086
 20
19.8251464843749972
 30
0.0
 10
129.0901394314236086
 20
19.5488498263888886
 30
0.0
 10
129.0901394314236086
 20
19.2725531684027764
 30
0.0
 10
129.3140706380208087
 20
19.048621961805555
 30
0.0
 10
129.5903672960069457
 20
19.048621961805555
 30
0.0
  0
SPLINE
  5
92
100
AcDbEntity
  8
DR-07_080910
390
0
 62
     7
100
AcDbSpline
210
0.0
220
0.0
230
1.0
 70
     8
 71
     3
 72
    17
 73
    13
 74
     0
 42
0.00000001
 43
0.00000001
 40
0.0
 40
0.0
 40
0.0
 40
0.0
 40
1.0
 40
1.0
 40
1.0
 40
2.0
 40
2.0
 40
2.0
 40
3.0
 40
3.0
 40
3.0
 40
4.0
 40
4.0
 40
4.0
 40
4.0
 10
131.0903618706597058
 20
19.048621961805555
 30
0.0
 10
131.3666585286458144
 20
19.048621961805555
 30
0.0
 10
131.5899007161458201
 20
19.2725531684027764
 30
0.0
 10
131.5899007161458201
 20
19.5488498263888886
 30
0.0
 10
131.5899007161458201
 20
19.8251464843749972
 30
0.0
 10
131.3666585286458144
 20
20.0487331814236107
 30
0.0
 10
131.0903618706597058
 20
20.0487331814236107
 30
0.0
 10
130.8140652126735972
 20
20.0487331814236107
 30
0.0
 10
130.5901340060763687
 20
19.8251464843749972
 30
0.0
 10
130.5901340060763687
 20
19.5488498263888886
 30
0.0
 10
130.5901340060763687
 20
19.2725531684027764
 30
0.0
 10
130.8140652126735972
 20
19.048621961805555
 30
0.0
 10
131.0903618706597058
 20
19.048621961805555
 30
0.0
  0
SPLINE
  5
91
100
AcDbEntity
  8
DR-07_080910
390
0
 62
     7
100
AcDbSpline
210
0.0
220
0.0
230
1.0
 70
     8
 71
     3
 72
    17
 73
    13
 74
     0
 42
0.00000001
 43
0.00000001
 40
0.0
 40
0.0
 40
0.0
 40
0.0
 40
1.0
 40
1.0
 40
1.0
 40
2.0
 40
2.0
 40
2.0
 40
3.0
 40
3.0
 40
3.0
 40
4.0
 40
4.0
 40
4.0
 40
4.0
 10
132.5903564453124943
 20
19.048621961805555
 30
0.0
 10
132.8666531032986029
 20
19.048621961805555
 30
0.0
 10
133.0902398003472058
 20
19.2725531684027764
 30
0.0
 10
133.0902398003472058
 20
19.5488498263888886
 30
0.0
 10
133.0902398003472058
 20
19.8251464843749972
 30
0.0
 10
132.8666531032986029
 20
20.0487331814236107
 30
0.0
 10
132.5903564453124943
 20
20.0487331814236107
 30
0.0
 10
132.3140597873263857
 20
20.0487331814236107
 30
0.0
 10
132.0904730902777544
 20
19.8251464843749972
 30
0.0
 10
132.0904730902777544
 20
19.5488498263888886
 30
0.0
 10
132.0904730902777544
 20
19.2725531684027764
 30
0.0
 10
132.3140597873263857
 20
19.048621961805555
 30
0.0
 10
132.5903564453124943
 20
19.048621961805555
 30
0.0
  0
SPLINE
  5
90
100
AcDbEntity
  8
DR-07_080910
390
0
 62
     7
100
AcDbSpline
210
0.0
220
0.0
230
1.0
 70
     8
 71
     3
 72
    17
 73
    13
 74
     0
 42
0.00000001
 43
0.00000001
 40
0.0
 40
0.0
 40
0.0
 40
0.0
 40
1.0
 40
1.0
 40
1.0
 40
2.0
 40
2.0
 40
2.0
 40
3.0
 40
3.0
 40
3.0
 40
4.0
 40
4.0
 40
4.0
 40
4.0
 10
134.0903510199652544
 20
19.048621961805555
 30
0.0
 10
134.366647677951363
 20
19.048621961805555
 30
0.0
 10
134.5902343749999943
 20
19.2725531684027764
 30
0.0
 10
134.5902343749999943
 20
19.5488498263888886
 30
0.0
 10
134.5902343749999943
 20
19.8251464843749972
 30
0.0
 10
134.366647677951363
 20
20.0487331814236107
 30
0.0
 10
134.0903510199652544
 20
20.0487331814236107
 30
0.0
 10
133.8140543619791458
 20
20.0487331814236107
 30
0.0
 10
133.5904676649305429
 20
19.8251464843749972
 30
0.0
 10
133.5904676649305429
 20
19.5488498263888886
 30
0.0
 10
133.5904676649305429
 20
19.2725531684027764
 30
0.0
 10
133.8140543619791458
 20
19.048621961805555
 30
0.0
 10
134.0903510199652544
 20
19.048621961805555
 30
0.0
  0
SPLINE
  5
8F
100
AcDbEntity
  8
DR-07_080910
390
0
 62
     7
100
AcDbSpline
210
0.0
220
0.0
230
1.0
 70
     8
 71
     3
 72
    17
 73
    13
 74
     0
 42
0.00000001
 43
0.00000001
 40
0.0
 40
0.0
 40
0.0
 40
0.0
 40
1.0
 40
1.0
 40
1.0
 40
2.0
 40
2.0
 40
2.0
 40
3.0
 40
3.0
 40
3.0
 40
4.0
 40
4.0
 40
4.0
 40
4.0
 10
127.3400309244791515
 20
17.7494764539930543
 30
0.0
 10
127.6163275824652601
 20
17.7494764539930543
 30
0.0
 10
127.8402587890624886
 20
17.9737521701388872
 30
0.0
 10
127.8402587890624886
 20
18.2498765733506936
 30
0.0
 10
127.8402587890624886
 20
18.5256564670138886
 30
0.0
 10
127.6163275824652601
 20
18.7499321831597214
 30
0.0
 10
127.3400309244791515
 20
18.7499321831597214
 30
0.0
 10
127.0640787760416544
 20
18.7499321831597214
 30
0.0
 10
126.8404920789930372
 20
18.5256564670138886
 30
0.0
 10
126.8404920789930372
 20
18.2498765733506936
 30
0.0
 10
126.8404920789930372
 20
17.9737521701388872
 30
0.0
 10
127.0640787760416544
 20
17.7494764539930543
 30
0.0
 10
127.3400309244791515
 20
17.7494764539930543
 30
0.0
  0
SPLINE
  5
8E
100
AcDbEntity
  8
DR-07_080910
390
0
 62
     7
100
AcDbSpline
210
0.0
220
0.0
230
1.0
 70
     8
 71
     3
 72
    17
 73
    13
 74
     0
 42
0.00000001
 43
0.00000001
 40
0.0
 40
0.0
 40
0.0
 40
0.0
 40
1.0
 40
1.0
 40
1.0
 40
2.0
 40
2.0
 40
2.0
 40
3.0
 40
3.0
 40
3.0
 40
4.0
 40
4.0
 40
4.0
 40
4.0
 10
128.0903727213541572
 20
16.4508477105034707
 30
0.0
 10
128.3663248697916686
 20
16.4508477105034707
 30
0.0
 10
128.5899115668402715
 20
16.6747789171006922
 30
0.0
 10
128.5899115668402715
 20
16.9505588107638872
 30
0.0
 10
128.5899115668402715
 20
17.2268554687499993
 30
0.0
 10
128.3663248697916686
 20
17.4507866753472207
 30
0.0
 10
128.0903727213541572
 20
17.4507866753472207
 30
0.0
 10
127.8140760633680486
 20
17.4507866753472207
 30
0.0
 10
127.5901448567708201
 20
17.2268554687499993
 30
0.0
 10
127.5901448567708201
 20
16.9505588107638872
 30
0.0
 10
127.5901448567708201
 20
16.6747789171006922
 30
0.0
 10
127.8140760633680486
 20
16.4508477105034707
 30
0.0
 10
128.0903727213541572
 20
16.4508477105034707
 30
0.0
  0
SPLINE
  5
8D
100
AcDbEntity
  8
DR-07_080910
390
0
 62
     7
100
AcDbSpline
210
0.0
220
0.0
230
1.0
 70
     8
 71
     3
 72
    17
 73
    13
 74
     0
 42
0.00000001
 43
0.00000001
 40
0.0
 40
0.0
 40
0.0
 40
0.0
 40
1.0
 40
1.0
 40
1.0
 40
2.0
 40
2.0
 40
2.0
 40
3.0
 40
3.0
 40
3.0
 40
4.0
 40
4.0
 40
4.0
 40
4.0
 10
126.5903781467013829
 20
16.4508477105034707
 30
0.0
 10
126.86633029513888
 20
16.4508477105034707
 30
0.0
 10
127.0899169921874829
 20
16.6747789171006922
 30
0.0
 10
127.0899169921874829
 20
16.9505588107638872
 30
0.0
 10
127.0899169921874829
 20
17.2268554687499993
 30
0.0
 10
126.86633029513888
 20
17.4507866753472207
 30
0.0
 10
126.5903781467013829
 20
17.4507866753472207
 30
0.0
 10
126.3140814887152601
 20
17.4507866753472207
 30
0.0
 10
126.0904947916666572
 20
17.2268554687499993
 30
0.0
 10
126.0904947916666572
 20
16.9505588107638872
 30
0.0
 10
126.0904947916666572
 20
16.6747789171006922
 30
0.0
 10
126.3140814887152601
 20
16.4508477105034707
 30
0.0
 10
126.5903781467013829
 20
16.4508477105034707
 30
0.0
  0
SPLINE
  5
8C
100
AcDbEntity
  8
DR-07_080910
390
0
 62
     7
100
AcDbSpline
210
0.0
220
0.0
230
1.0
 70
     8
 71
     3
 72
    17
 73
    13
 74
     0
 42
0.00000001
 43
0.00000001
 40
0.0
 40
0.0
 40
0.0
 40
0.0
 40
1.0
 40
1.0
 40
1.0
 40
2.0
 40
2.0
 40
2.0
 40
3.0
 40
3.0
 40
3.0
 40
4.0
 40
4.0
 40
4.0
 40
4.0
 10
125.8400363498263772
 20
17.7494764539930543
 30
0.0
 10
126.1163330078124858
 20
17.7494764539930543
 30
0.0
 10
126.3402642144097143
 20
17.9737521701388872
 30
0.0
 10
126.3402642144097143
 20
18.2498765733506936
 30
0.0
 10
126.3402642144097143
 20
18.5256564670138886
 30
0.0
 10
126.1163330078124858
 20
18.7499321831597214
 30
0.0
 10
125.8400363498263772
 20
18.7499321831597214
 30
0.0
 10
125.56408420138888
 20
18.7499321831597214
 30
0.0
 10
125.3404975043402629
 20
18.5256564670138886
 30
0.0
 10
125.3404975043402629
 20
18.2498765733506936
 30
0.0
 10
125.3404975043402629
 20
17.9737521701388872
 30
0.0
 10
125.56408420138888
 20
17.7494764539930543
 30
0.0
 10
125.8400363498263772
 20
17.7494764539930543
 30
0.0
  0
SPLINE
  5
8B
100
AcDbEntity
  8
DR-07_080910
390
0
 62
     7
100
AcDbSpline
210
0.0
220
0.0
230
1.0
 70
     8
 71
     3
 72
    17
 73
    13
 74
     0
 42
0.00000001
 43
0.00000001
 40
0.0
 40
0.0
 40
0.0
 40
0.0
 40
1.0
 40
1.0
 40
1.0
 40
2.0
 40
2.0
 40
2.0
 40
3.0
 40
3.0
 40
3.0
 40
4.0
 40
4.0
 40
4.0
 40
4.0
 10
124.3400417751736029
 20
17.7494764539930543
 30
0.0
 10
124.6163384331597115
 20
17.7494764539930543
 30
0.0
 10
124.84026963975694
 20
17.9737521701388872
 30
0.0
 10
124.84026963975694
 20
18.2498765733506936
 30
0.0
 10
124.84026963975694
 20
18.5256564670138886
 30
0.0
 10
124.6163384331597115
 20
18.7499321831597214
 30
0.0
 10
124.3400417751736029
 20
18.7499321831597214
 30
0.0
 10
124.0637451171874943
 20
18.7499321831597214
 30
0.0
 10
123.8405029296874886
 20
18.5256564670138886
 30
0.0
 10
123.8405029296874886
 20
18.2498765733506936
 30
0.0
 10
123.8405029296874886
 20
17.9737521701388872
 30
0.0
 10
124.0637451171874943
 20
17.7494764539930543
 30
0.0
 10
124.3400417751736029
 20
17.7494764539930543
 30
0.0
  0
SPLINE
  5
8A
100
AcDbEntity
  8
DR-07_080910
390
0
 62
     7
100
AcDbSpline
210
0.0
220
0.0
230
1.0
 70
     8
 71
     3
 72
    17
 73
    13
 74
     0
 42
0.00000001
 43
0.00000001
 40
0.0
 40
0.0
 40
0.0
 40
0.0
 40
1.0
 40
1.0
 40
1.0
 40
2.0
 40
2.0
 40
2.0
 40
3.0
 40
3.0
 40
3.0
 40
4.0
 40
4.0
 40
4.0
 40
4.0
 10
125.0903835720485944
 20
16.4508477105034707
 30
0.0
 10
125.3663357204861057
 20
16.4508477105034707
 30
0.0
 10
125.5906114366319315
 20
16.6747789171006922
 30
0.0
 10
125.5906114366319315
 20
16.9505588107638872
 30
0.0
 10
125.5906114366319315
 20
17.2268554687499993
 30
0.0
 10
125.3663357204861057
 20
17.4507866753472207
 30
0.0
 10
125.0903835720485944
 20
17.4507866753472207
 30
0.0
 10
124.8140869140624858
 20
17.4507866753472207
 30
0.0
 10
124.5901557074652715
 20
17.2268554687499993
 30
0.0
 10
124.5901557074652715
 20
16.9505588107638872
 30
0.0
 10
124.5901557074652715
 20
16.6747789171006922
 30
0.0
 10
124.8140869140624858
 20
16.4508477105034707
 30
0.0
 10
125.0903835720485944
 20
16.4508477105034707
 30
0.0
  0
SPLINE
  5
89
100
AcDbEntity
  8
DR-07_080910
390
0
 62
     7
100
AcDbSpline
210
0.0
220
0.0
230
1.0
 70
     8
 71
     3
 72
    17
 73
    13
 74
     0
 42
0.00000001
 43
0.00000001
 40
0.0
 40
0.0
 40
0.0
 40
0.0
 40
1.0
 40
1.0
 40
1.0
 40
2.0
 40
2.0
 40
2.0
 40
3.0
 40
3.0
 40
3.0
 40
4.0
 40
4.0
 40
4.0
 40
4.0
 10
123.5900444878472086
 20
16.4508477105034707
 30
0.0
 10
123.8663411458333172
 20
16.4508477105034707
 30
0.0
 10
124.0906168619791572
 20
16.6747789171006922
 30
0.0
 10
124.0906168619791572
 20
16.9505588107638872
 30
0.0
 10
124.0906168619791572
 20
17.2268554687499993
 30
0.0
 10
123.8663411458333172
 20
17.4507866753472207
 30
0.0
 10
123.5900444878472086
 20
17.4507866753472207
 30
0.0
 10
123.3137478298611001
 20
17.4507866753472207
 30
0.0
 10
123.0901611328124829
 20
17.2268554687499993
 30
0.0
 10
123.0901611328124829
 20
16.9505588107638872
 30
0.0
 10
123.0901611328124829
 20
16.6747789171006922
 30
0.0
 10
123.3137478298611001
 20
16.4508477105034707
 30
0.0
 10
123.5900444878472086
 20
16.4508477105034707
 30
0.0
  0
SPLINE
  5
88
100
AcDbEntity
  8
DR-07_080910
390
0
 62
     7
100
AcDbSpline
210
0.0
220
0.0
230
1.0
 70
     8
 71
     3
 72
    14
 73
    10
 74
     0
 42
0.00000001
 43
0.00000001
 40
0.0
 40
0.0
 40
0.0
 40
0.0
 40
1.0
 40
1.0
 40
1.0
 40
2.0
 40
2.0
 40
2.0
 40
3.0
 40
3.0
 40
3.0
 40
3.0
 10
122.5902777777777715
 20
17.8166558159722221
 30
0.0
 10
122.8007731119791544
 20
17.69538845486111
 30
0.0
 10
123.0674235026041572
 20
17.7425862630208329
 30
0.0
 10
123.22314181857638
 20
17.9286214192708329
 30
0.0
 10
123.3792046440972143
 20
18.1146565755208329
 30
0.0
 10
123.3792046440972143
 20
18.3854410807291657
 30
0.0
 10
123.22314181857638
 20
18.5711317274305543
 30
0.0
 10
123.0674235026041572
 20
18.7571668836805543
 30
0.0
 10
122.8007731119791544
 20
18.8040201822916657
 30
0.0
 10
122.5902777777777715
 20
18.683097330729165
 30
0.0
  0
SPLINE
  5
87
100
AcDbEntity
  8
DR-07_080910
390
0
 62
     7
100
AcDbSpline
210
0.0
220
0.0
230
1.0
 70
     8
 71
     3
 72
    17
 73
    13
 74
     0
 42
0.00000001
 43
0.00000001
 40
0.0
 40
0.0
 40
0.0
 40
0.0
 40
1.0
 40
1.0
 40
1.0
 40
2.0
 40
2.0
 40
2.0
 40
3.0
 40
3.0
 40
3.0
 40
4.0
 40
4.0
 40
4.0
 40
4.0
 10
128.84002549913194
 20
11.9496582031249989
 30
0.0
 10
132.3195719401041686
 20
11.9496582031249989
 30
0.0
 10
135.1404161241319457
 20
14.7705023871527761
 30
0.0
 10
135.1404161241319457
 20
18.2498765733506936
 30
0.0
 10
135.1404161241319457
 20
21.7292507595486093
 30
0.0
 10
132.3195719401041686
 20
24.5499226888020807
 30
0.0
 10
128.84002549913194
 20
24.5499226888020807
 30
0.0
 10
125.3604790581597115
 20
24.5499226888020807
 30
0.0
 10
122.5403238932291572
 20
21.7292507595486093
 30
0.0
 10
122.5403238932291572
 20
18.2498765733506936
 30
0.0
 10
122.5403238932291572
 20
14.7705023871527761
 30
0.0
 10
125.3604790581597115
 20
11.9496582031249989
 30
0.0
 10
128.84002549913194
 20
11.9496582031249989
 30
0.0
  0
SPLINE
  5
86
100
AcDbEntity
  8
DR-07_080910
390
0
 62
     7
100
AcDbSpline
210
0.0
220
0.0
230
1.0
 70
     8
 71
     3
 72
    17
 73
    13
 74
     0
 42
0.00000001
 43
0.00000001
 40
0.0
 40
0.0
 40
0.0
 40
0.0
 40
1.0
 40
1.0
 40
1.0
 40
2.0
 40
2.0
 40
2.0
 40
3.0
 40
3.0
 40
3.0
 40
4.0
 40
4.0
 40
4.0
 40
4.0
 10
128.84002549913194
 20
17.7494764539930543
 30
0.0
 10
129.1163221571180486
 20
17.7494764539930543
 30
0.0
 10
129.3402533637152771
 20
17.9737521701388872
 30
0.0
 10
129.3402533637152771
 20
18.2498765733506936
 30
0.0
 10
129.3402533637152771
 20
18.5256564670138886
 30
0.0
 10
129.1163221571180486
 20
18.7499321831597214
 30
0.0
 10
128.84002549913194
 20
18.7499321831597214
 30
0.0
 10
128.5640733506944287
 20
18.7499321831597214
 30
0.0
 10
128.3404866536458258
 20
18.5256564670138886
 30
0.0
 10
128.3404866536458258
 20
18.2498765733506936
 30
0.0
 10
128.3404866536458258
 20
17.9737521701388872
 30
0.0
 10
128.5640733506944287
 20
17.7494764539930543
 30
0.0
 10
128.84002549913194
 20
17.7494764539930543
 30
0.0
  0
SPLINE
  5
85
100
AcDbEntity
  8
DR-07_080910
390
0
 62
     7
100
AcDbSpline
210
0.0
220
0.0
230
1.0
 70
     8
 71
     3
 72
    17
 73
    13
 74
     0
 42
0.00000001
 43
0.00000001
 40
0.0
 40
0.0
 40
0.0
 40
0.0
 40
1.0
 40
1.0
 40
1.0
 40
2.0
 40
2.0
 40
2.0
 40
3.0
 40
3.0
 40
3.0
 40
4.0
 40
4.0
 40
4.0
 40
4.0
 10
130.3400200737847001
 20
17.7494764539930543
 30
0.0
 10
130.6163167317708087
 20
17.7494764539930543
 30
0.0
 10
130.8402479383680372
 20
17.9737521701388872
 30
0.0
 10
130.8402479383680372
 20
18.2498765733506936
 30
0.0
 10
130.8402479383680372
 20
18.5256564670138886
 30
0.0
 10
130.6163167317708087
 20
18.7499321831597214
 30
0.0
 10
130.3400200737847001
 20
18.7499321831597214
 30
0.0
 10
130.0640679253472172
 20
18.7499321831597214
 30
0.0
 10
129.8401367187499886
 20
18.5256564670138886
 30
0.0
 10
129.8401367187499886
 20
18.2498765733506936
 30
0.0
 10
129.8401367187499886
 20
17.9737521701388872
 30
0.0
 10
130.0640679253472172
 20
17.7494764539930543
 30
0.0
 10
130.3400200737847001
 20
17.7494764539930543
 30
0.0
  0
SPLINE
  5
84
100
AcDbEntity
  8
DR-07_080910
390
0
 62
     7
100
AcDbSpline
210
0.0
220
0.0
230
1.0
 70
     8
 71
     3
 72
    17
 73
    13
 74
     0
 42
0.00000001
 43
0.00000001
 40
0.0
 40
0.0
 40
0.0
 40
0.0
 40
1.0
 40
1.0
 40
1.0
 40
2.0
 40
2.0
 40
2.0
 40
3.0
 40
3.0
 40
3.0
 40
4.0
 40
4.0
 40
4.0
 40
4.0
 10
129.5903672960069457
 20
16.4508477105034707
 30
0.0
 10
129.8663194444444287
 20
16.4508477105034707
 30
0.0
 10
130.0899061414930316
 20
16.6747789171006922
 30
0.0
 10
130.0899061414930316
 20
16.9505588107638872
 30
0.0
 10
130.0899061414930316
 20
17.2268554687499993
 30
0.0
 10
129.8663194444444287
 20
17.4507866753472207
 30
0.0
 10
129.5903672960069457
 20
17.4507866753472207
 30
0.0
 10
129.3140706380208087
 20
17.4507866753472207
 30
0.0
 10
129.0901394314236086
 20
17.2268554687499993
 30
0.0
 10
129.0901394314236086
 20
16.9505588107638872
 30
0.0
 10
129.0901394314236086
 20
16.6747789171006922
 30
0.0
 10
129.3140706380208087
 20
16.4508477105034707
 30
0.0
 10
129.5903672960069457
 20
16.4508477105034707
 30
0.0
  0
SPLINE
  5
83
100
AcDbEntity
  8
DR-07_080910
390
0
 62
     7
100
AcDbSpline
210
0.0
220
0.0
230
1.0
 70
     8
 71
     3
 72
    17
 73
    13
 74
     0
 42
0.00000001
 43
0.00000001
 40
0.0
 40
0.0
 40
0.0
 40
0.0
 40
1.0
 40
1.0
 40
1.0
 40
2.0
 40
2.0
 40
2.0
 40
3.0
 40
3.0
 40
3.0
 40
4.0
 40
4.0
 40
4.0
 40
4.0
 10
131.0903618706597058
 20
16.4508477105034707
 30
0.0
 10
131.3666585286458144
 20
16.4508477105034707
 30
0.0
 10
131.5899007161458201
 20
16.6747789171006922
 30
0.0
 10
131.5899007161458201
 20
16.9505588107638872
 30
0.0
 10
131.5899007161458201
 20
17.2268554687499993
 30
0.0
 10
131.3666585286458144
 20
17.4507866753472207
 30
0.0
 10
131.0903618706597058
 20
17.4507866753472207
 30
0.0
 10
130.8140652126735972
 20
17.4507866753472207
 30
0.0
 10
130.5901340060763687
 20
17.2268554687499993
 30
0.0
 10
130.5901340060763687
 20
16.9505588107638872
 30
0.0
 10
130.5901340060763687
 20
16.6747789171006922
 30
0.0
 10
130.8140652126735972
 20
16.4508477105034707
 30
0.0
 10
131.0903618706597058
 20
16.4508477105034707
 30
0.0
  0
SPLINE
  5
82
100
AcDbEntity
  8
DR-07_080910
390
0
 62
     7
100
AcDbSpline
210
0.0
220
0.0
230
1.0
 70
     8
 71
     3
 72
    17
 73
    13
 74
     0
 42
0.00000001
 43
0.00000001
 40
0.0
 40
0.0
 40
0.0
 40
0.0
 40
1.0
 40
1.0
 40
1.0
 40
2.0
 40
2.0
 40
2.0
 40
3.0
 40
3.0
 40
3.0
 40
4.0
 40
4.0
 40
4.0
 40
4.0
 10
131.8400146484374886
 20
17.7494764539930543
 30
0.0
 10
132.1163113064235972
 20
17.7494764539930543
 30
0.0
 10
132.3402425130208258
 20
17.9737521701388872
 30
0.0
 10
132.3402425130208258
 20
18.2498765733506936
 30
0.0
 10
132.3402425130208258
 20
18.5256564670138886
 30
0.0
 10
132.1163113064235972
 20
18.7499321831597214
 30
0.0
 10
131.8400146484374886
 20
18.7499321831597214
 30
0.0
 10
131.5640624999999773
 20
18.7499321831597214
 30
0.0
 10
131.3404758029513744
 20
18.5256564670138886
 30
0.0
 10
131.3404758029513744
 20
18.2498765733506936
 30
0.0
 10
131.3404758029513744
 20
17.9737521701388872
 30
0.0
 10
131.5640624999999773
 20
17.7494764539930543
 30
0.0
 10
131.8400146484374886
 20
17.7494764539930543
 30
0.0
  0
SPLINE
  5
81
100
AcDbEntity
  8
DR-07_080910
390
0
 62
     7
100
AcDbSpline
210
0.0
220
0.0
230
1.0
 70
     8
 71
     3
 72
    17
 73
    13
 74
     0
 42
0.00000001
 43
0.00000001
 40
0.0
 40
0.0
 40
0.0
 40
0.0
 40
1.0
 40
1.0
 40
1.0
 40
2.0
 40
2.0
 40
2.0
 40
3.0
 40
3.0
 40
3.0
 40
4.0
 40
4.0
 40
4.0
 40
4.0
 10
133.3403537326388744
 20
17.7494764539930543
 30
0.0
 10
133.6163058810763857
 20
17.7494764539930543
 30
0.0
 10
133.8402370876735858
 20
17.9737521701388872
 30
0.0
 10
133.8402370876735858
 20
18.2498765733506936
 30
0.0
 10
133.8402370876735858
 20
18.5256564670138886
 30
0.0
 10
133.6163058810763857
 20
18.7499321831597214
 30
0.0
 10
133.3403537326388744
 20
18.7499321831597214
 30
0.0
 10
133.0640570746527658
 20
18.7499321831597214
 30
0.0
 10
132.8404703776041629
 20
18.5256564670138886
 30
0.0
 10
132.8404703776041629
 20
18.2498765733506936
 30
0.0
 10
132.8404703776041629
 20
17.9737521701388872
 30
0.0
 10
133.0640570746527658
 20
17.7494764539930543
 30
0.0
 10
133.3403537326388744
 20
17.7494764539930543
 30
0.0
  0
SPLINE
  5
80
100
AcDbEntity
  8
DR-07_080910
390
0
 62
     7
100
AcDbSpline
210
0.0
220
0.0
230
1.0
 70
     8
 71
     3
 72
    17
 73
    13
 74
     0
 42
0.00000001
 43
0.00000001
 40
0.0
 40
0.0
 40
0.0
 40
0.0
 40
1.0
 40
1.0
 40
1.0
 40
2.0
 40
2.0
 40
2.0
 40
3.0
 40
3.0
 40
3.0
 40
4.0
 40
4.0
 40
4.0
 40
4.0
 10
132.5903564453124943
 20
16.4508477105034707
 30
0.0
 10
132.8666531032986029
 20
16.4508477105034707
 30
0.0
 10
133.0902398003472058
 20
16.6747789171006922
 30
0.0
 10
133.0902398003472058
 20
16.9505588107638872
 30
0.0
 10
133.0902398003472058
 20
17.2268554687499993
 30
0.0
 10
132.8666531032986029
 20
17.4507866753472207
 30
0.0
 10
132.5903564453124943
 20
17.4507866753472207
 30
0.0
 10
132.3140597873263857
 20
17.4507866753472207
 30
0.0
 10
132.0904730902777544
 20
17.2268554687499993
 30
0.0
 10
132.0904730902777544
 20
16.9505588107638872
 30
0.0
 10
132.0904730902777544
 20
16.6747789171006922
 30
0.0
 10
132.3140597873263857
 20
16.4508477105034707
 30
0.0
 10
132.5903564453124943
 20
16.4508477105034707
 30
0.0
  0
SPLINE
  5
7F
100
AcDbEntity
  8
DR-07_080910
390
0
 62
     7
100
AcDbSpline
210
0.0
220
0.0
230
1.0
 70
     8
 71
     3
 72
    17
 73
    13
 74
     0
 42
0.00000001
 43
0.00000001
 40
0.0
 40
0.0
 40
0.0
 40
0.0
 40
1.0
 40
1.0
 40
1.0
 40
2.0
 40
2.0
 40
2.0
 40
3.0
 40
3.0
 40
3.0
 40
4.0
 40
4.0
 40
4.0
 40
4.0
 10
134.0903510199652544
 20
16.4508477105034707
 30
0.0
 10
134.366647677951363
 20
16.4508477105034707
 30
0.0
 10
134.5902343749999943
 20
16.6747789171006922
 30
0.0
 10
134.5902343749999943
 20
16.9505588107638872
 30
0.0
 10
134.5902343749999943
 20
17.2268554687499993
 30
0.0
 10
134.366647677951363
 20
17.4507866753472207
 30
0.0
 10
134.0903510199652544
 20
17.4507866753472207
 30
0.0
 10
133.8140543619791458
 20
17.4507866753472207
 30
0.0
 10
133.5904676649305429
 20
17.2268554687499993
 30
0.0
 10
133.5904676649305429
 20
16.9505588107638872
 30
0.0
 10
133.5904676649305429
 20
16.6747789171006922
 30
0.0
 10
133.8140543619791458
 20
16.4508477105034707
 30
0.0
 10
134.0903510199652544
 20
16.4508477105034707
 30
0.0
  0
SPLINE
  5
7E
100
AcDbEntity
  8
DR-07_080910
390
0
 62
     7
100
AcDbSpline
210
0.0
220
0.0
230
1.0
 70
     8
 71
     3
 72
    14
 73
    10
 74
     0
 42
0.00000001
 43
0.00000001
 40
0.0
 40
0.0
 40
0.0
 40
0.0
 40
1.0
 40
1.0
 40
1.0
 40
2.0
 40
2.0
 40
2.0
 40
3.0
 40
3.0
 40
3.0
 40
3.0
 10
135.0901177300347058
 20
18.6827528211805536
 30
0.0
 10
134.8799669053819343
 20
18.8040201822916657
 30
0.0
 10
134.6129720052083201
 20
18.7568223741319429
 30
0.0
 10
134.4572536892360972
 20
18.5711317274305543
 30
0.0
 10
134.3011908637152771
 20
18.3854410807291657
 30
0.0
 10
134.3011908637152771
 20
18.1146565755208329
 30
0.0
 10
134.4572536892360972
 20
17.9286214192708329
 30
0.0
 10
134.6129720052083201
 20
17.7425862630208329
 30
0.0
 10
134.8803114149305316
 20
17.6957329644097214
 30
0.0
 10
135.0901177300347058
 20
17.8166558159722221
 30
0.0
  0
SPLINE
  5
7D
100
AcDbEntity
  8
DR-07_080910
390
0
 62
     7
100
AcDbSpline
210
0.0
220
0.0
230
1.0
 70
     8
 71
     3
 72
    17
 73
    13
 74
     0
 42
0.00000001
 43
0.00000001
 40
0.0
 40
0.0
 40
0.0
 40
0.0
 40
1.0
 40
1.0
 40
1.0
 40
2.0
 40
2.0
 40
2.0
 40
3.0
 40
3.0
 40
3.0
 40
4.0
 40
4.0
 40
4.0
 40
4.0
 10
127.3400309244791515
 20
15.1518744574652757
 30
0.0
 10
127.6163275824652601
 20
15.1518744574652757
 30
0.0
 10
127.8402587890624886
 20
15.3754611545138875
 30
0.0
 10
127.8402587890624886
 20
15.6517578124999979
 30
0.0
 10
127.8402587890624886
 20
15.9278822157118043
 30
0.0
 10
127.6163275824652601
 20
16.15164116753472
 30
0.0
 10
127.3400309244791515
 20
16.15164116753472
 30
0.0
 10
127.0640787760416544
 20
16.15164116753472
 30
0.0
 10
126.8404920789930372
 20
15.9278822157118043
 30
0.0
 10
126.8404920789930372
 20
15.6517578124999979
 30
0.0
 10
126.8404920789930372
 20
15.3754611545138875
 30
0.0
 10
127.0640787760416544
 20
15.1518744574652757
 30
0.0
 10
127.3400309244791515
 20
15.1518744574652757
 30
0.0
  0
SPLINE
  5
7C
100
AcDbEntity
  8
DR-07_080910
390
0
 62
     7
100
AcDbSpline
210
0.0
220
0.0
230
1.0
 70
     8
 71
     3
 72
    17
 73
    13
 74
     0
 42
0.00000001
 43
0.00000001
 40
0.0
 40
0.0
 40
0.0
 40
0.0
 40
1.0
 40
1.0
 40
1.0
 40
2.0
 40
2.0
 40
2.0
 40
3.0
 40
3.0
 40
3.0
 40
4.0
 40
4.0
 40
4.0
 40
4.0
 10
125.8400363498263772
 20
15.1518744574652757
 30
0.0
 10
126.1163330078124858
 20
15.1518744574652757
 30
0.0
 10
126.3402642144097143
 20
15.3754611545138875
 30
0.0
 10
126.3402642144097143
 20
15.6517578124999979
 30
0.0
 10
126.3402642144097143
 20
15.9278822157118043
 30
0.0
 10
126.1163330078124858
 20
16.15164116753472
 30
0.0
 10
125.8400363498263772
 20
16.15164116753472
 30
0.0
 10
125.56408420138888
 20
16.15164116753472
 30
0.0
 10
125.3404975043402629
 20
15.9278822157118043
 30
0.0
 10
125.3404975043402629
 20
15.6517578124999979
 30
0.0
 10
125.3404975043402629
 20
15.3754611545138875
 30
0.0
 10
125.56408420138888
 20
15.1518744574652757
 30
0.0
 10
125.8400363498263772
 20
15.1518744574652757
 30
0.0
  0
SPLINE
  5
7B
100
AcDbEntity
  8
DR-07_080910
390
0
 62
     7
100
AcDbSpline
210
0.0
220
0.0
230
1.0
 70
     8
 71
     3
 72
    17
 73
    13
 74
     0
 42
0.00000001
 43
0.00000001
 40
0.0
 40
0.0
 40
0.0
 40
0.0
 40
1.0
 40
1.0
 40
1.0
 40
2.0
 40
2.0
 40
2.0
 40
3.0
 40
3.0
 40
3.0
 40
4.0
 40
4.0
 40
4.0
 40
4.0
 10
124.3400417751736029
 20
15.1518744574652757
 30
0.0
 10
124.6163384331597115
 20
15.1518744574652757
 30
0.0
 10
124.84026963975694
 20
15.3754611545138875
 30
0.0
 10
124.84026963975694
 20
15.6517578124999979
 30
0.0
 10
124.84026963975694
 20
15.9278822157118043
 30
0.0
 10
124.6163384331597115
 20
16.15164116753472
 30
0.0
 10
124.3400417751736029
 20
16.15164116753472
 30
0.0
 10
124.0637451171874943
 20
16.15164116753472
 30
0.0
 10
123.8405029296874886
 20
15.9278822157118043
 30
0.0
 10
123.8405029296874886
 20
15.6517578124999979
 30
0.0
 10
123.8405029296874886
 20
15.3754611545138875
 30
0.0
 10
124.0637451171874943
 20
15.1518744574652757
 30
0.0
 10
124.3400417751736029
 20
15.1518744574652757
 30
0.0
  0
SPLINE
  5
7A
100
AcDbEntity
  8
DR-07_080910
390
0
 62
     7
100
AcDbSpline
210
0.0
220
0.0
230
1.0
 70
     8
 71
     3
 72
    11
 73
     7
 74
     0
 42
0.00000001
 43
0.00000001
 40
0.0
 40
0.0
 40
0.0
 40
0.0
 40
1.0
 40
1.0
 40
1.0
 40
2.0
 40
2.0
 40
2.0
 40
2.0
 10
123.2489800347222086
 20
15.3637478298611097
 30
0.0
 10
123.3437201605902658
 20
15.498451063368055
 30
0.0
 10
123.3661132812499943
 20
15.6707058376736104
 30
0.0
 10
123.3092692057291515
 20
15.8248738606770818
 30
0.0
 10
123.2520806206597115
 20
15.9793863932291647
 30
0.0
 10
123.1225450303819287
 20
16.0954861111111107
 30
0.0
 10
122.9633816189236057
 20
16.13613823784722
 30
0.0
  0
SPLINE
  5
79
100
AcDbEntity
  8
DR-07_080910
390
0
 62
     7
100
AcDbSpline
210
0.0
220
0.0
230
1.0
 70
     8
 71
     3
 72
    17
 73
    13
 74
     0
 42
0.00000001
 43
0.00000001
 40
0.0
 40
0.0
 40
0.0
 40
0.0
 40
1.0
 40
1.0
 40
1.0
 40
2.0
 40
2.0
 40
2.0
 40
3.0
 40
3.0
 40
3.0
 40
4.0
 40
4.0
 40
4.0
 40
4.0
 10
128.84002549913194
 20
15.1518744574652757
 30
0.0
 10
129.1163221571180486
 20
15.1518744574652757
 30
0.0
 10
129.3402533637152771
 20
15.3754611545138875
 30
0.0
 10
129.3402533637152771
 20
15.6517578124999979
 30
0.0
 10
129.3402533637152771
 20
15.9278822157118043
 30
0.0
 10
129.1163221571180486
 20
16.15164116753472
 30
0.0
 10
128.84002549913194
 20
16.15164116753472
 30
0.0
 10
128.5640733506944287
 20
16.15164116753472
 30
0.0
 10
128.3404866536458258
 20
15.9278822157118043
 30
0.0
 10
128.3404866536458258
 20
15.6517578124999979
 30
0.0
 10
128.3404866536458258
 20
15.3754611545138875
 30
0.0
 10
128.5640733506944287
 20
15.1518744574652757
 30
0.0
 10
128.84002549913194
 20
15.1518744574652757
 30
0.0
  0
SPLINE
  5
78
100
AcDbEntity
  8
DR-07_080910
390
0
 62
     7
100
AcDbSpline
210
0.0
220
0.0
230
1.0
 70
     8
 71
     3
 72
    17
 73
    13
 74
     0
 42
0.00000001
 43
0.00000001
 40
0.0
 40
0.0
 40
0.0
 40
0.0
 40
1.0
 40
1.0
 40
1.0
 40
2.0
 40
2.0
 40
2.0
 40
3.0
 40
3.0
 40
3.0
 40
4.0
 40
4.0
 40
4.0
 40
4.0
 10
130.3400200737847001
 20
15.1518744574652757
 30
0.0
 10
130.6163167317708087
 20
15.1518744574652757
 30
0.0
 10
130.8402479383680372
 20
15.3754611545138875
 30
0.0
 10
130.8402479383680372
 20
15.6517578124999979
 30
0.0
 10
130.8402479383680372
 20
15.9278822157118043
 30
0.0
 10
130.6163167317708087
 20
16.15164116753472
 30
0.0
 10
130.3400200737847001
 20
16.15164116753472
 30
0.0
 10
130.0640679253472172
 20
16.15164116753472
 30
0.0
 10
129.8401367187499886
 20
15.9278822157118043
 30
0.0
 10
129.8401367187499886
 20
15.6517578124999979
 30
0.0
 10
129.8401367187499886
 20
15.3754611545138875
 30
0.0
 10
130.0640679253472172
 20
15.1518744574652757
 30
0.0
 10
130.3400200737847001
 20
15.1518744574652757
 30
0.0
  0
SPLINE
  5
77
100
AcDbEntity
  8
DR-07_080910
390
0
 62
     7
100
AcDbSpline
210
0.0
220
0.0
230
1.0
 70
     8
 71
     3
 72
    17
 73
    13
 74
     0
 42
0.00000001
 43
0.00000001
 40
0.0
 40
0.0
 40
0.0
 40
0.0
 40
1.0
 40
1.0
 40
1.0
 40
2.0
 40
2.0
 40
2.0
 40
3.0
 40
3.0
 40
3.0
 40
4.0
 40
4.0
 40
4.0
 40
4.0
 10
131.8400146484374886
 20
15.1518744574652757
 30
0.0
 10
132.1163113064235972
 20
15.1518744574652757
 30
0.0
 10
132.3402425130208258
 20
15.3754611545138875
 30
0.0
 10
132.3402425130208258
 20
15.6517578124999979
 30
0.0
 10
132.3402425130208258
 20
15.9278822157118043
 30
0.0
 10
132.1163113064235972
 20
16.15164116753472
 30
0.0
 10
131.8400146484374886
 20
16.15164116753472
 30
0.0
 10
131.5640624999999773
 20
16.15164116753472
 30
0.0
 10
131.3404758029513744
 20
15.9278822157118043
 30
0.0
 10
131.3404758029513744
 20
15.6517578124999979
 30
0.0
 10
131.3404758029513744
 20
15.3754611545138875
 30
0.0
 10
131.5640624999999773
 20
15.1518744574652757
 30
0.0
 10
131.8400146484374886
 20
15.1518744574652757
 30
0.0
  0
SPLINE
  5
76
100
AcDbEntity
  8
DR-07_080910
390
0
 62
     7
100
AcDbSpline
210
0.0
220
0.0
230
1.0
 70
     8
 71
     3
 72
    17
 73
    13
 74
     0
 42
0.00000001
 43
0.00000001
 40
0.0
 40
0.0
 40
0.0
 40
0.0
 40
1.0
 40
1.0
 40
1.0
 40
2.0
 40
2.0
 40
2.0
 40
3.0
 40
3.0
 40
3.0
 40
4.0
 40
4.0
 40
4.0
 40
4.0
 10
133.3403537326388744
 20
15.1518744574652757
 30
0.0
 10
133.6163058810763857
 20
15.1518744574652757
 30
0.0
 10
133.8402370876735858
 20
15.3754611545138875
 30
0.0
 10
133.8402370876735858
 20
15.6517578124999979
 30
0.0
 10
133.8402370876735858
 20
15.9278822157118043
 30
0.0
 10
133.6163058810763857
 20
16.15164116753472
 30
0.0
 10
133.3403537326388744
 20
16.15164116753472
 30
0.0
 10
133.0640570746527658
 20
16.15164116753472
 30
0.0
 10
132.8404703776041629
 20
15.9278822157118043
 30
0.0
 10
132.8404703776041629
 20
15.6517578124999979
 30
0.0
 10
132.8404703776041629
 20
15.3754611545138875
 30
0.0
 10
133.0640570746527658
 20
15.1518744574652757
 30
0.0
 10
133.3403537326388744
 20
15.1518744574652757
 30
0.0
  0
SPLINE
  5
75
100
AcDbEntity
  8
DR-07_080910
390
0
 62
     7
100
AcDbSpline
210
0.0
220
0.0
230
1.0
 70
     8
 71
     3
 72
    11
 73
     7
 74
     0
 42
0.00000001
 43
0.00000001
 40
0.0
 40
0.0
 40
0.0
 40
0.0
 40
1.0
 40
1.0
 40
1.0
 40
2.0
 40
2.0
 40
2.0
 40
2.0
 10
134.7170138888888857
 20
16.1364827473958314
 30
0.0
 10
134.557505967881923
 20
16.0958306206597221
 30
0.0
 10
134.428659396701363
 20
15.9793863932291647
 30
0.0
 10
134.371470811631923
 20
15.8253906249999989
 30
0.0
 10
134.3142822265624829
 20
15.67105034722222
 30
0.0
 10
134.3363308376735858
 20
15.4986233181423589
 30
0.0
 10
134.4314154730902544
 20
15.3640923394097211
 30
0.0
  0
SPLINE
  5
74
100
AcDbEntity
  8
DR-07_080910
390
0
 62
     7
100
AcDbSpline
210
0.0
220
0.0
230
1.0
 70
     8
 71
     3
 72
    17
 73
    13
 74
     0
 42
0.00000001
 43
0.00000001
 40
0.0
 40
0.0
 40
0.0
 40
0.0
 40
1.0
 40
1.0
 40
1.0
 40
2.0
 40
2.0
 40
2.0
 40
3.0
 40
3.0
 40
3.0
 40
4.0
 40
4.0
 40
4.0
 40
4.0
 10
128.0903727213541572
 20
13.8525566948784711
 30
0.0
 10
128.3663248697916686
 20
13.8525566948784711
 30
0.0
 10
128.5899115668402715
 20
14.0768324110243039
 30
0.0
 10
128.5899115668402715
 20
14.3526123046874989
 30
0.0
 10
128.5899115668402715
 20
14.6285644531249979
 30
0.0
 10
128.3663248697916686
 20
14.8524956597222211
 30
0.0
 10
128.0903727213541572
 20
14.8524956597222211
 30
0.0
 10
127.8140760633680486
 20
14.8524956597222211
 30
0.0
 10
127.5901448567708201
 20
14.6285644531249979
 30
0.0
 10
127.5901448567708201
 20
14.3526123046874989
 30
0.0
 10
127.5901448567708201
 20
14.0768324110243039
 30
0.0
 10
127.8140760633680486
 20
13.8525566948784711
 30
0.0
 10
128.0903727213541572
 20
13.8525566948784711
 30
0.0
  0
SPLINE
  5
73
100
AcDbEntity
  8
DR-07_080910
390
0
 62
     7
100
AcDbSpline
210
0.0
220
0.0
230
1.0
 70
     8
 71
     3
 72
    17
 73
    13
 74
     0
 42
0.00000001
 43
0.00000001
 40
0.0
 40
0.0
 40
0.0
 40
0.0
 40
1.0
 40
1.0
 40
1.0
 40
2.0
 40
2.0
 40
2.0
 40
3.0
 40
3.0
 40
3.0
 40
4.0
 40
4.0
 40
4.0
 40
4.0
 10
126.5903781467013829
 20
13.8525566948784711
 30
0.0
 10
126.86633029513888
 20
13.8525566948784711
 30
0.0
 10
127.0899169921874829
 20
14.0768324110243039
 30
0.0
 10
127.0899169921874829
 20
14.3526123046874989
 30
0.0
 10
127.0899169921874829
 20
14.6285644531249979
 30
0.0
 10
126.86633029513888
 20
14.8524956597222211
 30
0.0
 10
126.5903781467013829
 20
14.8524956597222211
 30
0.0
 10
126.3140814887152601
 20
14.8524956597222211
 30
0.0
 10
126.0904947916666572
 20
14.6285644531249979
 30
0.0
 10
126.0904947916666572
 20
14.3526123046874989
 30
0.0
 10
126.0904947916666572
 20
14.0768324110243039
 30
0.0
 10
126.3140814887152601
 20
13.8525566948784711
 30
0.0
 10
126.5903781467013829
 20
13.8525566948784711
 30
0.0
  0
SPLINE
  5
72
100
AcDbEntity
  8
DR-07_080910
390
0
 62
     7
100
AcDbSpline
210
0.0
220
0.0
230
1.0
 70
     8
 71
     3
 72
    17
 73
    13
 74
     0
 42
0.00000001
 43
0.00000001
 40
0.0
 40
0.0
 40
0.0
 40
0.0
 40
1.0
 40
1.0
 40
1.0
 40
2.0
 40
2.0
 40
2.0
 40
3.0
 40
3.0
 40
3.0
 40
4.0
 40
4.0
 40
4.0
 40
4.0
 10
125.0903835720485944
 20
13.8525566948784711
 30
0.0
 10
125.3663357204861057
 20
13.8525566948784711
 30
0.0
 10
125.5906114366319315
 20
14.0768324110243039
 30
0.0
 10
125.5906114366319315
 20
14.3526123046874989
 30
0.0
 10
125.5906114366319315
 20
14.6285644531249979
 30
0.0
 10
125.3663357204861057
 20
14.8524956597222211
 30
0.0
 10
125.0903835720485944
 20
14.8524956597222211
 30
0.0
 10
124.8140869140624858
 20
14.8524956597222211
 30
0.0
 10
124.5901557074652715
 20
14.6285644531249979
 30
0.0
 10
124.5901557074652715
 20
14.3526123046874989
 30
0.0
 10
124.5901557074652715
 20
14.0768324110243039
 30
0.0
 10
124.8140869140624858
 20
13.8525566948784711
 30
0.0
 10
125.0903835720485944
 20
13.8525566948784711
 30
0.0
  0
SPLINE
  5
71
100
AcDbEntity
  8
DR-07_080910
390
0
 62
     7
100
AcDbSpline
210
0.0
220
0.0
230
1.0
 70
     8
 71
     3
 72
    17
 73
    13
 74
     0
 42
0.00000001
 43
0.00000001
 40
0.0
 40
0.0
 40
0.0
 40
0.0
 40
1.0
 40
1.0
 40
1.0
 40
2.0
 40
2.0
 40
2.0
 40
3.0
 40
3.0
 40
3.0
 40
4.0
 40
4.0
 40
4.0
 40
4.0
 10
127.3400309244791515
 20
12.5532389322916647
 30
0.0
 10
127.6163275824652601
 20
12.5532389322916647
 30
0.0
 10
127.8402587890624886
 20
12.7771701388888879
 30
0.0
 10
127.8402587890624886
 20
13.0536390516493039
 30
0.0
 10
127.8402587890624886
 20
13.3299357096354161
 30
0.0
 10
127.6163275824652601
 20
13.5531778971354147
 30
0.0
 10
127.3400309244791515
 20
13.5531778971354147
 30
0.0
 10
127.0640787760416544
 20
13.5531778971354147
 30
0.0
 10
126.8404920789930372
 20
13.3299357096354161
 30
0.0
 10
126.8404920789930372
 20
13.0536390516493039
 30
0.0
 10
126.8404920789930372
 20
12.7771701388888879
 30
0.0
 10
127.0640787760416544
 20
12.5532389322916647
 30
0.0
 10
127.3400309244791515
 20
12.5532389322916647
 30
0.0
  0
SPLINE
  5
70
100
AcDbEntity
  8
DR-07_080910
390
0
 62
     7
100
AcDbSpline
210
0.0
220
0.0
230
1.0
 70
     8
 71
     3
 72
    14
 73
    10
 74
     0
 42
0.00000001
 43
0.00000001
 40
0.0
 40
0.0
 40
0.0
 40
0.0
 40
1.0
 40
1.0
 40
1.0
 40
2.0
 40
2.0
 40
2.0
 40
3.0
 40
3.0
 40
3.0
 40
3.0
 10
126.0980740017360944
 20
12.6248969184027775
 30
0.0
 10
126.3085693359374915
 20
12.7516764322916654
 30
0.0
 10
126.3957302517360972
 20
13.0129869249131929
 30
0.0
 10
126.3037462022569315
 20
13.2410522460937496
 30
0.0
 10
126.2114176432291544
 20
13.4691175672743046
 30
0.0
 10
125.9668158637152686
 20
13.5958970811631925
 30
0.0
 10
125.7273817274305401
 20
13.5407755533854157
 30
0.0
 10
125.4879475911458258
 20
13.4849650065104161
 30
0.0
 10
125.3239610460069287
 20
13.2631008572048597
 30
0.0
 10
125.3418755425347086
 20
13.0184990776909704
 30
0.0
  0
SPLINE
  5
6F
100
AcDbEntity
  8
DR-07_080910
390
0
 62
     7
100
AcDbSpline
210
0.0
220
0.0
230
1.0
 70
     8
 71
     3
 72
    11
 73
     7
 74
     0
 42
0.00000001
 43
0.00000001
 40
0.0
 40
0.0
 40
0.0
 40
0.0
 40
1.0
 40
1.0
 40
1.0
 40
2.0
 40
2.0
 40
2.0
 40
2.0
 10
124.0565104166666544
 20
14.1720893012152764
 30
0.0
 10
124.1161105685763744
 20
14.3260850694444439
 30
0.0
 10
124.09612901475694
 20
14.4993733723958318
 30
0.0
 10
124.0024224175347172
 20
14.6354546440972211
 30
0.0
 10
123.9094048394097172
 20
14.7711914062499989
 30
0.0
 10
123.75506456163194
 20
14.8524956597222211
 30
0.0
 10
123.5900444878472086
 20
14.8524956597222211
 30
0.0
  0
SPLINE
  5
6E
100
AcDbEntity
  8
DR-07_080910
390
0
 62
     7
100
AcDbSpline
210
0.0
220
0.0
230
1.0
 70
     8
 71
     3
 72
    17
 73
    13
 74
     0
 42
0.00000001
 43
0.00000001
 40
0.0
 40
0.0
 40
0.0
 40
0.0
 40
1.0
 40
1.0
 40
1.0
 40
2.0
 40
2.0
 40
2.0
 40
3.0
 40
3.0
 40
3.0
 40
4.0
 40
4.0
 40
4.0
 40
4.0
 10
129.5903672960069457
 20
13.8525566948784711
 30
0.0
 10
129.8663194444444287
 20
13.8525566948784711
 30
0.0
 10
130.0899061414930316
 20
14.0768324110243039
 30
0.0
 10
130.0899061414930316
 20
14.3526123046874989
 30
0.0
 10
130.0899061414930316
 20
14.6285644531249979
 30
0.0
 10
129.8663194444444287
 20
14.8524956597222211
 30
0.0
 10
129.5903672960069457
 20
14.8524956597222211
 30
0.0
 10
129.3140706380208087
 20
14.8524956597222211
 30
0.0
 10
129.0901394314236086
 20
14.6285644531249979
 30
0.0
 10
129.0901394314236086
 20
14.3526123046874989
 30
0.0
 10
129.0901394314236086
 20
14.0768324110243039
 30
0.0
 10
129.3140706380208087
 20
13.8525566948784711
 30
0.0
 10
129.5903672960069457
 20
13.8525566948784711
 30
0.0
  0
SPLINE
  5
6D
100
AcDbEntity
  8
DR-07_080910
390
0
 62
     7
100
AcDbSpline
210
0.0
220
0.0
230
1.0
 70
     8
 71
     3
 72
    17
 73
    13
 74
     0
 42
0.00000001
 43
0.00000001
 40
0.0
 40
0.0
 40
0.0
 40
0.0
 40
1.0
 40
1.0
 40
1.0
 40
2.0
 40
2.0
 40
2.0
 40
3.0
 40
3.0
 40
3.0
 40
4.0
 40
4.0
 40
4.0
 40
4.0
 10
131.0903618706597058
 20
13.8525566948784711
 30
0.0
 10
131.3666585286458144
 20
13.8525566948784711
 30
0.0
 10
131.5899007161458201
 20
14.0768324110243039
 30
0.0
 10
131.5899007161458201
 20
14.3526123046874989
 30
0.0
 10
131.5899007161458201
 20
14.6285644531249979
 30
0.0
 10
131.3666585286458144
 20
14.8524956597222211
 30
0.0
 10
131.0903618706597058
 20
14.8524956597222211
 30
0.0
 10
130.8140652126735972
 20
14.8524956597222211
 30
0.0
 10
130.5901340060763687
 20
14.6285644531249979
 30
0.0
 10
130.5901340060763687
 20
14.3526123046874989
 30
0.0
 10
130.5901340060763687
 20
14.0768324110243039
 30
0.0
 10
130.8140652126735972
 20
13.8525566948784711
 30
0.0
 10
131.0903618706597058
 20
13.8525566948784711
 30
0.0
  0
SPLINE
  5
6C
100
AcDbEntity
  8
DR-07_080910
390
0
 62
     7
100
AcDbSpline
210
0.0
220
0.0
230
1.0
 70
     8
 71
     3
 72
    17
 73
    13
 74
     0
 42
0.00000001
 43
0.00000001
 40
0.0
 40
0.0
 40
0.0
 40
0.0
 40
1.0
 40
1.0
 40
1.0
 40
2.0
 40
2.0
 40
2.0
 40
3.0
 40
3.0
 40
3.0
 40
4.0
 40
4.0
 40
4.0
 40
4.0
 10
132.5903564453124943
 20
13.8525566948784711
 30
0.0
 10
132.8666531032986029
 20
13.8525566948784711
 30
0.0
 10
133.0902398003472058
 20
14.0768324110243039
 30
0.0
 10
133.0902398003472058
 20
14.3526123046874989
 30
0.0
 10
133.0902398003472058
 20
14.6285644531249979
 30
0.0
 10
132.8666531032986029
 20
14.8524956597222211
 30
0.0
 10
132.5903564453124943
 20
14.8524956597222211
 30
0.0
 10
132.3140597873263857
 20
14.8524956597222211
 30
0.0
 10
132.0904730902777544
 20
14.6285644531249979
 30
0.0
 10
132.0904730902777544
 20
14.3526123046874989
 30
0.0
 10
132.0904730902777544
 20
14.0768324110243039
 30
0.0
 10
132.3140597873263857
 20
13.8525566948784711
 30
0.0
 10
132.5903564453124943
 20
13.8525566948784711
 30
0.0
  0
SPLINE
  5
6B
100
AcDbEntity
  8
DR-07_080910
390
0
 62
     7
100
AcDbSpline
210
0.0
220
0.0
230
1.0
 70
     8
 71
     3
 72
    17
 73
    13
 74
     0
 42
0.00000001
 43
0.00000001
 40
0.0
 40
0.0
 40
0.0
 40
0.0
 40
1.0
 40
1.0
 40
1.0
 40
2.0
 40
2.0
 40
2.0
 40
3.0
 40
3.0
 40
3.0
 40
4.0
 40
4.0
 40
4.0
 40
4.0
 10
130.3400200737847001
 20
12.5532389322916647
 30
0.0
 10
130.6163167317708087
 20
12.5532389322916647
 30
0.0
 10
130.8402479383680372
 20
12.7771701388888879
 30
0.0
 10
130.8402479383680372
 20
13.0536390516493039
 30
0.0
 10
130.8402479383680372
 20
13.3299357096354161
 30
0.0
 10
130.6163167317708087
 20
13.5531778971354147
 30
0.0
 10
130.3400200737847001
 20
13.5531778971354147
 30
0.0
 10
130.0640679253472172
 20
13.5531778971354147
 30
0.0
 10
129.8401367187499886
 20
13.3299357096354161
 30
0.0
 10
129.8401367187499886
 20
13.0536390516493039
 30
0.0
 10
129.8401367187499886
 20
12.7771701388888879
 30
0.0
 10
130.0640679253472172
 20
12.5532389322916647
 30
0.0
 10
130.3400200737847001
 20
12.5532389322916647
 30
0.0
  0
SPLINE
  5
6A
100
AcDbEntity
  8
DR-07_080910
390
0
 62
     7
100
AcDbSpline
210
0.0
220
0.0
230
1.0
 70
     8
 71
     3
 72
    17
 73
    13
 74
     0
 42
0.00000001
 43
0.00000001
 40
0.0
 40
0.0
 40
0.0
 40
0.0
 40
1.0
 40
1.0
 40
1.0
 40
2.0
 40
2.0
 40
2.0
 40
3.0
 40
3.0
 40
3.0
 40
4.0
 40
4.0
 40
4.0
 40
4.0
 10
128.84002549913194
 20
12.5532389322916647
 30
0.0
 10
129.1163221571180486
 20
12.5532389322916647
 30
0.0
 10
129.3402533637152771
 20
12.7771701388888879
 30
0.0
 10
129.3402533637152771
 20
13.0536390516493039
 30
0.0
 10
129.3402533637152771
 20
13.3299357096354161
 30
0.0
 10
129.1163221571180486
 20
13.5531778971354147
 30
0.0
 10
128.84002549913194
 20
13.5531778971354147
 30
0.0
 10
128.5640733506944287
 20
13.5531778971354147
 30
0.0
 10
128.3404866536458258
 20
13.3299357096354161
 30
0.0
 10
128.3404866536458258
 20
13.0536390516493039
 30
0.0
 10
128.3404866536458258
 20
12.7771701388888879
 30
0.0
 10
128.5640733506944287
 20
12.5532389322916647
 30
0.0
 10
128.84002549913194
 20
12.5532389322916647
 30
0.0
  0
SPLINE
  5
69
100
AcDbEntity
  8
DR-07_080910
390
0
 62
     7
100
AcDbSpline
210
0.0
220
0.0
230
1.0
 70
     8
 71
     3
 72
    14
 73
    10
 74
     0
 42
0.00000001
 43
0.00000001
 40
0.0
 40
0.0
 40
0.0
 40
0.0
 40
1.0
 40
1.0
 40
1.0
 40
2.0
 40
2.0
 40
2.0
 40
3.0
 40
3.0
 40
3.0
 40
3.0
 10
132.33886447482638
 20
13.0191880967881932
 30
0.0
 10
132.356089952256923
 20
13.2644788953993036
 30
0.0
 10
132.1917588975694287
 20
13.4856540256076372
 30
0.0
 10
131.9523247612847001
 20
13.5407755533854157
 30
0.0
 10
131.712890625
 20
13.5958970811631925
 30
0.0
 10
131.4686333550347115
 20
13.4684285481770818
 30
0.0
 10
131.3766493055555316
 20
13.2410522460937496
 30
0.0
 10
131.28466525607638
 20
13.0129869249131929
 30
0.0
 10
131.371826171875
 20
12.7516764322916654
 30
0.0
 10
131.5823215060763687
 20
12.6248969184027775
 30
0.0
  0
SPLINE
  5
68
100
AcDbEntity
  8
DR-07_080910
390
0
 62
     7
100
AcDbSpline
210
0.0
220
0.0
230
1.0
 70
     8
 71
     3
 72
    11
 73
     7
 74
     0
 42
0.00000001
 43
0.00000001
 40
0.0
 40
0.0
 40
0.0
 40
0.0
 40
1.0
 40
1.0
 40
1.0
 40
2.0
 40
2.0
 40
2.0
 40
2.0
 10
134.09069552951388
 20
14.8524956597222211
 30
0.0
 10
133.9256754557291629
 20
14.8524956597222211
 30
0.0
 10
133.7709906684027601
 20
14.7715359157986104
 30
0.0
 10
133.6779730902777601
 20
14.6351101345486097
 30
0.0
 10
133.5842664930555372
 20
14.4988566080729147
 30
0.0
 10
133.5642849392361029
 20
14.3253960503472211
 30
0.0
 10
133.6242296006944343
 20
14.1714002821180536
 30
0.0
  0
SPLINE
  5
67
100
AcDbEntity
  8
DR-07_080910
390
0
 62
     7
100
AcDbSpline
210
0.0
220
0.0
230
1.0
 70
     8
 71
     3
 72
    11
 73
     7
 74
     0
 42
0.00000001
 43
0.00000001
 40
0.0
 40
0.0
 40
0.0
 40
0.0
 40
1.0
 40
1.0
 40
1.0
 40
2.0
 40
2.0
 40
2.0
 40
2.0
 10
129.9589925130208314
 20
12.0922851562499982
 30
0.0
 10
129.8501274956597058
 20
12.2107964409722207
 30
0.0
 10
129.6909640842013687
 20
12.2700520833333329
 30
0.0
 10
129.5318006727430316
 20
12.2507595486111107
 30
0.0
 10
129.3719482421875
 20
12.2321560329861097
 30
0.0
 10
129.2310438368055543
 20
12.1377604166666657
 30
0.0
 10
129.1528401692708314
 20
11.9965115017361104
 30
0.0
  0
SPLINE
  5
66
100
AcDbEntity
  8
DR-07_080910
390
0
 62
     7
100
AcDbSpline
210
0.0
220
0.0
230
1.0
 70
     8
 71
     3
 72
    11
 73
     7
 74
     0
 42
0.00000001
 43
0.00000001
 40
0.0
 40
0.0
 40
0.0
 40
0.0
 40
1.0
 40
1.0
 40
1.0
 40
2.0
 40
2.0
 40
2.0
 40
2.0
 10
128.5275553385416458
 20
11.9965115017361104
 30
0.0
 10
128.4496961805555486
 20
12.1370713975694429
 30
0.0
 10
128.3087917751736029
 20
12.2314670138888886
 30
0.0
 10
128.1489393446180429
 20
12.2507595486111107
 30
0.0
 10
127.9897759331597058
 20
12.2700520833333329
 30
0.0
 10
127.8306125217013829
 20
12.2107964409722207
 30
0.0
 10
127.7217475043402715
 20
12.0922851562499982
 30
0.0
  0
INSERT
  5
54
100
AcDbEntity
  8
KNOB
390
0
 62
     7
100
AcDbBlockReference
  2
AI9-BLK4
 10
55.200937
 20
15.918494
 30
0.0
  0
HATCH
  5
51
100
AcDbEntity
  8
FIX-SILK_091020
390
0
 62
     7
100
AcDbHatch
 10
0.0
 20
0.0
 30
0.0
210
0.0
220
0.0
230
1.0
  2
SOLID
 70
     1
 71
     0
 91
       13
 92
       16
 93
        1
 72
     4
 94
        3
 73
     0
 74
     0
 95
       23
 96
       19
 40
0.0
 40
0.0
 40
0.0
 40
0.0
 40
1.0
 40
1.0
 40
1.0
 40
2.0
 40
2.0
 40
2.0
 40
3.0
 40
3.0
 40
3.0
 40
4.0
 40
4.0
 40
4.0
 40
5.0
 40
5.0
 40
5.0
 40
6.0
 40
6.0
 40
6.0
 40
6.0
 10
41.72906358506944
 20
23.0015245225694436
 10
41.72906358506944
 20
23.0015245225694436
 10
41.72906358506944
 20
21.2016343858506922
 10
41.72906358506944
 20
21.2016343858506922
 10
41.72906358506944
 20
21.2016343858506922
 10
42.8573323567708329
 20
21.2016343858506922
 10
42.8573323567708329
 20
21.2016343858506922
 10
42.8573323567708329
 20
21.2016343858506922
 10
42.8573323567708329
 20
21.5056640624999993
 10
42.8573323567708329
 20
21.5056640624999993
 10
42.8573323567708329
 20
21.5056640624999993
 10
42.0649603949652757
 20
21.5056640624999993
 10
42.0649603949652757
 20
21.5056640624999993
 10
42.0649603949652757
 20
21.5056640624999993
 10
42.0649603949652757
 20
23.0015245225694436
 10
42.0649603949652757
 20
23.0015245225694436
 10
42.0649603949652757
 20
23.0015245225694436
 10
41.72906358506944
 20
23.0015245225694436
 10
41.72906358506944
 20
23.0015245225694436
 97
        0
 92
       16
 93
        1
 72
     4
 94
        3
 73
     0
 74
     0
 95
       41
 96
       37
 40
0.0
 40
0.0
 40
0.0
 40
0.0
 40
1.0
 40
1.0
 40
1.0
 40
2.0
 40
2.0
 40
2.0
 40
3.0
 40
3.0
 40
3.0
 40
4.0
 40
4.0
 40
4.0
 40
5.0
 40
5.0
 40
5.0
 40
6.0
 40
6.0
 40
6.0
 40
7.0
 40
7.0
 40
7.0
 40
8.0
 40
8.0
 40
8.0
 40
9.0
 40
9.0
 40
9.0
 40
10.0
 40
10.0
 40
10.0
 40
11.0
 40
11.0
 40
11.0
 40
12.0
 40
12.0
 40
12.0
 40
12.0
 10
40.2617974175347157
 20
22.999457465277775
 10
40.2617974175347157
 20
22.999457465277775
 10
40.2617974175347157
 20
21.2016343858506922
 10
40.2617974175347157
 20
21.2016343858506922
 10
40.2617974175347157
 20
21.2016343858506922
 10
41.4699924045138886
 20
21.2016343858506922
 10
41.4699924045138886
 20
21.2016343858506922
 10
41.4699924045138886
 20
21.2016343858506922
 10
41.4699924045138886
 20
21.5042860243055536
 10
41.4699924045138886
 20
21.5042860243055536
 10
41.4699924045138886
 20
21.5042860243055536
 10
40.5904595269097186
 20
21.5042860243055536
 10
40.5904595269097186
 20
21.5042860243055536
 10
40.5904595269097186
 20
21.5042860243055536
 10
40.5904595269097186
 20
21.99624565972222
 10
40.5904595269097186
 20
21.99624565972222
 10
40.5904595269097186
 20
21.99624565972222
 10
41.3487250434027729
 20
21.99624565972222
 10
41.3487250434027729
 20
21.99624565972222
 10
41.3487250434027729
 20
21.99624565972222
 10
41.3487250434027729
 20
22.3011366102430522
 10
41.3487250434027729
 20
22.3011366102430522
 10
41.3487250434027729
 20
22.3011366102430522
 10
40.59321560329861
 20
22.3011366102430522
 10
40.59321560329861
 20
22.3011366102430522
 10
40.59321560329861
 20
22.3011366102430522
 10
40.59321560329861
 20
22.69387749565972
 10
40.59321560329861
 20
22.69387749565972
 10
40.59321560329861
 20
22.69387749565972
 10
41.4575900607638843
 20
22.69387749565972
 10
41.4575900607638843
 20
22.69387749565972
 10
41.4575900607638843
 20
22.69387749565972
 10
41.4575900607638843
 20
22.999457465277775
 10
41.4575900607638843
 20
22.999457465277775
 10
41.4575900607638843
 20
22.999457465277775
 10
40.2617974175347157
 20
22.999457465277775
 10
40.2617974175347157
 20
22.999457465277775
 97
        0
 92
       16
 93
        1
 72
     4
 94
        3
 73
     0
 74
     0
 95
       29
 96
       25
 40
0.0
 40
0.0
 40
0.0
 40
0.0
 40
1.0
 40
1.0
 40
1.0
 40
2.0
 40
2.0
 40
2.0
 40
3.0
 40
3.0
 40
3.0
 40
4.0
 40
4.0
 40
4.0
 40
5.0
 40
5.0
 40
5.0
 40
6.0
 40
6.0
 40
6.0
 40
7.0
 40
7.0
 40
7.0
 40
8.0
 40
8.0
 40
8.0
 40
8.0
 10
38.6470811631944429
 20
22.999457465277775
 10
38.6470811631944429
 20
22.999457465277775
 10
39.1993299696180486
 20
21.2016343858506922
 10
39.1993299696180486
 20
21.2016343858506922
 10
39.1993299696180486
 20
21.2016343858506922
 10
39.3653835720486072
 20
21.2016343858506922
 10
39.3653835720486072
 20
21.2016343858506922
 10
39.3653835720486072
 20
21.2016343858506922
 10
39.5314371744791657
 20
21.2016343858506922
 10
39.5314371744791657
 20
21.2016343858506922
 10
39.5314371744791657
 20
21.2016343858506922
 10
40.08334147135416
 20
22.999457465277775
 10
40.08334147135416
 20
22.999457465277775
 10
40.08334147135416
 20
22.999457465277775
 10
39.7278076171874943
 20
22.999457465277775
 10
39.7278076171874943
 20
22.999457465277775
 10
39.7278076171874943
 20
22.999457465277775
 10
39.3653835720486072
 20
21.6672390407986093
 10
39.3653835720486072
 20
21.6672390407986093
 10
39.3653835720486072
 20
21.6672390407986093
 10
39.00295952690972
 20
22.999457465277775
 10
39.00295952690972
 20
22.999457465277775
 10
39.00295952690972
 20
22.999457465277775
 10
38.6470811631944429
 20
22.999457465277775
 10
38.6470811631944429
 20
22.999457465277775
 97
        0
 92
       16
 93
        1
 72
     4
 94
        3
 73
     0
 74
     0
 95
       41
 96
       37
 40
0.0
 40
0.0
 40
0.0
 40
0.0
 40
1.0
 40
1.0
 40
1.0
 40
2.0
 40
2.0
 40
2.0
 40
3.0
 40
3.0
 40
3.0
 40
4.0
 40
4.0
 40
4.0
 40
5.0
 40
5.0
 40
5.0
 40
6.0
 40
6.0
 40
6.0
 40
7.0
 40
7.0
 40
7.0
 40
8.0
 40
8.0
 40
8.0
 40
9.0
 40
9.0
 40
9.0
 40
10.0
 40
10.0
 40
10.0
 40
11.0
 40
11.0
 40
11.0
 40
12.0
 40
12.0
 40
12.0
 40
12.0
 10
37.2039306640624972
 20
22.999457465277775
 10
37.2039306640624972
 20
22.999457465277775
 10
37.2039306640624972
 20
21.2016343858506922
 10
37.2039306640624972
 20
21.2016343858506922
 10
37.2039306640624972
 20
21.2016343858506922
 10
38.4121256510416629
 20
21.2016343858506922
 10
38.4121256510416629
 20
21.2016343858506922
 10
38.4121256510416629
 20
21.2016343858506922
 10
38.4121256510416629
 20
21.5042860243055536
 10
38.4121256510416629
 20
21.5042860243055536
 10
38.4121256510416629
 20
21.5042860243055536
 10
37.5325927734375
 20
21.5042860243055536
 10
37.5325927734375
 20
21.5042860243055536
 10
37.5325927734375
 20
21.5042860243055536
 10
37.5325927734375
 20
21.99624565972222
 10
37.5325927734375
 20
21.99624565972222
 10
37.5325927734375
 20
21.99624565972222
 10
38.2908582899305543
 20
21.99624565972222
 10
38.2908582899305543
 20
21.99624565972222
 10
38.2908582899305543
 20
21.99624565972222
 10
38.2908582899305543
 20
22.3011366102430522
 10
38.2908582899305543
 20
22.3011366102430522
 10
38.2908582899305543
 20
22.3011366102430522
 10
37.5353488498263843
 20
22.3011366102430522
 10
37.5353488498263843
 20
22.3011366102430522
 10
37.5353488498263843
 20
22.3011366102430522
 10
37.5353488498263843
 20
22.69387749565972
 10
37.5353488498263843
 20
22.69387749565972
 10
37.5353488498263843
 20
22.69387749565972
 10
38.4000678168402771
 20
22.69387749565972
 10
38.4000678168402771
 20
22.69387749565972
 10
38.4000678168402771
 20
22.69387749565972
 10
38.4000678168402771
 20
22.999457465277775
 10
38.4000678168402771
 20
22.999457465277775
 10
38.4000678168402771
 20
22.999457465277775
 10
37.2039306640624972
 20
22.999457465277775
 10
37.2039306640624972
 20
22.999457465277775
 97
        0
 92
       16
 93
        1
 72
     4
 94
        3
 73
     0
 74
     0
 95
       23
 96
       19
 40
0.0
 40
0.0
 40
0.0
 40
0.0
 40
1.0
 40
1.0
 40
1.0
 40
2.0
 40
2.0
 40
2.0
 40
3.0
 40
3.0
 40
3.0
 40
4.0
 40
4.0
 40
4.0
 40
5.0
 40
5.0
 40
5.0
 40
6.0
 40
6.0
 40
6.0
 40
6.0
 10
35.8482855902777757
 20
23.0015245225694436
 10
35.8482855902777757
 20
23.0015245225694436
 10
35.8482855902777757
 20
21.2016343858506922
 10
35.8482855902777757
 20
21.2016343858506922
 10
35.8482855902777757
 20
21.2016343858506922
 10
36.9772433810763843
 20
21.2016343858506922
 10
36.9772433810763843
 20
21.2016343858506922
 10
36.9772433810763843
 20
21.2016343858506922
 10
36.9772433810763843
 20
21.5056640624999993
 10
36.9772433810763843
 20
21.5056640624999993
 10
36.9772433810763843
 20
21.5056640624999993
 10
36.1841824001736043
 20
21.5056640624999993
 10
36.1841824001736043
 20
21.5056640624999993
 10
36.1841824001736043
 20
21.5056640624999993
 10
36.1841824001736043
 20
23.0015245225694436
 10
36.1841824001736043
 20
23.0015245225694436
 10
36.1841824001736043
 20
23.0015245225694436
 10
35.8482855902777757
 20
23.0015245225694436
 10
35.8482855902777757
 20
23.0015245225694436
 97
        0
 92
       16
 93
        1
 72
     4
 94
        3
 73
     0
 74
     0
 95
       29
 96
       25
 40
0.0
 40
0.0
 40
0.0
 40
0.0
 40
1.0
 40
1.0
 40
1.0
 40
2.0
 40
2.0
 40
2.0
 40
3.0
 40
3.0
 40
3.0
 40
4.0
 40
4.0
 40
4.0
 40
5.0
 40
5.0
 40
5.0
 40
6.0
 40
6.0
 40
6.0
 40
7.0
 40
7.0
 40
7.0
 40
8.0
 40
8.0
 40
8.0
 40
8.0
 10
33.3957221137152729
 20
23.0004909939236093
 10
33.3957221137152729
 20
23.0004909939236093
 10
33.3957221137152729
 20
22.6911214192708321
 10
33.3957221137152729
 20
22.6911214192708321
 10
33.3957221137152729
 20
22.6911214192708321
 10
33.8980170355902715
 20
22.6911214192708321
 10
33.8980170355902715
 20
22.6911214192708321
 10
33.8980170355902715
 20
22.6911214192708321
 10
33.8980170355902715
 20
21.2016343858506922
 10
33.8980170355902715
 20
21.2016343858506922
 10
33.8980170355902715
 20
21.2016343858506922
 10
34.22805718315972
 20
21.2016343858506922
 10
34.22805718315972
 20
21.2016343858506922
 10
34.22805718315972
 20
21.2016343858506922
 10
34.22805718315972
 20
22.6900878906249979
 10
34.22805718315972
 20
22.6900878906249979
 10
34.22805718315972
 20
22.6900878906249979
 10
34.7310411241319414
 20
22.6900878906249979
 10
34.7310411241319414
 20
22.6900878906249979
 10
34.7310411241319414
 20
22.6900878906249979
 10
34.7310411241319414
 20
23.0004909939236093
 10
34.7310411241319414
 20
23.0004909939236093
 10
34.7310411241319414
 20
23.0004909939236093
 10
33.3957221137152729
 20
23.0004909939236093
 10
33.3957221137152729
 20
23.0004909939236093
 97
        0
 92
       16
 93
        1
 72
     4
 94
        3
 73
     0
 74
     0
 95
       53
 96
       49
 40
0.0
 40
0.0
 40
0.0
 40
0.0
 40
1.0
 40
1.0
 40
1.0
 40
2.0
 40
2.0
 40
2.0
 40
3.0
 40
3.0
 40
3.0
 40
4.0
 40
4.0
 40
4.0
 40
5.0
 40
5.0
 40
5.0
 40
6.0
 40
6.0
 40
6.0
 40
7.0
 40
7.0
 40
7.0
 40
8.0
 40
8.0
 40
8.0
 40
9.0
 40
9.0
 40
9.0
 40
10.0
 40
10.0
 40
10.0
 40
11.0
 40
11.0
 40
11.0
 40
12.0
 40
12.0
 40
12.0
 40
13.0
 40
13.0
 40
13.0
 40
14.0
 40
14.0
 40
14.0
 40
15.0
 40
15.0
 40
15.0
 40
16.0
 40
16.0
 40
16.0
 40
16.0
 10
31.9053738064236079
 20
23.0015245225694436
 10
31.9053738064236079
 20
23.0015245225694436
 10
31.9053738064236079
 20
21.7054796006944422
 10
31.9053738064236079
 20
21.7054796006944422
 10
31.9039957682291622
 20
21.4929172092013872
 10
32.0145833333333272
 20
21.2993028428819429
 10
32.1878716362847186
 20
21.2107638888888879
 10
32.3043158637152743
 20
21.1528862847222214
 10
32.4300618489583314
 20
21.1222249348958329
 10
32.5575303819444386
 20
21.1205023871527757
 10
32.6846544053819414
 20
21.1222249348958329
 10
32.8104003906249986
 20
21.1528862847222214
 10
32.9268446180555543
 20
21.2107638888888879
 10
33.10047743055555
 20
21.2993028428819429
 10
33.2110649956597186
 20
21.4929172092013872
 10
33.2096869574652729
 20
21.7051350911458307
 10
33.2096869574652729
 20
21.7051350911458307
 10
33.2096869574652729
 20
23.0015245225694436
 10
33.2096869574652729
 20
23.0015245225694436
 10
33.2096869574652729
 20
23.0015245225694436
 10
32.8731011284722214
 20
23.0015245225694436
 10
32.8731011284722214
 20
23.0015245225694436
 10
32.8731011284722214
 20
23.0015245225694436
 10
32.8731011284722214
 20
21.7829942491319422
 10
32.8731011284722214
 20
21.7829942491319422
 10
32.8731011284722214
 20
21.7829942491319422
 10
32.8720675998263872
 20
21.7137478298611093
 10
32.8720675998263872
 20
21.7137478298611093
 10
32.8658664279513886
 20
21.597648111979165
 10
32.7983425564236057
 20
21.4963623046874979
 10
32.69981282552083
 20
21.4563991970486079
 10
32.6543375651041643
 20
21.4374511718749972
 10
32.6061062282986072
 20
21.4288384331597186
 10
32.5575303819444386
 20
21.42918294270833
 10
32.5089545355902771
 20
21.4288384331597186
 10
32.46072319878472
 20
21.4374511718749972
 10
32.4149034288194429
 20
21.4560546874999964
 10
32.3167182074652715
 20
21.4963623046874979
 10
32.2491943359374957
 20
21.597648111979165
 10
32.2429931640624972
 20
21.7137478298611093
 10
32.2429931640624972
 20
21.7137478298611093
 10
32.2416151258680515
 20
21.7829942491319422
 10
32.2416151258680515
 20
21.7829942491319422
 10
32.2416151258680515
 20
21.7829942491319422
 10
32.2416151258680515
 20
23.0015245225694436
 10
32.2416151258680515
 20
23.0015245225694436
 10
32.2416151258680515
 20
23.0015245225694436
 10
31.9053738064236079
 20
23.0015245225694436
 10
31.9053738064236079
 20
23.0015245225694436
 97
        0
 92
        1
 93
        1
 72
     4
 94
        3
 73
     0
 74
     0
 95
       26
 96
       22
 40
0.0
 40
0.0
 40
0.0
 40
0.0
 40
1.0
 40
1.0
 40
1.0
 40
2.0
 40
2.0
 40
2.0
 40
3.0
 40
3.0
 40
3.0
 40
4.0
 40
4.0
 40
4.0
 40
5.0
 40
5.0
 40
5.0
 40
6.0
 40
6.0
 40
6.0
 40
7.0
 40
7.0
 40
7.0
 40
7.0
 10
30.7802056206597179
 20
22.707313368055555
 10
30.7802056206597179
 20
22.707313368055555
 10
31.0871636284722186
 20
22.707313368055555
 10
31.0871636284722186
 20
22.707313368055555
 10
31.1708794487847207
 20
22.7076578776041629
 10
31.2504611545138857
 20
22.6652832031249964
 10
31.302482096354165
 20
22.5922471788194414
 10
31.3452012803819429
 20
22.5326470269097214
 10
31.3638047960069422
 20
22.4565104166666636
 10
31.355536566840275
 20
22.3810628255208321
 10
31.346579318576385
 20
22.3052707248263857
 10
31.3114393446180515
 20
22.2367133246527757
 10
31.2570068359374957
 20
22.1905490451388872
 10
31.2122205946180529
 20
22.1576483832465243
 10
31.1608886718749964
 20
22.1381835937499964
 10
31.1071451822916636
 20
22.133704969618055
 10
31.1071451822916636
 20
22.133704969618055
 10
30.7802056206597179
 20
22.133704969618055
 10
30.7802056206597179
 20
22.133704969618055
 10
30.7802056206597179
 20
22.133704969618055
 10
30.7802056206597179
 20
22.707313368055555
 10
30.7802056206597179
 20
22.707313368055555
 97
        0
 92
       16
 93
        1
 72
     4
 94
        3
 73
     0
 74
     0
 95
       32
 96
       28
 40
0.0
 40
0.0
 40
0.0
 40
0.0
 40
1.0
 40
1.0
 40
1.0
 40
2.0
 40
2.0
 40
2.0
 40
3.0
 40
3.0
 40
3.0
 40
4.0
 40
4.0
 40
4.0
 40
5.0
 40
5.0
 40
5.0
 40
6.0
 40
6.0
 40
6.0
 40
7.0
 40
7.0
 40
7.0
 40
8.0
 40
8.0
 40
8.0
 40
9.0
 40
9.0
 40
9.0
 40
9.0
 10
30.4515435112847186
 20
23.0060031467013886
 10
30.4515435112847186
 20
23.0060031467013886
 10
30.4515435112847186
 20
21.2016343858506922
 10
30.4515435112847186
 20
21.2016343858506922
 10
30.4515435112847186
 20
21.2016343858506922
 10
30.7795166015624986
 20
21.2016343858506922
 10
30.7795166015624986
 20
21.2016343858506922
 10
30.7795166015624986
 20
21.2016343858506922
 10
30.7795166015624986
 20
21.8274359809027771
 10
30.7795166015624986
 20
21.8274359809027771
 10
30.7795166015624986
 20
21.8274359809027771
 10
31.2018853081597207
 20
21.839149305555555
 10
31.2018853081597207
 20
21.839149305555555
 10
31.4382188585069429
 20
21.8439724392361079
 10
31.6363118489583321
 20
22.0379313151041636
 10
31.6704182942708314
 20
22.2976915147569414
 10
31.68557671440972
 20
22.3989773220486086
 10
31.6797200520833293
 20
22.5026746961805522
 10
31.6531928168402743
 20
22.6010321723090257
 10
31.5953152126736079
 20
22.8251356336805529
 10
31.4168592664930522
 20
22.9842990451388864
 10
31.2073974609374964
 20
22.999457465277775
 10
31.1378065321180522
 20
23.0035915798611086
 10
31.067526584201385
 20
23.0060031467013886
 10
30.9972466362847179
 20
23.0060031467013886
 10
30.9972466362847179
 20
23.0060031467013886
 10
30.4515435112847186
 20
23.0060031467013886
 10
30.4515435112847186
 20
23.0060031467013886
 97
        0
 92
       16
 93
        1
 72
     4
 94
        3
 73
     0
 74
     0
 95
       29
 96
       25
 40
0.0
 40
0.0
 40
0.0
 40
0.0
 40
1.0
 40
1.0
 40
1.0
 40
2.0
 40
2.0
 40
2.0
 40
3.0
 40
3.0
 40
3.0
 40
4.0
 40
4.0
 40
4.0
 40
5.0
 40
5.0
 40
5.0
 40
6.0
 40
6.0
 40
6.0
 40
7.0
 40
7.0
 40
7.0
 40
8.0
 40
8.0
 40
8.0
 40
8.0
 10
28.8902262369791636
 20
23.0004909939236093
 10
28.8902262369791636
 20
23.0004909939236093
 10
28.8902262369791636
 20
22.6911214192708321
 10
28.8902262369791636
 20
22.6911214192708321
 10
28.8902262369791636
 20
22.6911214192708321
 10
29.3918321397569429
 20
22.6911214192708321
 10
29.3918321397569429
 20
22.6911214192708321
 10
29.3918321397569429
 20
22.6911214192708321
 10
29.3918321397569429
 20
21.2016343858506922
 10
29.3918321397569429
 20
21.2016343858506922
 10
29.3918321397569429
 20
21.2016343858506922
 10
29.7222167968749957
 20
21.2016343858506922
 10
29.7222167968749957
 20
21.2016343858506922
 10
29.7222167968749957
 20
21.2016343858506922
 10
29.7222167968749957
 20
22.6900878906249979
 10
29.7222167968749957
 20
22.6900878906249979
 10
29.7222167968749957
 20
22.6900878906249979
 10
30.2252007378472207
 20
22.6900878906249979
 10
30.2252007378472207
 20
22.6900878906249979
 10
30.2252007378472207
 20
22.6900878906249979
 10
30.2252007378472207
 20
23.0004909939236093
 10
30.2252007378472207
 20
23.0004909939236093
 10
30.2252007378472207
 20
23.0004909939236093
 10
28.8902262369791636
 20
23.0004909939236093
 10
28.8902262369791636
 20
23.0004909939236093
 97
        0
 92
       16
 93
        1
 72
     4
 94
        3
 73
     0
 74
     0
 95
       53
 96
       49
 40
0.0
 40
0.0
 40
0.0
 40
0.0
 40
1.0
 40
1.0
 40
1.0
 40
2.0
 40
2.0
 40
2.0
 40
3.0
 40
3.0
 40
3.0
 40
4.0
 40
4.0
 40
4.0
 40
5.0
 40
5.0
 40
5.0
 40
6.0
 40
6.0
 40
6.0
 40
7.0
 40
7.0
 40
7.0
 40
8.0
 40
8.0
 40
8.0
 40
9.0
 40
9.0
 40
9.0
 40
10.0
 40
10.0
 40
10.0
 40
11.0
 40
11.0
 40
11.0
 40
12.0
 40
12.0
 40
12.0
 40
13.0
 40
13.0
 40
13.0
 40
14.0
 40
14.0
 40
14.0
 40
15.0
 40
15.0
 40
15.0
 40
16.0
 40
16.0
 40
16.0
 40
16.0
 10
27.3998779296874986
 20
23.0015245225694436
 10
27.3998779296874986
 20
23.0015245225694436
 10
27.3998779296874986
 20
21.7054796006944422
 10
27.3998779296874986
 20
21.7054796006944422
 10
27.3981553819444414
 20
21.4929172092013872
 10
27.50874294704861
 20
21.2993028428819429
 10
27.6823757595486093
 20
21.2107638888888879
 10
27.798819986979165
 20
21.1528862847222214
 10
27.9242214626736072
 20
21.1222249348958329
 10
28.0516899956597214
 20
21.1205023871527757
 10
28.1791585286458321
 20
21.1222249348958329
 10
28.3045600043402743
 20
21.1528862847222214
 10
28.42100423177083
 20
21.2107638888888879
 10
28.5946370442708293
 20
21.2993028428819429
 10
28.7052246093749979
 20
21.4929172092013872
 10
28.7035020616319407
 20
21.7051350911458307
 10
28.7035020616319407
 20
21.7051350911458307
 10
28.7035020616319407
 20
23.0015245225694436
 10
28.7035020616319407
 20
23.0015245225694436
 10
28.7035020616319407
 20
23.0015245225694436
 10
28.3676052517361086
 20
23.0015245225694436
 10
28.3676052517361086
 20
23.0015245225694436
 10
28.3676052517361086
 20
23.0015245225694436
 10
28.3676052517361086
 20
21.7829942491319422
 10
28.3676052517361086
 20
21.7829942491319422
 10
28.3676052517361086
 20
21.7829942491319422
 10
28.3658827039930515
 20
21.7137478298611093
 10
28.3658827039930515
 20
21.7137478298611093
 10
28.3603705512152757
 20
21.597648111979165
 10
28.2921576605902736
 20
21.4963623046874979
 10
28.1939724392361093
 20
21.4563991970486079
 10
28.1484971788194436
 20
21.4374511718749972
 10
28.1002658420138864
 20
21.4288384331597186
 10
28.0516899956597214
 20
21.42918294270833
 10
28.0031141493055529
 20
21.4288384331597186
 10
27.9552273220486072
 20
21.4374511718749972
 10
27.9090630425347186
 20
21.4560546874999964
 10
27.8112223307291657
 20
21.4963623046874979
 10
27.7436984592013864
 20
21.597648111979165
 10
27.7371527777777764
 20
21.7137478298611093
 10
27.7371527777777764
 20
21.7137478298611093
 10
27.7361192491319422
 20
21.7829942491319422
 10
27.7361192491319422
 20
21.7829942491319422
 10
27.7361192491319422
 20
21.7829942491319422
 10
27.7361192491319422
 20
23.0015245225694436
 10
27.7361192491319422
 20
23.0015245225694436
 10
27.7361192491319422
 20
23.0015245225694436
 10
27.3998779296874986
 20
23.0015245225694436
 10
27.3998779296874986
 20
23.0015245225694436
 97
        0
 92
        1
 93
        1
 72
     4
 94
        3
 73
     0
 74
     0
 95
       29
 96
       25
 40
0.0
 40
0.0
 40
0.0
 40
0.0
 40
1.0
 40
1.0
 40
1.0
 40
2.0
 40
2.0
 40
2.0
 40
3.0
 40
3.0
 40
3.0
 40
4.0
 40
4.0
 40
4.0
 40
5.0
 40
5.0
 40
5.0
 40
6.0
 40
6.0
 40
6.0
 40
7.0
 40
7.0
 40
7.0
 40
8.0
 40
8.0
 40
8.0
 40
8.0
 10
26.7783827039930529
 20
21.7933295355902743
 10
26.75564507378472
 20
21.7247721354166643
 10
26.7232611762152743
 20
21.6610378689236107
 10
26.6822645399305536
 20
21.604193793402775
 10
26.6112955729166636
 20
21.5039415147569422
 10
26.5044976128472207
 20
21.4433078342013879
 10
26.3897759331597186
 20
21.43814019097222
 10
26.2753987630208314
 20
21.4433078342013879
 10
26.1682562934027771
 20
21.5039415147569422
 10
26.0976318359374986
 20
21.604193793402775
 10
26.0562906901041629
 20
21.6610378689236107
 10
26.0239067925347207
 20
21.7247721354166643
 10
26.0011691623263879
 20
21.7933295355902743
 10
25.9177978515624972
 20
22.05825737847222
 10
25.9501817491319429
 20
22.3512627495659686
 10
26.0897081163194429
 20
22.5860460069444429
 10
26.1596435546874986
 20
22.69387749565972
 10
26.2702311197916636
 20
22.7600233289930536
 10
26.3897759331597186
 20
22.76484646267361
 10
26.509665256076385
 20
22.7600233289930536
 10
26.6202528211805536
 20
22.69387749565972
 10
26.6901882595486093
 20
22.5860460069444429
 10
26.8293701171874979
 20
22.3512627495659686
 10
26.8624430338541629
 20
22.05825737847222
 10
26.7783827039930529
 20
21.7933295355902743
 97
        0
 92
       16
 93
        1
 72
     4
 94
        3
 73
     0
 74
     0
 95
       23
 96
       19
 40
0.0
 40
0.0
 40
0.0
 40
0.0
 40
1.0
 40
1.0
 40
1.0
 40
2.0
 40
2.0
 40
2.0
 40
3.0
 40
3.0
 40
3.0
 40
4.0
 40
4.0
 40
4.0
 40
5.0
 40
5.0
 40
5.0
 40
6.0
 40
6.0
 40
6.0
 40
6.0
 10
26.99473470052083
 20
21.4767252604166643
 10
27.2565619574652764
 20
21.9263102213541643
 10
27.1966172960069414
 20
22.5185221354166636
 10
26.8514187282986079
 20
22.8926595052083321
 10
26.7218831380208321
 20
23.01289333767361
 10
26.5592746310763879
 20
23.0807617187499972
 10
26.3897759331597186
 20
23.0845513237847193
 10
26.2202772352430529
 20
23.0807617187499972
 10
26.0576687282986086
 20
23.01289333767361
 10
25.9281331380208293
 20
22.8926595052083321
 10
25.5829345703124993
 20
22.5185221354166636
 10
25.5236789279513872
 20
21.9263102213541643
 10
25.7851616753472186
 20
21.4767252604166643
 10
25.92503255208333
 20
21.2593397352430529
 10
26.1493082682291629
 20
21.1287706163194429
 10
26.3897759331597186
 20
21.1242919921874979
 10
26.6305881076388857
 20
21.1287706163194429
 10
26.8548638237847186
 20
21.2593397352430529
 10
26.99473470052083
 20
21.4767252604166643
 97
        0
 75
     2
 76
     1
 98
        1
 10
0.0
 20
0.0
  0
HATCH
  5
50
100
AcDbEntity
  8
FIX-SILK_091020
390
0
 62
     7
100
AcDbHatch
 10
0.0
 20
0.0
 30
0.0
210
0.0
220
0.0
230
1.0
  2
SOLID
 70
     1
 71
     0
 91
        6
 92
       16
 93
        1
 72
     4
 94
        3
 73
     0
 74
     0
 95
       35
 96
       31
 40
0.0
 40
0.0
 40
0.0
 40
0.0
 40
1.0
 40
1.0
 40
1.0
 40
2.0
 40
2.0
 40
2.0
 40
3.0
 40
3.0
 40
3.0
 40
4.0
 40
4.0
 40
4.0
 40
5.0
 40
5.0
 40
5.0
 40
6.0
 40
6.0
 40
6.0
 40
7.0
 40
7.0
 40
7.0
 40
8.0
 40
8.0
 40
8.0
 40
9.0
 40
9.0
 40
9.0
 40
10.0
 40
10.0
 40
10.0
 40
10.0
 10
20.6691948784722186
 20
23.0004909939236093
 10
20.6691948784722186
 20
23.0004909939236093
 10
20.6691948784722186
 20
21.2016343858506922
 10
20.6691948784722186
 20
21.2016343858506922
 10
20.6691948784722186
 20
21.2016343858506922
 10
21.0140489366319443
 20
21.2016343858506922
 10
21.0140489366319443
 20
21.2016343858506922
 10
21.0140489366319443
 20
21.2016343858506922
 10
21.0140489366319443
 20
22.4227484809027757
 10
21.0140489366319443
 20
22.4227484809027757
 10
21.0140489366319443
 20
22.4227484809027757
 10
21.728217230902775
 20
21.2052517361111086
 10
21.728217230902775
 20
21.2052517361111086
 10
21.728217230902775
 20
21.2052517361111086
 10
22.0875406901041664
 20
21.2052517361111086
 10
22.0875406901041664
 20
21.2052517361111086
 10
22.0875406901041664
 20
21.2052517361111086
 10
22.0875406901041664
 20
23.0001464843749979
 10
22.0875406901041664
 20
23.0001464843749979
 10
22.0875406901041664
 20
23.0001464843749979
 10
21.7423421223958329
 20
23.0001464843749979
 10
21.7423421223958329
 20
23.0001464843749979
 10
21.7423421223958329
 20
23.0001464843749979
 10
21.7423421223958329
 20
21.790228949652775
 10
21.7423421223958329
 20
21.790228949652775
 10
21.7423421223958329
 20
21.790228949652775
 10
21.0347195095486086
 20
23.0004909939236093
 10
21.0347195095486086
 20
23.0004909939236093
 10
21.0347195095486086
 20
23.0004909939236093
 10
20.6691948784722186
 20
23.0004909939236093
 10
20.6691948784722186
 20
23.0004909939236093
 97
        0
 92
       16
 93
        1
 72
     4
 94
        3
 73
     0
 74
     0
 95
       17
 96
       13
 40
0.0
 40
0.0
 40
0.0
 40
0.0
 40
1.0
 40
1.0
 40
1.0
 40
2.0
 40
2.0
 40
2.0
 40
3.0
 40
3.0
 40
3.0
 40
4.0
 40
4.0
 40
4.0
 40
4.0
 10
19.9722520616319414
 20
22.9975626627604157
 10
19.9722520616319414
 20
22.9975626627604157
 10
19.9722520616319414
 20
21.2016343858506922
 10
19.9722520616319414
 20
21.2016343858506922
 10
19.9722520616319414
 20
21.2016343858506922
 10
20.3270968967013879
 20
21.2016343858506922
 10
20.3270968967013879
 20
21.2016343858506922
 10
20.3270968967013879
 20
21.2016343858506922
 10
20.3270968967013879
 20
22.9975626627604157
 10
20.3270968967013879
 20
22.9975626627604157
 10
20.3270968967013879
 20
22.9975626627604157
 10
19.9722520616319414
 20
22.9975626627604157
 10
19.9722520616319414
 20
22.9975626627604157
 97
        0
 92
       16
 93
        1
 72
     4
 94
        3
 73
     0
 74
     0
 95
       41
 96
       37
 40
0.0
 40
0.0
 40
0.0
 40
0.0
 40
1.0
 40
1.0
 40
1.0
 40
2.0
 40
2.0
 40
2.0
 40
3.0
 40
3.0
 40
3.0
 40
4.0
 40
4.0
 40
4.0
 40
5.0
 40
5.0
 40
5.0
 40
6.0
 40
6.0
 40
6.0
 40
7.0
 40
7.0
 40
7.0
 40
8.0
 40
8.0
 40
8.0
 40
9.0
 40
9.0
 40
9.0
 40
10.0
 40
10.0
 40
10.0
 40
11.0
 40
11.0
 40
11.0
 40
12.0
 40
12.0
 40
12.0
 40
12.0
 10
17.482826063368055
 20
22.9991129557291636
 10
17.482826063368055
 20
22.9991129557291636
 10
17.482826063368055
 20
21.2016343858506922
 10
17.482826063368055
 20
21.2016343858506922
 10
17.482826063368055
 20
21.2016343858506922
 10
18.7582004123263886
 20
21.2016343858506922
 10
18.7582004123263886
 20
21.2016343858506922
 10
18.7582004123263886
 20
21.2016343858506922
 10
18.7582004123263886
 20
21.5039415147569422
 10
18.7582004123263886
 20
21.5039415147569422
 10
18.7582004123263886
 20
21.5039415147569422
 10
17.8300916883680536
 20
21.5039415147569422
 10
17.8300916883680536
 20
21.5039415147569422
 10
17.8300916883680536
 20
21.5039415147569422
 10
17.8300916883680536
 20
21.9960734049479143
 10
17.8300916883680536
 20
21.9960734049479143
 10
17.8300916883680536
 20
21.9960734049479143
 10
18.630042860243055
 20
21.9960734049479143
 10
18.630042860243055
 20
21.9960734049479143
 10
18.630042860243055
 20
21.9960734049479143
 10
18.630042860243055
 20
22.3007921006944407
 10
18.630042860243055
 20
22.3007921006944407
 10
18.630042860243055
 20
22.3007921006944407
 10
17.83250325520833
 20
22.3007921006944407
 10
17.83250325520833
 20
22.3007921006944407
 10
17.83250325520833
 20
22.3007921006944407
 10
17.83250325520833
 20
22.6935329861111086
 10
17.83250325520833
 20
22.6935329861111086
 10
17.83250325520833
 20
22.6935329861111086
 10
18.7457980685763879
 20
22.6935329861111086
 10
18.7457980685763879
 20
22.6935329861111086
 10
18.7457980685763879
 20
22.6935329861111086
 10
18.7457980685763879
 20
22.9991129557291636
 10
18.7457980685763879
 20
22.9991129557291636
 10
18.7457980685763879
 20
22.9991129557291636
 10
17.482826063368055
 20
22.9991129557291636
 10
17.482826063368055
 20
22.9991129557291636
 97
        0
 92
       16
 93
        1
 72
     4
 94
        3
 73
     0
 74
     0
 95
       35
 96
       31
 40
0.0
 40
0.0
 40
0.0
 40
0.0
 40
1.0
 40
1.0
 40
1.0
 40
2.0
 40
2.0
 40
2.0
 40
3.0
 40
3.0
 40
3.0
 40
4.0
 40
4.0
 40
4.0
 40
5.0
 40
5.0
 40
5.0
 40
6.0
 40
6.0
 40
6.0
 40
7.0
 40
7.0
 40
7.0
 40
8.0
 40
8.0
 40
8.0
 40
9.0
 40
9.0
 40
9.0
 40
10.0
 40
10.0
 40
10.0
 40
10.0
 10
15.7223822699652764
 20
23.0004909939236093
 10
15.7223822699652764
 20
23.0004909939236093
 10
15.7223822699652764
 20
21.2016343858506922
 10
15.7223822699652764
 20
21.2016343858506922
 10
15.7223822699652764
 20
21.2016343858506922
 10
16.06758083767361
 20
21.2016343858506922
 10
16.06758083767361
 20
21.2016343858506922
 10
16.06758083767361
 20
21.2016343858506922
 10
16.06758083767361
 20
22.4227484809027757
 10
16.06758083767361
 20
22.4227484809027757
 10
16.06758083767361
 20
22.4227484809027757
 10
16.7814046223958329
 20
21.2052517361111086
 10
16.7814046223958329
 20
21.2052517361111086
 10
16.7814046223958329
 20
21.2052517361111086
 10
17.1407280815972207
 20
21.2052517361111086
 10
17.1407280815972207
 20
21.2052517361111086
 10
17.1407280815972207
 20
21.2052517361111086
 10
17.1407280815972207
 20
23.0001464843749979
 10
17.1407280815972207
 20
23.0001464843749979
 10
17.1407280815972207
 20
23.0001464843749979
 10
16.7958740234374986
 20
23.0001464843749979
 10
16.7958740234374986
 20
23.0001464843749979
 10
16.7958740234374986
 20
23.0001464843749979
 10
16.7958740234374986
 20
21.790228949652775
 10
16.7958740234374986
 20
21.790228949652775
 10
16.7958740234374986
 20
21.790228949652775
 10
16.0882514105902779
 20
23.0004909939236093
 10
16.0882514105902779
 20
23.0004909939236093
 10
16.0882514105902779
 20
23.0004909939236093
 10
15.7223822699652764
 20
23.0004909939236093
 10
15.7223822699652764
 20
23.0004909939236093
 97
        0
 92
       16
 93
        1
 72
     4
 94
        3
 73
     0
 74
     0
 95
       17
 96
       13
 40
0.0
 40
0.0
 40
0.0
 40
0.0
 40
1.0
 40
1.0
 40
1.0
 40
2.0
 40
2.0
 40
2.0
 40
3.0
 40
3.0
 40
3.0
 40
4.0
 40
4.0
 40
4.0
 40
4.0
 10
15.0254394531249993
 20
22.9975626627604157
 10
15.0254394531249993
 20
22.9975626627604157
 10
15.0254394531249993
 20
21.2016343858506922
 10
15.0254394531249993
 20
21.2016343858506922
 10
15.0254394531249993
 20
21.2016343858506922
 10
15.3806287977430536
 20
21.2016343858506922
 10
15.3806287977430536
 20
21.2016343858506922
 10
15.3806287977430536
 20
21.2016343858506922
 10
15.3806287977430536
 20
22.9975626627604157
 10
15.3806287977430536
 20
22.9975626627604157
 10
15.3806287977430536
 20
22.9975626627604157
 10
15.0254394531249993
 20
22.9975626627604157
 10
15.0254394531249993
 20
22.9975626627604157
 97
        0
 92
       16
 93
        1
 72
     4
 94
        3
 73
     0
 74
     0
 95
       23
 96
       19
 40
0.0
 40
0.0
 40
0.0
 40
0.0
 40
1.0
 40
1.0
 40
1.0
 40
2.0
 40
2.0
 40
2.0
 40
3.0
 40
3.0
 40
3.0
 40
4.0
 40
4.0
 40
4.0
 40
5.0
 40
5.0
 40
5.0
 40
6.0
 40
6.0
 40
6.0
 40
6.0
 10
13.5950358072916657
 20
23.0015245225694436
 10
13.5950358072916657
 20
23.0015245225694436
 10
13.5950358072916657
 20
21.2016343858506922
 10
13.5950358072916657
 20
21.2016343858506922
 10
13.5950358072916657
 20
21.2016343858506922
 10
14.7863498263888875
 20
21.2016343858506922
 10
14.7863498263888875
 20
21.2016343858506922
 10
14.7863498263888875
 20
21.2016343858506922
 10
14.7863498263888875
 20
21.5053195529513879
 10
14.7863498263888875
 20
21.5053195529513879
 10
14.7863498263888875
 20
21.5053195529513879
 10
13.9495361328124989
 20
21.5053195529513879
 10
13.9495361328124989
 20
21.5053195529513879
 10
13.9495361328124989
 20
21.5053195529513879
 10
13.9495361328124989
 20
23.0015245225694436
 10
13.9495361328124989
 20
23.0015245225694436
 10
13.9495361328124989
 20
23.0015245225694436
 10
13.5950358072916657
 20
23.0015245225694436
 10
13.5950358072916657
 20
23.0015245225694436
 97
        0
 75
     2
 76
     1
 98
        1
 10
0.0
 20
0.0
  0
INSERT
  5
4C
100
AcDbEntity
  8
FIX-SILK_091020
390
0
 62
     7
100
AcDbBlockReference
  2
AI9-BLK3
 10
41.240205
 20
10.913029
 30
0.0
  0
INSERT
  5
47
100
AcDbEntity
  8
FIX-SILK_091020
390
0
 62
     7
100
AcDbBlockReference
  2
AI9-BLK2
 10
29.239214
 20
10.906483
 30
0.0
  0
HATCH
  5
45
100
AcDbEntity
  8
FIX-SILK_091020
390
0
 62
     7
100
AcDbHatch
 10
0.0
 20
0.0
 30
0.0
210
0.0
220
0.0
230
1.0
  2
SOLID
 70
     1
 71
     0
 91
        8
 92
       16
 93
        1
 72
     4
 94
        3
 73
     0
 74
     0
 95
       29
 96
       25
 40
0.0
 40
0.0
 40
0.0
 40
0.0
 40
1.0
 40
1.0
 40
1.0
 40
2.0
 40
2.0
 40
2.0
 40
3.0
 40
3.0
 40
3.0
 40
4.0
 40
4.0
 40
4.0
 40
5.0
 40
5.0
 40
5.0
 40
6.0
 40
6.0
 40
6.0
 40
7.0
 40
7.0
 40
7.0
 40
8.0
 40
8.0
 40
8.0
 40
8.0
 10
116.4390597873263715
 20
22.9998019748263864
 10
116.4390597873263715
 20
22.9998019748263864
 10
116.4390597873263715
 20
22.6904324001736093
 10
116.4390597873263715
 20
22.6904324001736093
 10
116.4390597873263715
 20
22.6904324001736093
 10
116.9689154730902629
 20
22.6904324001736093
 10
116.9689154730902629
 20
22.6904324001736093
 10
116.9689154730902629
 20
22.6904324001736093
 10
116.9689154730902629
 20
21.2007731119791636
 10
116.9689154730902629
 20
21.2007731119791636
 10
116.9689154730902629
 20
21.2007731119791636
 10
117.3179036458333258
 20
21.2007731119791636
 10
117.3179036458333258
 20
21.2007731119791636
 10
117.3179036458333258
 20
21.2007731119791636
 10
117.3179036458333258
 20
22.6892266167534693
 10
117.3179036458333258
 20
22.6892266167534693
 10
117.3179036458333258
 20
22.6892266167534693
 10
117.8481038411458286
 20
22.6892266167534693
 10
117.8481038411458286
 20
22.6892266167534693
 10
117.8481038411458286
 20
22.6892266167534693
 10
117.8481038411458286
 20
22.9998019748263864
 10
117.8481038411458286
 20
22.9998019748263864
 10
117.8481038411458286
 20
22.9998019748263864
 10
116.4390597873263715
 20
22.9998019748263864
 10
116.4390597873263715
 20
22.9998019748263864
 97
        0
 92
       16
 93
        1
 72
     4
 94
        3
 73
     0
 74
     0
 95
       53
 96
       49
 40
0.0
 40
0.0
 40
0.0
 40
0.0
 40
1.0
 40
1.0
 40
1.0
 40
2.0
 40
2.0
 40
2.0
 40
3.0
 40
3.0
 40
3.0
 40
4.0
 40
4.0
 40
4.0
 40
5.0
 40
5.0
 40
5.0
 40
6.0
 40
6.0
 40
6.0
 40
7.0
 40
7.0
 40
7.0
 40
8.0
 40
8.0
 40
8.0
 40
9.0
 40
9.0
 40
9.0
 40
10.0
 40
10.0
 40
10.0
 40
11.0
 40
11.0
 40
11.0
 40
12.0
 40
12.0
 40
12.0
 40
13.0
 40
13.0
 40
13.0
 40
14.0
 40
14.0
 40
14.0
 40
15.0
 40
15.0
 40
15.0
 40
16.0
 40
16.0
 40
16.0
 40
16.0
 10
114.8660291883680458
 20
23.0008355034722207
 10
114.8660291883680458
 20
23.0008355034722207
 10
114.8660291883680458
 20
21.7042738172743022
 10
114.8660291883680458
 20
21.7042738172743022
 10
114.8639621310763772
 20
21.4918836805555529
 10
114.9810953776041629
 20
21.29861382378472
 10
115.1643744574652715
 20
21.210074869791665
 10
115.2866753472222143
 20
21.1521972656249986
 10
115.4193115234374858
 20
21.1211914062499986
 10
115.55401475694444
 20
21.1194688585069414
 10
115.68871799045138
 20
21.1211914062499986
 10
115.8210096571180401
 20
21.1521972656249986
 10
115.9436550564235944
 20
21.210074869791665
 10
116.1269341362847172
 20
21.29861382378472
 10
116.2437228732638772
 20
21.4918836805555529
 10
116.2420003255208201
 20
21.7042738172743022
 10
116.2420003255208201
 20
21.7042738172743022
 10
116.2420003255208201
 20
23.0008355034722207
 10
116.2420003255208201
 20
23.0008355034722207
 10
116.2420003255208201
 20
23.0008355034722207
 10
115.8871554904513772
 20
23.0008355034722207
 10
115.8871554904513772
 20
23.0008355034722207
 10
115.8871554904513772
 20
23.0008355034722207
 10
115.8871554904513772
 20
21.7823052300347193
 10
115.8871554904513772
 20
21.7823052300347193
 10
115.8871554904513772
 20
21.7823052300347193
 10
115.8861219618055429
 20
21.7128865559895807
 10
115.8861219618055429
 20
21.7128865559895807
 10
115.8788872612847172
 20
21.5966145833333307
 10
115.8079182942708201
 20
21.495673285590275
 10
115.7038764105902686
 20
21.4553656684027771
 10
115.6563340928819343
 20
21.4371066623263857
 10
115.6046576605902629
 20
21.4278049045138879
 10
115.55401475694444
 20
21.4284939236111107
 10
115.50268283420138
 20
21.4278049045138879
 10
115.4516954210069315
 20
21.4371066623263857
 10
115.4034640842013744
 20
21.4553656684027771
 10
115.2997667100694343
 20
21.495673285590275
 10
115.22845323350694
 20
21.5966145833333307
 10
115.2215630425347115
 20
21.7128865559895807
 10
115.2215630425347115
 20
21.7128865559895807
 10
115.2201850043402658
 20
21.7823052300347193
 10
115.2201850043402658
 20
21.7823052300347193
 10
115.2201850043402658
 20
21.7823052300347193
 10
115.2201850043402658
 20
23.0008355034722207
 10
115.2201850043402658
 20
23.0008355034722207
 10
115.2201850043402658
 20
23.0008355034722207
 10
114.8660291883680458
 20
23.0008355034722207
 10
114.8660291883680458
 20
23.0008355034722207
 97
        0
 92
        1
 93
        1
 72
     4
 94
        3
 73
     0
 74
     0
 95
       29
 96
       25
 40
0.0
 40
0.0
 40
0.0
 40
0.0
 40
1.0
 40
1.0
 40
1.0
 40
2.0
 40
2.0
 40
2.0
 40
3.0
 40
3.0
 40
3.0
 40
4.0
 40
4.0
 40
4.0
 40
5.0
 40
5.0
 40
5.0
 40
6.0
 40
6.0
 40
6.0
 40
7.0
 40
7.0
 40
7.0
 40
8.0
 40
8.0
 40
8.0
 40
8.0
 10
114.2093939887152629
 20
21.7922960069444436
 10
114.1856228298611029
 20
21.72373860677083
 10
114.1515163845486001
 20
21.659659830729165
 10
114.1081081814236029
 20
21.6031602647569407
 10
114.0330050998263829
 20
21.5029079861111079
 10
113.9206949869791572
 20
21.4422743055555536
 10
113.79977213541666
 20
21.4374511718749972
 10
113.6785047743055515
 20
21.4422743055555536
 10
113.5658501519097143
 20
21.5029079861111079
 10
113.4910915798611057
 20
21.6031602647569407
 10
113.4476833767360944
 20
21.659659830729165
 10
113.4128879123263829
 20
21.72373860677083
 10
113.3891167534722086
 20
21.7922960069444436
 10
113.3009223090277686
 20
22.0575683593749972
 10
113.3357177734374943
 20
22.3504014756944436
 10
113.4824788411458201
 20
22.5850124782986086
 10
113.5562038845485944
 20
22.6931884765624972
 10
113.67333713107638
 20
22.7589898003472193
 10
113.79977213541666
 20
22.7641574435763872
 10
113.9255181206597172
 20
22.7589898003472193
 10
114.0429958767361001
 20
22.6931884765624972
 10
114.1163764105902629
 20
22.5850124782986086
 10
114.2638264973958258
 20
22.3504014756944436
 10
114.29827745225694
 20
22.0575683593749972
 10
114.2093939887152629
 20
21.7922960069444436
 97
        0
 92
       16
 93
        1
 72
     4
 94
        3
 73
     0
 74
     0
 95
       23
 96
       19
 40
0.0
 40
0.0
 40
0.0
 40
0.0
 40
1.0
 40
1.0
 40
1.0
 40
2.0
 40
2.0
 40
2.0
 40
3.0
 40
3.0
 40
3.0
 40
4.0
 40
4.0
 40
4.0
 40
5.0
 40
5.0
 40
5.0
 40
6.0
 40
6.0
 40
6.0
 40
6.0
 10
114.4374593098958286
 20
21.4760362413194414
 10
114.7141004774305486
 20
21.9256212022569414
 10
114.6510552300347143
 20
22.5178331163194407
 10
114.2869086371527629
 20
22.8912814670138864
 10
114.1501383463541544
 20
23.0122043185763872
 10
113.9778835720485972
 20
23.0800726996527743
 10
113.7994276258680486
 20
23.0838623046874964
 10
113.6209716796874858
 20
23.0800726996527743
 10
113.4490614149305401
 20
23.0122043185763872
 10
113.3122911241319315
 20
22.8912814670138864
 10
112.9481445312499943
 20
22.5178331163194407
 10
112.88509928385416
 20
21.9256212022569414
 10
113.1613959418402686
 20
21.4760362413194414
 10
113.3088460286458172
 20
21.2583062065972186
 10
113.5451795789930429
 20
21.1273925781249972
 10
113.7994276258680486
 20
21.1232584635416636
 10
114.0533311631944287
 20
21.1273925781249972
 10
114.2906982421874886
 20
21.2583062065972186
 10
114.4374593098958286
 20
21.4760362413194414
 97
        0
 92
       16
 93
        1
 72
     4
 94
        3
 73
     0
 74
     0
 95
       41
 96
       37
 40
0.0
 40
0.0
 40
0.0
 40
0.0
 40
1.0
 40
1.0
 40
1.0
 40
2.0
 40
2.0
 40
2.0
 40
3.0
 40
3.0
 40
3.0
 40
4.0
 40
4.0
 40
4.0
 40
5.0
 40
5.0
 40
5.0
 40
6.0
 40
6.0
 40
6.0
 40
7.0
 40
7.0
 40
7.0
 40
8.0
 40
8.0
 40
8.0
 40
9.0
 40
9.0
 40
9.0
 40
10.0
 40
10.0
 40
10.0
 40
11.0
 40
11.0
 40
11.0
 40
12.0
 40
12.0
 40
12.0
 40
12.0
 10
110.5768853081597172
 20
22.9984239366319407
 10
110.5768853081597172
 20
22.9984239366319407
 10
110.5768853081597172
 20
21.2007731119791636
 10
110.5768853081597172
 20
21.2007731119791636
 10
110.5768853081597172
 20
21.2007731119791636
 10
111.8529486762152629
 20
21.2007731119791636
 10
111.8529486762152629
 20
21.2007731119791636
 10
111.8529486762152629
 20
21.2007731119791636
 10
111.8529486762152629
 20
21.5035970052083307
 10
111.8529486762152629
 20
21.5035970052083307
 10
111.8529486762152629
 20
21.5035970052083307
 10
110.9241509331597086
 20
21.5035970052083307
 10
110.9241509331597086
 20
21.5035970052083307
 10
110.9241509331597086
 20
21.5035970052083307
 10
110.9241509331597086
 20
21.9959011501736086
 10
110.9241509331597086
 20
21.9959011501736086
 10
110.9241509331597086
 20
21.9959011501736086
 10
111.72479112413194
 20
21.9959011501736086
 10
111.72479112413194
 20
21.9959011501736086
 10
111.72479112413194
 20
21.9959011501736086
 10
111.72479112413194
 20
22.3004475911458329
 10
111.72479112413194
 20
22.3004475911458329
 10
111.72479112413194
 20
22.3004475911458329
 10
110.9269070095486001
 20
22.3004475911458329
 10
110.9269070095486001
 20
22.3004475911458329
 10
110.9269070095486001
 20
22.3004475911458329
 10
110.9269070095486001
 20
22.6931884765624972
 10
110.9269070095486001
 20
22.6931884765624972
 10
110.9269070095486001
 20
22.6931884765624972
 10
111.8398573133680429
 20
22.6931884765624972
 10
111.8398573133680429
 20
22.6931884765624972
 10
111.8398573133680429
 20
22.6931884765624972
 10
111.8398573133680429
 20
22.9984239366319407
 10
111.8398573133680429
 20
22.9984239366319407
 10
111.8398573133680429
 20
22.9984239366319407
 10
110.5768853081597172
 20
22.9984239366319407
 10
110.5768853081597172
 20
22.9984239366319407
 97
        0
 92
       16
 93
        1
 72
     4
 94
        3
 73
     0
 74
     0
 95
       35
 96
       31
 40
0.0
 40
0.0
 40
0.0
 40
0.0
 40
1.0
 40
1.0
 40
1.0
 40
2.0
 40
2.0
 40
2.0
 40
3.0
 40
3.0
 40
3.0
 40
4.0
 40
4.0
 40
4.0
 40
5.0
 40
5.0
 40
5.0
 40
6.0
 40
6.0
 40
6.0
 40
7.0
 40
7.0
 40
7.0
 40
8.0
 40
8.0
 40
8.0
 40
9.0
 40
9.0
 40
9.0
 40
10.0
 40
10.0
 40
10.0
 40
10.0
 10
108.8167860243055429
 20
22.9998019748263864
 10
108.8167860243055429
 20
22.9998019748263864
 10
108.8167860243055429
 20
21.2007731119791636
 10
108.8167860243055429
 20
21.2007731119791636
 10
108.8167860243055429
 20
21.2007731119791636
 10
109.1612955729166572
 20
21.2007731119791636
 10
109.1612955729166572
 20
21.2007731119791636
 10
109.1612955729166572
 20
21.2007731119791636
 10
109.1612955729166572
 20
22.4224039713541643
 10
109.1612955729166572
 20
22.4224039713541643
 10
109.1612955729166572
 20
22.4224039713541643
 10
109.8758083767361029
 20
21.2045627170138857
 10
109.8758083767361029
 20
21.2045627170138857
 10
109.8758083767361029
 20
21.2045627170138857
 10
110.2351318359374943
 20
21.2045627170138857
 10
110.2351318359374943
 20
21.2045627170138857
 10
110.2351318359374943
 20
21.2045627170138857
 10
110.2351318359374943
 20
22.9998019748263864
 10
110.2351318359374943
 20
22.9998019748263864
 10
110.2351318359374943
 20
22.9998019748263864
 10
109.8899332682291572
 20
22.9998019748263864
 10
109.8899332682291572
 20
22.9998019748263864
 10
109.8899332682291572
 20
22.9998019748263864
 10
109.8899332682291572
 20
21.7898844401041636
 10
109.8899332682291572
 20
21.7898844401041636
 10
109.8899332682291572
 20
21.7898844401041636
 10
109.18231065538194
 20
22.9998019748263864
 10
109.18231065538194
 20
22.9998019748263864
 10
109.18231065538194
 20
22.9998019748263864
 10
108.8167860243055429
 20
22.9998019748263864
 10
108.8167860243055429
 20
22.9998019748263864
 97
        0
 92
       16
 93
        1
 72
     4
 94
        3
 73
     0
 74
     0
 95
       17
 96
       13
 40
0.0
 40
0.0
 40
0.0
 40
0.0
 40
1.0
 40
1.0
 40
1.0
 40
2.0
 40
2.0
 40
2.0
 40
3.0
 40
3.0
 40
3.0
 40
4.0
 40
4.0
 40
4.0
 40
4.0
 10
108.1191541883680429
 20
22.99739040798611
 10
108.1191541883680429
 20
22.99739040798611
 10
108.1191541883680429
 20
21.2007731119791636
 10
108.1191541883680429
 20
21.2007731119791636
 10
108.1191541883680429
 20
21.2007731119791636
 10
108.4739990234374858
 20
21.2007731119791636
 10
108.4739990234374858
 20
21.2007731119791636
 10
108.4739990234374858
 20
21.2007731119791636
 10
108.4739990234374858
 20
22.99739040798611
 10
108.4739990234374858
 20
22.99739040798611
 10
108.4739990234374858
 20
22.99739040798611
 10
108.1191541883680429
 20
22.99739040798611
 10
108.1191541883680429
 20
22.99739040798611
 97
        0
 92
       16
 93
        1
 72
     4
 94
        3
 73
     0
 74
     0
 95
       23
 96
       19
 40
0.0
 40
0.0
 40
0.0
 40
0.0
 40
1.0
 40
1.0
 40
1.0
 40
2.0
 40
2.0
 40
2.0
 40
3.0
 40
3.0
 40
3.0
 40
4.0
 40
4.0
 40
4.0
 40
5.0
 40
5.0
 40
5.0
 40
6.0
 40
6.0
 40
6.0
 40
6.0
 10
106.6887505425347058
 20
23.0008355034722207
 10
106.6887505425347058
 20
23.0008355034722207
 10
106.6887505425347058
 20
21.2007731119791636
 10
106.6887505425347058
 20
21.2007731119791636
 10
106.6887505425347058
 20
21.2007731119791636
 10
107.88006456163194
 20
21.2007731119791636
 10
107.88006456163194
 20
21.2007731119791636
 10
107.88006456163194
 20
21.2007731119791636
 10
107.88006456163194
 20
21.5049750434027764
 10
107.88006456163194
 20
21.5049750434027764
 10
107.88006456163194
 20
21.5049750434027764
 10
107.0435953776041629
 20
21.5049750434027764
 10
107.0435953776041629
 20
21.5049750434027764
 10
107.0435953776041629
 20
21.5049750434027764
 10
107.0435953776041629
 20
23.0008355034722207
 10
107.0435953776041629
 20
23.0008355034722207
 10
107.0435953776041629
 20
23.0008355034722207
 10
106.6887505425347058
 20
23.0008355034722207
 10
106.6887505425347058
 20
23.0008355034722207
 97
        0
 75
     2
 76
     1
 98
        1
 10
0.0
 20
0.0
  0
HATCH
  5
44
100
AcDbEntity
  8
FIX-SILK_091020
390
0
 62
     7
100
AcDbHatch
 10
0.0
 20
0.0
 30
0.0
210
0.0
220
0.0
230
1.0
  2
SOLID
 70
     1
 71
     0
 91
        3
 92
       16
 93
        1
 72
     4
 94
        3
 73
     0
 74
     0
 95
       29
 96
       25
 40
0.0
 40
0.0
 40
0.0
 40
0.0
 40
1.0
 40
1.0
 40
1.0
 40
2.0
 40
2.0
 40
2.0
 40
3.0
 40
3.0
 40
3.0
 40
4.0
 40
4.0
 40
4.0
 40
5.0
 40
5.0
 40
5.0
 40
6.0
 40
6.0
 40
6.0
 40
7.0
 40
7.0
 40
7.0
 40
8.0
 40
8.0
 40
8.0
 40
8.0
 10
103.4255560980902686
 20
21.0943196614583321
 10
103.4255560980902686
 20
21.0943196614583321
 10
103.3022216796874915
 20
21.7750705295138864
 10
103.3022216796874915
 20
21.7750705295138864
 10
103.3022216796874915
 20
21.7750705295138864
 10
103.0507297092013772
 20
21.7313178168402743
 10
103.0507297092013772
 20
21.7313178168402743
 10
103.0507297092013772
 20
21.7313178168402743
 10
103.0748453776041629
 20
21.6010932074652757
 10
103.0748453776041629
 20
21.6010932074652757
 10
103.0748453776041629
 20
21.6010932074652757
 10
102.83920084635416
 20
21.5566514756944407
 10
102.83920084635416
 20
21.5566514756944407
 10
102.83920084635416
 20
21.5566514756944407
 10
102.9156819661458258
 20
21.1363498263888872
 10
102.9156819661458258
 20
21.1363498263888872
 10
102.9156819661458258
 20
21.1363498263888872
 10
103.1513264973958286
 20
21.1773464626736079
 10
103.1513264973958286
 20
21.1773464626736079
 10
103.1513264973958286
 20
21.1773464626736079
 10
103.1744086371527658
 20
21.0509114583333314
 10
103.1744086371527658
 20
21.0509114583333314
 10
103.1744086371527658
 20
21.0509114583333314
 10
103.4255560980902686
 20
21.0943196614583321
 10
103.4255560980902686
 20
21.0943196614583321
 97
        0
 92
       16
 93
        1
 72
     4
 94
        3
 73
     0
 74
     0
 95
       41
 96
       37
 40
0.0
 40
0.0
 40
0.0
 40
0.0
 40
1.0
 40
1.0
 40
1.0
 40
2.0
 40
2.0
 40
2.0
 40
3.0
 40
3.0
 40
3.0
 40
4.0
 40
4.0
 40
4.0
 40
5.0
 40
5.0
 40
5.0
 40
6.0
 40
6.0
 40
6.0
 40
7.0
 40
7.0
 40
7.0
 40
8.0
 40
8.0
 40
8.0
 40
9.0
 40
9.0
 40
9.0
 40
10.0
 40
10.0
 40
10.0
 40
11.0
 40
11.0
 40
11.0
 40
12.0
 40
12.0
 40
12.0
 40
12.0
 10
104.5682942708333201
 20
21.8381157769097207
 10
104.5682942708333201
 20
21.8381157769097207
 10
104.6389187282986057
 20
22.2770209418402771
 10
104.6389187282986057
 20
22.2770209418402771
 10
104.6981743706597143
 20
22.6422010633680522
 10
104.5348768446180401
 20
23.0077256944444422
 10
104.2241292317708172
 20
23.2078857421874964
 10
103.9133816189236086
 20
23.4080457899305543
 10
103.5127170138888744
 20
23.404945203993055
 10
103.2047254774305429
 20
23.1999620225694407
 10
102.8967339409722115
 20
22.9951510959201357
 10
102.7399820963541544
 20
22.6266981336805522
 10
102.8047498914930458
 20
22.2628960503472193
 10
102.8047498914930458
 20
22.2628960503472193
 10
102.8805419921874886
 20
21.8377712673611093
 10
102.8805419921874886
 20
21.8377712673611093
 10
102.8805419921874886
 20
21.8377712673611093
 10
103.1272108289930429
 20
21.8822129991319407
 10
103.1272108289930429
 20
21.8822129991319407
 10
103.1272108289930429
 20
21.8822129991319407
 10
103.0493516710069315
 20
22.3176730685763864
 10
103.0493516710069315
 20
22.3176730685763864
 10
103.0045654296874886
 20
22.5850124782986086
 10
103.1223876953124972
 20
22.853385416666665
 10
103.3487304687499915
 20
23.0015245225694436
 10
103.5757622612847086
 20
23.1496636284722186
 10
103.8685953776041515
 20
23.1496636284722186
 10
104.0945936414930486
 20
23.0015245225694436
 10
104.3212809244791544
 20
22.8537299262152764
 10
104.4391031901041629
 20
22.58535698784722
 10
104.3943169487847058
 20
22.318534342447915
 10
104.3943169487847058
 20
22.318534342447915
 10
104.3209364149305429
 20
21.8818684895833329
 10
104.3209364149305429
 20
21.8818684895833329
 10
104.3209364149305429
 20
21.8818684895833329
 10
104.5682942708333201
 20
21.8381157769097207
 10
104.5682942708333201
 20
21.8381157769097207
 97
        0
 92
       16
 93
        1
 72
     4
 94
        3
 73
     0
 74
     0
 95
       29
 96
       25
 40
0.0
 40
0.0
 40
0.0
 40
0.0
 40
1.0
 40
1.0
 40
1.0
 40
2.0
 40
2.0
 40
2.0
 40
3.0
 40
3.0
 40
3.0
 40
4.0
 40
4.0
 40
4.0
 40
5.0
 40
5.0
 40
5.0
 40
6.0
 40
6.0
 40
6.0
 40
7.0
 40
7.0
 40
7.0
 40
8.0
 40
8.0
 40
8.0
 40
8.0
 10
104.2792507595486029
 20
21.0509114583333314
 10
104.2792507595486029
 20
21.0509114583333314
 10
104.3026774088541515
 20
21.1773464626736079
 10
104.3026774088541515
 20
21.1773464626736079
 10
104.3026774088541515
 20
21.1773464626736079
 10
104.5390109592013772
 20
21.1363498263888872
 10
104.5390109592013772
 20
21.1363498263888872
 10
104.5390109592013772
 20
21.1363498263888872
 10
104.6141140407985972
 20
21.5566514756944407
 10
104.6141140407985972
 20
21.5566514756944407
 10
104.6141140407985972
 20
21.5566514756944407
 10
104.3788140190972058
 20
21.6010932074652757
 10
104.3788140190972058
 20
21.6010932074652757
 10
104.3788140190972058
 20
21.6010932074652757
 10
104.4018961588541572
 20
21.7313178168402743
 10
104.4018961588541572
 20
21.7313178168402743
 10
104.4018961588541572
 20
21.7313178168402743
 10
104.1510932074652658
 20
21.7750705295138864
 10
104.1510932074652658
 20
21.7750705295138864
 10
104.1510932074652658
 20
21.7750705295138864
 10
104.0274142795138772
 20
21.0943196614583321
 10
104.0274142795138772
 20
21.0943196614583321
 10
104.0274142795138772
 20
21.0943196614583321
 10
104.2792507595486029
 20
21.0509114583333314
 10
104.2792507595486029
 20
21.0509114583333314
 97
        0
 75
     2
 76
     1
 98
        1
 10
0.0
 20
0.0
  0
INSERT
  5
40
100
AcDbEntity
  8
FIX-SILK_091020
390
0
 62
     7
100
AcDbBlockReference
  2
AI9-BLK1
 10
105.660734
 20
22.108039
 30
0.0
  0
HATCH
  5
3E
100
AcDbEntity
  8
FIX-SILK_091020
390
0
 62
     7
100
AcDbHatch
 10
0.0
 20
0.0
 30
0.0
210
0.0
220
0.0
230
1.0
  2
SOLID
 70
     1
 71
     0
 91
        9
 92
       16
 93
        1
 72
     4
 94
        3
 73
     0
 74
     0
 95
       23
 96
       19
 40
0.0
 40
0.0
 40
0.0
 40
0.0
 40
1.0
 40
1.0
 40
1.0
 40
2.0
 40
2.0
 40
2.0
 40
3.0
 40
3.0
 40
3.0
 40
4.0
 40
4.0
 40
4.0
 40
5.0
 40
5.0
 40
5.0
 40
6.0
 40
6.0
 40
6.0
 40
6.0
 10
80.6848253038194372
 20
23.0015245225694436
 10
80.6848253038194372
 20
23.0015245225694436
 10
80.6848253038194372
 20
21.2016343858506922
 10
80.6848253038194372
 20
21.2016343858506922
 10
80.6848253038194372
 20
21.2016343858506922
 10
81.9384955512152686
 20
21.2016343858506922
 10
81.9384955512152686
 20
21.2016343858506922
 10
81.9384955512152686
 20
21.2016343858506922
 10
81.9384955512152686
 20
21.5056640624999993
 10
81.9384955512152686
 20
21.5056640624999993
 10
81.9384955512152686
 20
21.5056640624999993
 10
81.0582736545138829
 20
21.5056640624999993
 10
81.0582736545138829
 20
21.5056640624999993
 10
81.0582736545138829
 20
21.5056640624999993
 10
81.0582736545138829
 20
23.0015245225694436
 10
81.0582736545138829
 20
23.0015245225694436
 10
81.0582736545138829
 20
23.0015245225694436
 10
80.6848253038194372
 20
23.0015245225694436
 10
80.6848253038194372
 20
23.0015245225694436
 97
        0
 92
       16
 93
        1
 72
     4
 94
        3
 73
     0
 74
     0
 95
       41
 96
       37
 40
0.0
 40
0.0
 40
0.0
 40
0.0
 40
1.0
 40
1.0
 40
1.0
 40
2.0
 40
2.0
 40
2.0
 40
3.0
 40
3.0
 40
3.0
 40
4.0
 40
4.0
 40
4.0
 40
5.0
 40
5.0
 40
5.0
 40
6.0
 40
6.0
 40
6.0
 40
7.0
 40
7.0
 40
7.0
 40
8.0
 40
8.0
 40
8.0
 40
9.0
 40
9.0
 40
9.0
 40
10.0
 40
10.0
 40
10.0
 40
11.0
 40
11.0
 40
11.0
 40
12.0
 40
12.0
 40
12.0
 40
12.0
 10
79.0542616102430458
 20
22.999457465277775
 10
79.0542616102430458
 20
22.999457465277775
 10
79.0542616102430458
 20
21.2016343858506922
 10
79.0542616102430458
 20
21.2016343858506922
 10
79.0542616102430458
 20
21.2016343858506922
 10
80.3971598307291657
 20
21.2016343858506922
 10
80.3971598307291657
 20
21.2016343858506922
 10
80.3971598307291657
 20
21.2016343858506922
 10
80.3971598307291657
 20
21.5042860243055536
 10
80.3971598307291657
 20
21.5042860243055536
 10
80.3971598307291657
 20
21.5042860243055536
 10
79.4197862413194429
 20
21.5042860243055536
 10
79.4197862413194429
 20
21.5042860243055536
 10
79.4197862413194429
 20
21.5042860243055536
 10
79.4197862413194429
 20
21.99624565972222
 10
79.4197862413194429
 20
21.99624565972222
 10
79.4197862413194429
 20
21.99624565972222
 10
80.2621120876736001
 20
21.99624565972222
 10
80.2621120876736001
 20
21.99624565972222
 10
80.2621120876736001
 20
21.99624565972222
 10
80.2621120876736001
 20
22.3011366102430522
 10
80.2621120876736001
 20
22.3011366102430522
 10
80.2621120876736001
 20
22.3011366102430522
 10
79.4225423177083201
 20
22.3011366102430522
 10
79.4225423177083201
 20
22.3011366102430522
 10
79.4225423177083201
 20
22.3011366102430522
 10
79.4225423177083201
 20
22.69387749565972
 10
79.4225423177083201
 20
22.69387749565972
 10
79.4225423177083201
 20
22.69387749565972
 10
80.3833794487847086
 20
22.69387749565972
 10
80.3833794487847086
 20
22.69387749565972
 10
80.3833794487847086
 20
22.69387749565972
 10
80.3833794487847086
 20
22.999457465277775
 10
80.3833794487847086
 20
22.999457465277775
 10
80.3833794487847086
 20
22.999457465277775
 10
79.0542616102430458
 20
22.999457465277775
 10
79.0542616102430458
 20
22.999457465277775
 97
        0
 92
       16
 93
        1
 72
     4
 94
        3
 73
     0
 74
     0
 95
       29
 96
       25
 40
0.0
 40
0.0
 40
0.0
 40
0.0
 40
1.0
 40
1.0
 40
1.0
 40
2.0
 40
2.0
 40
2.0
 40
3.0
 40
3.0
 40
3.0
 40
4.0
 40
4.0
 40
4.0
 40
5.0
 40
5.0
 40
5.0
 40
6.0
 40
6.0
 40
6.0
 40
7.0
 40
7.0
 40
7.0
 40
8.0
 40
8.0
 40
8.0
 40
8.0
 10
77.2604003906249943
 20
22.999457465277775
 10
77.2604003906249943
 20
22.999457465277775
 10
77.8739718967013772
 20
21.2016343858506922
 10
77.8739718967013772
 20
21.2016343858506922
 10
77.8739718967013772
 20
21.2016343858506922
 10
78.0582845052083201
 20
21.2016343858506922
 10
78.0582845052083201
 20
21.2016343858506922
 10
78.0582845052083201
 20
21.2016343858506922
 10
78.2429416232638886
 20
21.2016343858506922
 10
78.2429416232638886
 20
21.2016343858506922
 10
78.2429416232638886
 20
21.2016343858506922
 10
78.8565131293402715
 20
22.999457465277775
 10
78.8565131293402715
 20
22.999457465277775
 10
78.8565131293402715
 20
22.999457465277775
 10
78.4610161675347086
 20
22.999457465277775
 10
78.4610161675347086
 20
22.999457465277775
 10
78.4610161675347086
 20
22.999457465277775
 10
78.0582845052083201
 20
21.6672390407986093
 10
78.0582845052083201
 20
21.6672390407986093
 10
78.0582845052083201
 20
21.6672390407986093
 10
77.6555528428819315
 20
22.999457465277775
 10
77.6555528428819315
 20
22.999457465277775
 10
77.6555528428819315
 20
22.999457465277775
 10
77.2604003906249943
 20
22.999457465277775
 10
77.2604003906249943
 20
22.999457465277775
 97
        0
 92
       16
 93
        1
 72
     4
 94
        3
 73
     0
 74
     0
 95
       41
 96
       37
 40
0.0
 40
0.0
 40
0.0
 40
0.0
 40
1.0
 40
1.0
 40
1.0
 40
2.0
 40
2.0
 40
2.0
 40
3.0
 40
3.0
 40
3.0
 40
4.0
 40
4.0
 40
4.0
 40
5.0
 40
5.0
 40
5.0
 40
6.0
 40
6.0
 40
6.0
 40
7.0
 40
7.0
 40
7.0
 40
8.0
 40
8.0
 40
8.0
 40
9.0
 40
9.0
 40
9.0
 40
10.0
 40
10.0
 40
10.0
 40
11.0
 40
11.0
 40
11.0
 40
12.0
 40
12.0
 40
12.0
 40
12.0
 10
75.6567084418402658
 20
22.999457465277775
 10
75.6567084418402658
 20
22.999457465277775
 10
75.6567084418402658
 20
21.2016343858506922
 10
75.6567084418402658
 20
21.2016343858506922
 10
75.6567084418402658
 20
21.2016343858506922
 10
76.9996066623263857
 20
21.2016343858506922
 10
76.9996066623263857
 20
21.2016343858506922
 10
76.9996066623263857
 20
21.2016343858506922
 10
76.9996066623263857
 20
21.5042860243055536
 10
76.9996066623263857
 20
21.5042860243055536
 10
76.9996066623263857
 20
21.5042860243055536
 10
76.0222330729166629
 20
21.5042860243055536
 10
76.0222330729166629
 20
21.5042860243055536
 10
76.0222330729166629
 20
21.5042860243055536
 10
76.0222330729166629
 20
21.99624565972222
 10
76.0222330729166629
 20
21.99624565972222
 10
76.0222330729166629
 20
21.99624565972222
 10
76.8645589192708201
 20
21.99624565972222
 10
76.8645589192708201
 20
21.99624565972222
 10
76.8645589192708201
 20
21.99624565972222
 10
76.8645589192708201
 20
22.3011366102430522
 10
76.8645589192708201
 20
22.3011366102430522
 10
76.8645589192708201
 20
22.3011366102430522
 10
76.0249891493055543
 20
22.3011366102430522
 10
76.0249891493055543
 20
22.3011366102430522
 10
76.0249891493055543
 20
22.3011366102430522
 10
76.0249891493055543
 20
22.69387749565972
 10
76.0249891493055543
 20
22.69387749565972
 10
76.0249891493055543
 20
22.69387749565972
 10
76.9858262803819429
 20
22.69387749565972
 10
76.9858262803819429
 20
22.69387749565972
 10
76.9858262803819429
 20
22.69387749565972
 10
76.9858262803819429
 20
22.999457465277775
 10
76.9858262803819429
 20
22.999457465277775
 10
76.9858262803819429
 20
22.999457465277775
 10
75.6567084418402658
 20
22.999457465277775
 10
75.6567084418402658
 20
22.999457465277775
 97
        0
 92
       16
 93
        1
 72
     4
 94
        3
 73
     0
 74
     0
 95
       23
 96
       19
 40
0.0
 40
0.0
 40
0.0
 40
0.0
 40
1.0
 40
1.0
 40
1.0
 40
2.0
 40
2.0
 40
2.0
 40
3.0
 40
3.0
 40
3.0
 40
4.0
 40
4.0
 40
4.0
 40
5.0
 40
5.0
 40
5.0
 40
6.0
 40
6.0
 40
6.0
 40
6.0
 10
74.1512017144097086
 20
23.0015245225694436
 10
74.1512017144097086
 20
23.0015245225694436
 10
74.1512017144097086
 20
21.2016343858506922
 10
74.1512017144097086
 20
21.2016343858506922
 10
74.1512017144097086
 20
21.2016343858506922
 10
75.4048719618055543
 20
21.2016343858506922
 10
75.4048719618055543
 20
21.2016343858506922
 10
75.4048719618055543
 20
21.2016343858506922
 10
75.4048719618055543
 20
21.5056640624999993
 10
75.4048719618055543
 20
21.5056640624999993
 10
75.4048719618055543
 20
21.5056640624999993
 10
74.5239610460069315
 20
21.5056640624999993
 10
74.5239610460069315
 20
21.5056640624999993
 10
74.5239610460069315
 20
21.5056640624999993
 10
74.5239610460069315
 20
23.0015245225694436
 10
74.5239610460069315
 20
23.0015245225694436
 10
74.5239610460069315
 20
23.0015245225694436
 10
74.1512017144097086
 20
23.0015245225694436
 10
74.1512017144097086
 20
23.0015245225694436
 97
        0
 92
       16
 93
        1
 72
     4
 94
        3
 73
     0
 74
     0
 95
       56
 96
       52
 40
0.0
 40
0.0
 40
0.0
 40
0.0
 40
1.0
 40
1.0
 40
1.0
 40
2.0
 40
2.0
 40
2.0
 40
3.0
 40
3.0
 40
3.0
 40
4.0
 40
4.0
 40
4.0
 40
5.0
 40
5.0
 40
5.0
 40
6.0
 40
6.0
 40
6.0
 40
7.0
 40
7.0
 40
7.0
 40
8.0
 40
8.0
 40
8.0
 40
9.0
 40
9.0
 40
9.0
 40
10.0
 40
10.0
 40
10.0
 40
11.0
 40
11.0
 40
11.0
 40
12.0
 40
12.0
 40
12.0
 40
13.0
 40
13.0
 40
13.0
 40
14.0
 40
14.0
 40
14.0
 40
15.0
 40
15.0
 40
15.0
 40
16.0
 40
16.0
 40
16.0
 40
17.0
 40
17.0
 40
17.0
 40
17.0
 10
72.8778944227430543
 20
22.4394571940104157
 10
72.8572238498263829
 20
22.6956000434027771
 10
72.6915147569444429
 20
22.9171196831597186
 10
72.45104709201388
 20
23.0080702039930536
 10
72.2198811848958258
 20
23.09815945095486
 10
71.9625325520833314
 20
23.0914415147569407
 10
71.7361897786458229
 20
22.9894666883680543
 10
71.5287950303819429
 20
22.899894205729165
 10
71.3710096571180515
 20
22.7245388454861086
 10
71.3024522569444343
 20
22.5092203776041657
 10
71.2228705512152658
 20
22.257728407118055
 10
71.2183919270833314
 20
21.9886664496527757
 10
71.2893608940972143
 20
21.7347629123263886
 10
71.3696316189236057
 20
21.4608778211805529
 10
71.5842610677083258
 20
21.2465928819444443
 10
71.8588351779513772
 20
21.1673556857638872
 10
72.0366021050347172
 20
21.1177463107638879
 10
72.2247043185763857
 20
21.11912434895833
 10
72.4017822265624886
 20
21.1720065646701379
 10
72.6736002604166629
 20
21.2507269965277743
 10
72.8689371744791572
 20
21.4894721137152764
 10
72.8913302951388857
 20
21.7719699435763872
 10
72.8913302951388857
 20
21.7719699435763872
 10
72.5175374348958286
 20
21.7716254340277757
 10
72.5175374348958286
 20
21.7716254340277757
 10
72.5072021484375
 20
21.6982449001736093
 10
72.4768853081597086
 20
21.628653971354165
 10
72.4293429904513886
 20
21.5714653862847214
 10
72.3418375651041572
 20
21.4810316297743036
 10
72.2191921657986029
 20
21.4333170572916636
 10
72.0937906901041572
 20
21.4402072482638886
 10
71.9680447048611001
 20
21.4467529296874986
 10
71.85125596788194
 20
21.5070421006944414
 10
71.77374131944444
 20
21.6062608506944436
 10
71.7065619574652686
 20
21.6899766710069422
 10
71.6590196397569343
 20
21.7878173828124986
 10
71.6355929904513857
 20
21.8930650499131936
 10
71.6128553602430458
 20
22.0041693793402757
 10
71.6059651692708314
 20
22.1178575303819436
 10
71.6156114366319372
 20
22.2310289171006907
 10
71.6266357421874886
 20
22.3538465711805543
 10
71.6693549262152771
 20
22.4713243272569407
 10
71.74032389322916
 20
22.5719211154513886
 10
71.8360975477430515
 20
22.7069688585069436
 10
71.9973280164930429
 20
22.7800048828124986
 10
72.1616590711805515
 20
22.7626071506076357
 10
72.3397705078124886
 20
22.74934353298611
 10
72.4858425564236057
 20
22.6158460828993029
 10
72.51547037760416
 20
22.4399739583333329
 10
72.51547037760416
 20
22.4399739583333329
 10
72.8778944227430543
 20
22.4399739583333329
 10
72.8778944227430543
 20
22.4394571940104157
 97
        0
 92
       16
 93
        1
 72
     4
 94
        3
 73
     0
 74
     0
 95
       41
 96
       37
 40
0.0
 40
0.0
 40
0.0
 40
0.0
 40
1.0
 40
1.0
 40
1.0
 40
2.0
 40
2.0
 40
2.0
 40
3.0
 40
3.0
 40
3.0
 40
4.0
 40
4.0
 40
4.0
 40
5.0
 40
5.0
 40
5.0
 40
6.0
 40
6.0
 40
6.0
 40
7.0
 40
7.0
 40
7.0
 40
8.0
 40
8.0
 40
8.0
 40
9.0
 40
9.0
 40
9.0
 40
10.0
 40
10.0
 40
10.0
 40
11.0
 40
11.0
 40
11.0
 40
12.0
 40
12.0
 40
12.0
 40
12.0
 10
69.6898030598958229
 20
22.999457465277775
 10
69.6898030598958229
 20
22.999457465277775
 10
69.6898030598958229
 20
21.2016343858506922
 10
69.6898030598958229
 20
21.2016343858506922
 10
69.6898030598958229
 20
21.2016343858506922
 10
71.0327012803819429
 20
21.2016343858506922
 10
71.0327012803819429
 20
21.2016343858506922
 10
71.0327012803819429
 20
21.2016343858506922
 10
71.0327012803819429
 20
21.5042860243055536
 10
71.0327012803819429
 20
21.5042860243055536
 10
71.0327012803819429
 20
21.5042860243055536
 10
70.05532769097222
 20
21.5042860243055536
 10
70.05532769097222
 20
21.5042860243055536
 10
70.05532769097222
 20
21.5042860243055536
 10
70.05532769097222
 20
21.99624565972222
 10
70.05532769097222
 20
21.99624565972222
 10
70.05532769097222
 20
21.99624565972222
 10
70.8976535373263772
 20
21.99624565972222
 10
70.8976535373263772
 20
21.99624565972222
 10
70.8976535373263772
 20
21.99624565972222
 10
70.8976535373263772
 20
22.3011366102430522
 10
70.8976535373263772
 20
22.3011366102430522
 10
70.8976535373263772
 20
22.3011366102430522
 10
70.0580837673611114
 20
22.3011366102430522
 10
70.0580837673611114
 20
22.3011366102430522
 10
70.0580837673611114
 20
22.3011366102430522
 10
70.0580837673611114
 20
22.69387749565972
 10
70.0580837673611114
 20
22.69387749565972
 10
70.0580837673611114
 20
22.69387749565972
 10
71.0189208984375
 20
22.69387749565972
 10
71.0189208984375
 20
22.69387749565972
 10
71.0189208984375
 20
22.69387749565972
 10
71.0189208984375
 20
22.999457465277775
 10
71.0189208984375
 20
22.999457465277775
 10
71.0189208984375
 20
22.999457465277775
 10
69.6898030598958229
 20
22.999457465277775
 10
69.6898030598958229
 20
22.999457465277775
 97
        0
 92
        1
 93
        1
 72
     4
 94
        3
 73
     0
 74
     0
 95
       23
 96
       19
 40
0.0
 40
0.0
 40
0.0
 40
0.0
 40
1.0
 40
1.0
 40
1.0
 40
2.0
 40
2.0
 40
2.0
 40
3.0
 40
3.0
 40
3.0
 40
4.0
 40
4.0
 40
4.0
 40
5.0
 40
5.0
 40
5.0
 40
6.0
 40
6.0
 40
6.0
 40
6.0
 10
68.32967936197916
 20
22.7086914062499972
 10
68.32967936197916
 20
22.7086914062499972
 10
68.7861545138888886
 20
22.7086914062499972
 10
68.7861545138888886
 20
22.7086914062499972
 10
68.8774495442708314
 20
22.7076578776041629
 10
68.9601318359374886
 20
22.6564982096354157
 10
69.00112847222222
 20
22.5757107204861107
 10
69.0424696180555486
 20
22.4949232313368022
 10
69.0359239366319315
 20
22.3975992838541629
 10
68.98321397569444
 20
22.3235297309027771
 10
68.9298149956597115
 20
22.2504937065972186
 10
68.8457546657986086
 20
22.20674099392361
 10
68.7548041449652771
 20
22.2057074652777757
 10
68.7548041449652771
 20
22.2057074652777757
 10
68.32967936197916
 20
22.2057074652777757
 10
68.32967936197916
 20
22.2057074652777757
 10
68.32967936197916
 20
22.2057074652777757
 10
68.32967936197916
 20
22.7086914062499972
 10
68.32967936197916
 20
22.7086914062499972
 97
        0
 92
       16
 93
        1
 72
     4
 94
        3
 73
     0
 74
     0
 95
       56
 96
       52
 40
0.0
 40
0.0
 40
0.0
 40
0.0
 40
1.0
 40
1.0
 40
1.0
 40
2.0
 40
2.0
 40
2.0
 40
3.0
 40
3.0
 40
3.0
 40
4.0
 40
4.0
 40
4.0
 40
5.0
 40
5.0
 40
5.0
 40
6.0
 40
6.0
 40
6.0
 40
7.0
 40
7.0
 40
7.0
 40
8.0
 40
8.0
 40
8.0
 40
9.0
 40
9.0
 40
9.0
 40
10.0
 40
10.0
 40
10.0
 40
11.0
 40
11.0
 40
11.0
 40
12.0
 40
12.0
 40
12.0
 40
13.0
 40
13.0
 40
13.0
 40
14.0
 40
14.0
 40
14.0
 40
15.0
 40
15.0
 40
15.0
 40
16.0
 40
16.0
 40
16.0
 40
17.0
 40
17.0
 40
17.0
 40
17.0
 10
67.9596761067708286
 20
23.0008355034722207
 10
67.9596761067708286
 20
23.0008355034722207
 10
67.9596761067708286
 20
21.2016343858506922
 10
67.9596761067708286
 20
21.2016343858506922
 10
67.9596761067708286
 20
21.2016343858506922
 10
68.3303683810763829
 20
21.2016343858506922
 10
68.3303683810763829
 20
21.2016343858506922
 10
68.3303683810763829
 20
21.2016343858506922
 10
68.3303683810763829
 20
21.9287217881944407
 10
68.3303683810763829
 20
21.9287217881944407
 10
68.3303683810763829
 20
21.9287217881944407
 10
68.5890950520833229
 20
21.9287217881944407
 10
68.5890950520833229
 20
21.9287217881944407
 10
68.6514512803819343
 20
21.9280327690972214
 10
68.7134629991319343
 20
21.922003851996525
 10
68.7740966796874886
 20
21.9108072916666643
 10
68.8705593532986029
 20
21.8822129991319407
 10
68.9422173394097229
 20
21.8019422743055529
 10
68.9601318359374886
 20
21.7034125434027771
 10
68.9835584852430515
 20
21.5845567491319414
 10
68.9966498480902715
 20
21.4632893880208329
 10
68.99871690538194
 20
21.3416775173611093
 10
69.0000949435763857
 20
21.2934461805555522
 10
69.0131863064236057
 20
21.2460761176215271
 10
69.0366129557291544
 20
21.2037014431423607
 10
69.0366129557291544
 20
21.2037014431423607
 10
69.3831895616319372
 20
21.2037014431423607
 10
69.3831895616319372
 20
21.2037014431423607
 10
69.3649305555555458
 20
21.2460761176215271
 10
69.35287272135416
 20
21.2906901041666643
 10
69.3480495876736001
 20
21.3371988932291643
 10
69.3480495876736001
 20
21.3371988932291643
 10
69.3315131293402658
 20
21.6110839843749964
 10
69.3315131293402658
 20
21.6110839843749964
 10
69.3301350911458201
 20
21.6727511935763886
 10
69.3235894097222172
 20
21.73390163845486
 10
69.3122205946180543
 20
21.79470757378472
 10
69.2887939453124915
 20
21.9400906032986107
 10
69.1702826605902743
 20
22.0510226779513872
 10
69.0242106119791572
 20
22.0656643337673586
 10
69.2254041883680458
 20
22.0983927408854157
 10
69.3769883897569315
 20
22.2649631076388879
 10
69.3914577907986114
 20
22.4682237413194414
 10
69.4104058159722115
 20
22.722816297743055
 10
69.2295383029513829
 20
22.94847005208333
 10
68.9766682942708229
 20
22.986366102430555
 10
68.8967420789930429
 20
22.9987684461805522
 10
68.8154378255208314
 20
23.0035915798611086
 10
68.7348225911458286
 20
23.0008355034722207
 10
68.7348225911458286
 20
23.0008355034722207
 10
67.9596761067708286
 20
23.0008355034722207
 10
67.9596761067708286
 20
23.0008355034722207
 97
        0
 75
     2
 76
     1
 98
        1
 10
0.0
 20
0.0
  0
HATCH
  5
3C
100
AcDbEntity
  8
COMMENT
390
0
 62
     7
100
AcDbHatch
 10
0.0
 20
0.0
 30
0.0
210
0.0
220
0.0
230
1.0
  2
SOLID
 70
     1
 71
     0
 91
        4
 92
        1
 93
        1
 72
     4
 94
        3
 73
     0
 74
     0
 95
       59
 96
       55
 40
0.0
 40
0.0
 40
0.0
 40
0.0
 40
1.0
 40
1.0
 40
1.0
 40
2.0
 40
2.0
 40
2.0
 40
3.0
 40
3.0
 40
3.0
 40
4.0
 40
4.0
 40
4.0
 40
5.0
 40
5.0
 40
5.0
 40
6.0
 40
6.0
 40
6.0
 40
7.0
 40
7.0
 40
7.0
 40
8.0
 40
8.0
 40
8.0
 40
9.0
 40
9.0
 40
9.0
 40
10.0
 40
10.0
 40
10.0
 40
11.0
 40
11.0
 40
11.0
 40
12.0
 40
12.0
 40
12.0
 40
13.0
 40
13.0
 40
13.0
 40
14.0
 40
14.0
 40
14.0
 40
15.0
 40
15.0
 40
15.0
 40
16.0
 40
16.0
 40
16.0
 40
17.0
 40
17.0
 40
17.0
 40
18.0
 40
18.0
 40
18.0
 40
18.0
 10
56.3493598090277743
 20
-19.6804524739583329
 10
55.7712727864583258
 20
-19.6804524739583329
 10
55.4346869574652743
 20
-19.3504123263888879
 10
55.4346869574652743
 20
-18.7089355468749972
 10
55.4346869574652743
 20
-18.7089355468749972
 10
55.4346869574652743
 20
-18.6327989366319429
 10
55.4346869574652743
 20
-18.6327989366319429
 10
55.4346869574652743
 20
-18.6327989366319429
 10
55.9366373697916615
 20
-18.6327989366319429
 10
55.9366373697916615
 20
-18.6327989366319429
 10
55.9366373697916615
 20
-18.6327989366319429
 10
55.9366373697916615
 20
-18.7282280815972193
 10
55.9366373697916615
 20
-18.7282280815972193
 10
55.9366373697916615
 20
-19.0010796440972207
 10
56.0699625651041629
 20
-19.2422363281249993
 10
56.3621066623263829
 20
-19.2422363281249993
 10
56.7303873697916643
 20
-19.2422363281249993
 10
56.8316731770833314
 20
-18.84260525173611
 10
56.8316731770833314
 20
-18.4167914496527771
 10
56.8316731770833314
 20
-17.9978678385416657
 10
56.7303873697916643
 20
-17.642333984375
 10
56.3938015407986057
 20
-17.642333984375
 10
56.1715928819444414
 20
-17.642333984375
 10
56.0062282986111057
 20
-17.7756591796874979
 10
55.9617865668402743
 20
-17.9723741319444414
 10
55.9617865668402743
 20
-17.9723741319444414
 10
55.4984212239583314
 20
-17.9534261067708307
 10
55.4984212239583314
 20
-17.9534261067708307
 10
55.4984212239583314
 20
-17.9534261067708307
 10
55.65724012586805
 20
-16.0548339843749979
 10
55.65724012586805
 20
-16.0548339843749979
 10
55.65724012586805
 20
-16.0548339843749979
 10
57.23199327256944
 20
-16.0548339843749979
 10
57.23199327256944
 20
-16.0548339843749979
 10
57.23199327256944
 20
-16.0548339843749979
 10
57.23199327256944
 20
-16.5185438368055557
 10
57.23199327256944
 20
-16.5185438368055557
 10
57.23199327256944
 20
-16.5185438368055557
 10
56.0506700303819372
 20
-16.5185438368055557
 10
56.0506700303819372
 20
-16.5185438368055557
 10
56.0506700303819372
 20
-16.5185438368055557
 10
55.94283854166666
 20
-17.4707682291666657
 10
55.94283854166666
 20
-17.4707682291666657
 10
55.94283854166666
 20
-17.4707682291666657
 10
55.9555853949652757
 20
-17.4835150824652779
 10
55.9555853949652757
 20
-17.4835150824652779
 10
56.08891059027777
 20
-17.312293836805555
 10
56.2921712239583272
 20
-17.2041178385416664
 10
56.5016330295138829
 20
-17.2041178385416664
 10
57.1810058593749915
 20
-17.2041178385416664
 10
57.3525716145833258
 20
-17.8390489366319436
 10
57.3525716145833258
 20
-18.3978434244791664
 10
57.3525716145833258
 20
-19.12820366753472
 10
57.0542263454861072
 20
-19.6804524739583329
 10
56.3493598090277743
 20
-19.6804524739583329
 97
        0
 92
        1
 93
        1
 72
     4
 94
        3
 73
     0
 74
     0
 95
       32
 96
       28
 40
0.0
 40
0.0
 40
0.0
 40
0.0
 40
1.0
 40
1.0
 40
1.0
 40
2.0
 40
2.0
 40
2.0
 40
3.0
 40
3.0
 40
3.0
 40
4.0
 40
4.0
 40
4.0
 40
5.0
 40
5.0
 40
5.0
 40
6.0
 40
6.0
 40
6.0
 40
7.0
 40
7.0
 40
7.0
 40
8.0
 40
8.0
 40
8.0
 40
9.0
 40
9.0
 40
9.0
 40
9.0
 10
54.2475070529513843
 20
-19.6108615451388886
 10
54.2475070529513843
 20
-19.6108615451388886
 10
54.2475070529513843
 20
-16.9753634982638886
 10
54.2475070529513843
 20
-16.9753634982638886
 10
54.2475070529513843
 20
-16.9753634982638886
 10
53.5677897135416643
 20
-16.9753634982638886
 10
53.5677897135416643
 20
-16.9753634982638886
 10
53.5677897135416643
 20
-16.9753634982638886
 10
53.5677897135416643
 20
-16.6008816189236086
 10
53.5677897135416643
 20
-16.6008816189236086
 10
53.5677897135416643
 20
-16.6008816189236086
 10
53.6187771267361057
 20
-16.6008816189236086
 10
53.6187771267361057
 20
-16.6008816189236086
 10
53.92986924913194
 20
-16.6008816189236086
 10
54.2981499565972143
 20
-16.5185438368055557
 10
54.3870334201388843
 20
-16.0548339843749979
 10
54.3870334201388843
 20
-16.0548339843749979
 10
54.3870334201388843
 20
-15.9848985460069422
 10
54.3870334201388843
 20
-15.9848985460069422
 10
54.3870334201388843
 20
-15.9848985460069422
 10
54.7680609809027743
 20
-15.9848985460069422
 10
54.7680609809027743
 20
-15.9848985460069422
 10
54.7680609809027743
 20
-15.9848985460069422
 10
54.7680609809027743
 20
-19.6108615451388886
 10
54.7680609809027743
 20
-19.6108615451388886
 10
54.7680609809027743
 20
-19.6108615451388886
 10
54.2475070529513843
 20
-19.6108615451388886
 10
54.2475070529513843
 20
-19.6108615451388886
 97
        0
 92
       16
 93
        1
 72
     4
 94
        3
 73
     0
 74
     0
 95
       17
 96
       13
 40
0.0
 40
0.0
 40
0.0
 40
0.0
 40
1.0
 40
1.0
 40
1.0
 40
2.0
 40
2.0
 40
2.0
 40
3.0
 40
3.0
 40
3.0
 40
4.0
 40
4.0
 40
4.0
 40
4.0
 10
55.5428629557291629
 20
-15.0640245225694436
 10
54.0314995659722186
 20
-15.0640245225694436
 10
52.8060791015624957
 20
-16.2897894965277779
 10
52.8060791015624957
 20
-17.8008083767361107
 10
52.8060791015624957
 20
-19.318717447916665
 10
54.0314995659722186
 20
-20.5441379123263879
 10
55.5428629557291629
 20
-20.5441379123263879
 10
57.0604275173611057
 20
-20.5441379123263879
 10
58.2858479817708286
 20
-19.318717447916665
 10
58.2858479817708286
 20
-17.8008083767361107
 10
58.2858479817708286
 20
-16.2897894965277779
 10
57.0604275173611057
 20
-15.0640245225694436
 10
55.5428629557291629
 20
-15.0640245225694436
 97
        0
 92
        1
 93
        1
 72
     4
 94
        3
 73
     0
 74
     0
 95
       17
 96
       13
 40
0.0
 40
0.0
 40
0.0
 40
0.0
 40
1.0
 40
1.0
 40
1.0
 40
2.0
 40
2.0
 40
2.0
 40
3.0
 40
3.0
 40
3.0
 40
4.0
 40
4.0
 40
4.0
 40
4.0
 10
55.5428629557291629
 20
-20.7284505208333307
 10
53.92986924913194
 20
-20.7284505208333307
 10
52.6217664930555529
 20
-19.4203477647569436
 10
52.6217664930555529
 20
-17.8008083767361107
 10
52.6217664930555529
 20
-16.1881591796874993
 10
53.92986924913194
 20
-14.8800564236111104
 10
55.5428629557291629
 20
-14.8800564236111104
 10
57.1620578342013843
 20
-14.8800564236111104
 10
58.4701605902777715
 20
-16.1881591796874993
 10
58.4701605902777715
 20
-17.8008083767361107
 10
58.4701605902777715
 20
-19.4203477647569436
 10
57.1620578342013843
 20
-20.7284505208333307
 10
55.5428629557291629
 20
-20.7284505208333307
 97
        0
 75
     2
 76
     1
 98
        1
 10
0.0
 20
0.0
  0
HATCH
  5
3B
100
AcDbEntity
  8
COMMENT
390
0
 62
     7
100
AcDbHatch
 10
0.0
 20
0.0
 30
0.0
210
0.0
220
0.0
230
1.0
  2
SOLID
 70
     1
 71
     0
 91
        5
 92
       16
 93
        1
 72
     4
 94
        3
 73
     0
 74
     0
 95
       17
 96
       13
 40
0.0
 40
0.0
 40
0.0
 40
0.0
 40
1.0
 40
1.0
 40
1.0
 40
2.0
 40
2.0
 40
2.0
 40
3.0
 40
3.0
 40
3.0
 40
4.0
 40
4.0
 40
4.0
 40
4.0
 10
36.02639702690972
 20
-16.7975965711805557
 10
36.02639702690972
 20
-16.7975965711805557
 10
36.0136501736111043
 20
-16.7975965711805557
 10
36.0136501736111043
 20
-16.7975965711805557
 10
36.0136501736111043
 20
-16.7975965711805557
 10
35.2832899305555543
 20
-18.2962131076388879
 10
35.2832899305555543
 20
-18.2962131076388879
 10
35.2832899305555543
 20
-18.2962131076388879
 10
36.02639702690972
 20
-18.2962131076388879
 10
36.02639702690972
 20
-18.2962131076388879
 10
36.02639702690972
 20
-18.2962131076388879
 10
36.02639702690972
 20
-16.7975965711805557
 10
36.02639702690972
 20
-16.7975965711805557
 97
        0
 92
        1
 93
        1
 72
     4
 94
        3
 73
     0
 74
     0
 95
       38
 96
       34
 40
0.0
 40
0.0
 40
0.0
 40
0.0
 40
1.0
 40
1.0
 40
1.0
 40
2.0
 40
2.0
 40
2.0
 40
3.0
 40
3.0
 40
3.0
 40
4.0
 40
4.0
 40
4.0
 40
5.0
 40
5.0
 40
5.0
 40
6.0
 40
6.0
 40
6.0
 40
7.0
 40
7.0
 40
7.0
 40
8.0
 40
8.0
 40
8.0
 40
9.0
 40
9.0
 40
9.0
 40
10.0
 40
10.0
 40
10.0
 40
11.0
 40
11.0
 40
11.0
 40
11.0
 10
36.5218017578124972
 20
-18.7661241319444443
 10
36.5218017578124972
 20
-18.7661241319444443
 10
36.5218017578124972
 20
-19.5791666666666657
 10
36.5218017578124972
 20
-19.5791666666666657
 10
36.5218017578124972
 20
-19.5791666666666657
 10
36.02639702690972
 20
-19.5791666666666657
 10
36.02639702690972
 20
-19.5791666666666657
 10
36.02639702690972
 20
-19.5791666666666657
 10
36.02639702690972
 20
-18.7661241319444443
 10
36.02639702690972
 20
-18.7661241319444443
 10
36.02639702690972
 20
-18.7661241319444443
 10
34.8581651475694443
 20
-18.7661241319444443
 10
34.8581651475694443
 20
-18.7661241319444443
 10
34.8581651475694443
 20
-18.7661241319444443
 10
34.8581651475694443
 20
-18.264518229166665
 10
34.8581651475694443
 20
-18.264518229166665
 10
34.8581651475694443
 20
-18.264518229166665
 10
35.9881564670138872
 20
-15.9466579861111093
 10
35.9881564670138872
 20
-15.9466579861111093
 10
35.9881564670138872
 20
-15.9466579861111093
 10
36.5218017578124972
 20
-15.9466579861111093
 10
36.5218017578124972
 20
-15.9466579861111093
 10
36.5218017578124972
 20
-15.9466579861111093
 10
36.5218017578124972
 20
-18.2962131076388879
 10
36.5218017578124972
 20
-18.2962131076388879
 10
36.5218017578124972
 20
-18.2962131076388879
 10
36.8773356119791629
 20
-18.2962131076388879
 10
36.8773356119791629
 20
-18.2962131076388879
 10
36.8773356119791629
 20
-18.2962131076388879
 10
36.8773356119791629
 20
-18.7661241319444443
 10
36.8773356119791629
 20
-18.7661241319444443
 10
36.8773356119791629
 20
-18.7661241319444443
 10
36.5218017578124972
 20
-18.7661241319444443
 10
36.5218017578124972
 20
-18.7661241319444443
 97
        0
 92
        1
 93
        1
 72
     4
 94
        3
 73
     0
 74
     0
 95
       32
 96
       28
 40
0.0
 40
0.0
 40
0.0
 40
0.0
 40
1.0
 40
1.0
 40
1.0
 40
2.0
 40
2.0
 40
2.0
 40
3.0
 40
3.0
 40
3.0
 40
4.0
 40
4.0
 40
4.0
 40
5.0
 40
5.0
 40
5.0
 40
6.0
 40
6.0
 40
6.0
 40
7.0
 40
7.0
 40
7.0
 40
8.0
 40
8.0
 40
8.0
 40
9.0
 40
9.0
 40
9.0
 40
9.0
 10
33.7150824652777743
 20
-19.5791666666666657
 10
33.7150824652777743
 20
-19.5791666666666657
 10
33.7150824652777743
 20
-16.9436686197916657
 10
33.7150824652777743
 20
-16.9436686197916657
 10
33.7150824652777743
 20
-16.9436686197916657
 10
33.0357096354166657
 20
-16.9436686197916657
 10
33.0357096354166657
 20
-16.9436686197916657
 10
33.0357096354166657
 20
-16.9436686197916657
 10
33.0357096354166657
 20
-16.5626410590277757
 10
33.0357096354166657
 20
-16.5626410590277757
 10
33.0357096354166657
 20
-16.5626410590277757
 10
33.0863525390624957
 20
-16.5626410590277757
 10
33.0863525390624957
 20
-16.5626410590277757
 10
33.39744466145833
 20
-16.5626410590277757
 10
33.7657253689236114
 20
-16.4799587673611079
 10
33.8546088324652743
 20
-16.023139105902775
 10
33.8546088324652743
 20
-16.023139105902775
 10
33.8546088324652743
 20
-15.9466579861111093
 10
33.8546088324652743
 20
-15.9466579861111093
 10
33.8546088324652743
 20
-15.9466579861111093
 10
34.2421820746527743
 20
-15.9466579861111093
 10
34.2421820746527743
 20
-15.9466579861111093
 10
34.2421820746527743
 20
-15.9466579861111093
 10
34.2421820746527743
 20
-19.5791666666666657
 10
34.2421820746527743
 20
-19.5791666666666657
 10
34.2421820746527743
 20
-19.5791666666666657
 10
33.7150824652777743
 20
-19.5791666666666657
 10
33.7150824652777743
 20
-19.5791666666666657
 97
        0
 92
       16
 93
        1
 72
     4
 94
        3
 73
     0
 74
     0
 95
       17
 96
       13
 40
0.0
 40
0.0
 40
0.0
 40
0.0
 40
1.0
 40
1.0
 40
1.0
 40
2.0
 40
2.0
 40
2.0
 40
3.0
 40
3.0
 40
3.0
 40
4.0
 40
4.0
 40
4.0
 40
4.0
 10
35.02938639322916
 20
-15.0640245225694436
 10
33.5118218315972172
 20
-15.0640245225694436
 10
32.2864013671874943
 20
-16.2897894965277779
 10
32.2864013671874943
 20
-17.8073540581597207
 10
32.2864013671874943
 20
-19.3249186197916636
 10
33.5118218315972172
 20
-20.5506835937499979
 10
35.02938639322916
 20
-20.5506835937499979
 10
36.54695095486111
 20
-20.5506835937499979
 10
37.7789171006944429
 20
-19.3249186197916636
 10
37.7789171006944429
 20
-17.8073540581597207
 10
37.7789171006944429
 20
-16.2897894965277779
 10
36.54695095486111
 20
-15.0640245225694436
 10
35.02938639322916
 20
-15.0640245225694436
 97
        0
 92
        1
 93
        1
 72
     4
 94
        3
 73
     0
 74
     0
 95
       17
 96
       13
 40
0.0
 40
0.0
 40
0.0
 40
0.0
 40
1.0
 40
1.0
 40
1.0
 40
2.0
 40
2.0
 40
2.0
 40
3.0
 40
3.0
 40
3.0
 40
4.0
 40
4.0
 40
4.0
 40
4.0
 10
35.02938639322916
 20
-20.7346516927083329
 10
33.4163926866319443
 20
-20.7346516927083329
 10
32.1020887586805515
 20
-19.4265489366319422
 10
32.1020887586805515
 20
-17.8073540581597207
 10
32.1020887586805515
 20
-16.1881591796874993
 10
33.4163926866319443
 20
-14.8800564236111104
 10
35.02938639322916
 20
-14.8800564236111104
 10
36.6485812717013886
 20
-14.8800564236111104
 10
37.9566840277777757
 20
-16.1881591796874993
 10
37.9566840277777757
 20
-17.8073540581597207
 10
37.9566840277777757
 20
-19.4265489366319422
 10
36.6485812717013886
 20
-20.7346516927083329
 10
35.02938639322916
 20
-20.7346516927083329
 97
        0
 75
     2
 76
     1
 98
        1
 10
0.0
 20
0.0
  0
HATCH
  5
3A
100
AcDbEntity
  8
COMMENT
390
0
 62
     7
100
AcDbHatch
 10
0.0
 20
0.0
 30
0.0
210
0.0
220
0.0
230
1.0
  2
SOLID
 70
     1
 71
     0
 91
        4
 92
        1
 93
        1
 72
     4
 94
        3
 73
     0
 74
     0
 95
       59
 96
       55
 40
0.0
 40
0.0
 40
0.0
 40
0.0
 40
1.0
 40
1.0
 40
1.0
 40
2.0
 40
2.0
 40
2.0
 40
3.0
 40
3.0
 40
3.0
 40
4.0
 40
4.0
 40
4.0
 40
5.0
 40
5.0
 40
5.0
 40
6.0
 40
6.0
 40
6.0
 40
7.0
 40
7.0
 40
7.0
 40
8.0
 40
8.0
 40
8.0
 40
9.0
 40
9.0
 40
9.0
 40
10.0
 40
10.0
 40
10.0
 40
11.0
 40
11.0
 40
11.0
 40
12.0
 40
12.0
 40
12.0
 40
13.0
 40
13.0
 40
13.0
 40
14.0
 40
14.0
 40
14.0
 40
15.0
 40
15.0
 40
15.0
 40
16.0
 40
16.0
 40
16.0
 40
17.0
 40
17.0
 40
17.0
 40
18.0
 40
18.0
 40
18.0
 40
18.0
 10
18.8143554687499979
 20
-19.5609076605902743
 10
18.2238661024305522
 20
-19.5609076605902743
 10
17.8810791015624986
 20
-19.2370686848958314
 10
17.8810791015624986
 20
-18.475013563368055
 10
17.8810791015624986
 20
-18.475013563368055
 10
18.3826850043402779
 20
-18.475013563368055
 10
18.3826850043402779
 20
-18.475013563368055
 10
18.3826850043402779
 20
-18.7926513671874993
 10
18.4715684678819443
 20
-19.148185221354165
 10
18.82710232204861
 20
-19.148185221354165
 10
19.157142469618055
 20
-19.148185221354165
 10
19.2842664930555543
 20
-18.8560411241319414
 10
19.2842664930555543
 20
-18.4939615885416657
 10
19.2842664930555543
 20
-18.04954427083333
 10
19.1509412977430529
 20
-17.8207899305555522
 10
18.7571668836805543
 20
-17.8207899305555522
 10
18.7571668836805543
 20
-17.8207899305555522
 10
18.5539062499999972
 20
-17.8207899305555522
 10
18.5539062499999972
 20
-17.8207899305555522
 10
18.5539062499999972
 20
-17.8207899305555522
 10
18.5539062499999972
 20
-17.4080674913194429
 10
18.5539062499999972
 20
-17.4080674913194429
 10
18.5539062499999972
 20
-17.4080674913194429
 10
18.7444200303819422
 20
-17.4080674913194429
 10
18.7444200303819422
 20
-17.4080674913194429
 10
19.0937527126736093
 20
-17.4080674913194429
 10
19.2143310546874986
 20
-17.1414171006944436
 10
19.2143310546874986
 20
-16.7858832465277779
 10
19.2143310546874986
 20
-16.5254340277777771
 10
19.1064995659722214
 20
-16.2653293185763879
 10
18.8333034939236086
 20
-16.2653293185763879
 10
18.5094645182291657
 20
-16.2653293185763879
 10
18.4205810546874993
 20
-16.5698757595486086
 10
18.4205810546874993
 20
-16.900260416666665
 10
18.4205810546874993
 20
-16.900260416666665
 10
17.91897515190972
 20
-16.900260416666665
 10
17.91897515190972
 20
-16.900260416666665
 10
17.91897515190972
 20
-16.2208875868055529
 10
18.2366129557291643
 20
-15.8522623697916654
 10
18.8587972005208329
 20
-15.8522623697916654
 10
19.2525716145833314
 20
-15.8522623697916654
 10
19.7414306640624986
 20
-16.0555230034722207
 10
19.7414306640624986
 20
-16.7796820746527757
 10
19.7414306640624986
 20
-17.1541639539930557
 10
19.5381700303819414
 20
-17.52244466145833
 10
19.2143310546874986
 20
-17.5796332465277771
 10
19.2143310546874986
 20
-17.5796332465277771
 10
19.2143310546874986
 20
-17.5923800998263857
 10
19.2143310546874986
 20
-17.5923800998263857
 10
19.5574625651041636
 20
-17.6240749782986086
 10
19.8113661024305543
 20
-17.9289659288194443
 10
19.8113661024305543
 20
-18.4367730034722221
 10
19.8113661024305543
 20
-19.1543863932291636
 10
19.4875271267361079
 20
-19.5609076605902743
 10
18.8143554687499979
 20
-19.5609076605902743
 97
        0
 92
        1
 93
        1
 72
     4
 94
        3
 73
     0
 74
     0
 95
       32
 96
       28
 40
0.0
 40
0.0
 40
0.0
 40
0.0
 40
1.0
 40
1.0
 40
1.0
 40
2.0
 40
2.0
 40
2.0
 40
3.0
 40
3.0
 40
3.0
 40
4.0
 40
4.0
 40
4.0
 40
5.0
 40
5.0
 40
5.0
 40
6.0
 40
6.0
 40
6.0
 40
7.0
 40
7.0
 40
7.0
 40
8.0
 40
8.0
 40
8.0
 40
9.0
 40
9.0
 40
9.0
 40
9.0
 10
16.6935546874999972
 20
-19.4909722222222221
 10
16.6935546874999972
 20
-19.4909722222222221
 10
16.6935546874999972
 20
-16.84927300347222
 10
16.6935546874999972
 20
-16.84927300347222
 10
16.6935546874999972
 20
-16.84927300347222
 10
16.0141818576388886
 20
-16.84927300347222
 10
16.0141818576388886
 20
-16.84927300347222
 10
16.0141818576388886
 20
-16.84927300347222
 10
16.0141818576388886
 20
-16.4682454427083336
 10
16.0141818576388886
 20
-16.4682454427083336
 10
16.0141818576388886
 20
-16.4682454427083336
 10
16.0648247612847221
 20
-16.4682454427083336
 10
16.0648247612847221
 20
-16.4682454427083336
 10
16.3759168836805529
 20
-16.4682454427083336
 10
16.7441975911458307
 20
-16.3859076605902771
 10
16.8330810546874972
 20
-15.9221978081597211
 10
16.8330810546874972
 20
-15.9221978081597211
 10
16.8330810546874972
 20
-15.8522623697916654
 10
16.8330810546874972
 20
-15.8522623697916654
 10
16.8330810546874972
 20
-15.8522623697916654
 10
17.2206542968749972
 20
-15.8522623697916654
 10
17.2206542968749972
 20
-15.8522623697916654
 10
17.2206542968749972
 20
-15.8522623697916654
 10
17.2206542968749972
 20
-19.4909722222222221
 10
17.2206542968749972
 20
-19.4909722222222221
 10
17.2206542968749972
 20
-19.4909722222222221
 10
16.6935546874999972
 20
-19.4909722222222221
 10
16.6935546874999972
 20
-19.4909722222222221
 97
        0
 92
       16
 93
        1
 72
     4
 94
        3
 73
     0
 74
     0
 95
       17
 96
       13
 40
0.0
 40
0.0
 40
0.0
 40
0.0
 40
1.0
 40
1.0
 40
1.0
 40
2.0
 40
2.0
 40
2.0
 40
3.0
 40
3.0
 40
3.0
 40
4.0
 40
4.0
 40
4.0
 40
4.0
 10
18.014404296875
 20
-14.9761745876736097
 10
16.4964952256944422
 20
-14.9761745876736097
 10
15.2648735894097207
 20
-16.2015950520833307
 10
15.2648735894097207
 20
-17.7257052951388872
 10
15.2648735894097207
 20
-19.24326985677083
 10
16.4964952256944422
 20
-20.4752360026041664
 10
18.014404296875
 20
-20.4752360026041664
 10
19.5319688585069429
 20
-20.4752360026041664
 10
20.7639350043402757
 20
-19.24326985677083
 10
20.7639350043402757
 20
-17.7257052951388872
 10
20.7639350043402757
 20
-16.2015950520833307
 10
19.5319688585069429
 20
-14.9761745876736097
 10
18.014404296875
 20
-14.9761745876736097
 97
        0
 92
        1
 93
        1
 72
     4
 94
        3
 73
     0
 74
     0
 95
       17
 96
       13
 40
0.0
 40
0.0
 40
0.0
 40
0.0
 40
1.0
 40
1.0
 40
1.0
 40
2.0
 40
2.0
 40
2.0
 40
3.0
 40
3.0
 40
3.0
 40
4.0
 40
4.0
 40
4.0
 40
4.0
 10
18.014404296875
 20
-20.6530029296874993
 10
16.3948649088541636
 20
-20.6530029296874993
 10
15.0805609809027761
 20
-19.3449001736111086
 10
15.0805609809027761
 20
-17.7257052951388872
 10
15.0805609809027761
 20
-16.1065104166666657
 10
16.3948649088541636
 20
-14.791861979166665
 10
18.014404296875
 20
-14.791861979166665
 10
19.6335991753472214
 20
-14.791861979166665
 10
20.9417019314236086
 20
-16.1065104166666657
 10
20.9417019314236086
 20
-17.7257052951388872
 10
20.9417019314236086
 20
-19.3449001736111086
 10
19.6335991753472214
 20
-20.6530029296874993
 10
18.014404296875
 20
-20.6530029296874993
 97
        0
 75
     2
 76
     1
 98
        1
 10
0.0
 20
0.0
  0
HATCH
  5
39
100
AcDbEntity
  8
COMMENT
390
0
 62
     7
100
AcDbHatch
 10
0.0
 20
0.0
 30
0.0
210
0.0
220
0.0
230
1.0
  2
SOLID
 70
     1
 71
     0
 91
        5
 92
       16
 93
        1
 72
     4
 94
        3
 73
     0
 74
     0
 95
       17
 96
       13
 40
0.0
 40
0.0
 40
0.0
 40
0.0
 40
1.0
 40
1.0
 40
1.0
 40
2.0
 40
2.0
 40
2.0
 40
3.0
 40
3.0
 40
3.0
 40
4.0
 40
4.0
 40
4.0
 40
4.0
 10
113.2471788194444287
 20
-17.9406792534722221
 10
112.8661512586805458
 20
-17.9406792534722221
 10
112.7965603298610944
 20
-18.31550564236111
 10
112.7965603298610944
 20
-18.7475206163194414
 10
112.7965603298610944
 20
-19.172645399305555
 10
112.9426323784722115
 20
-19.5030300564236079
 10
113.2471788194444287
 20
-19.5030300564236079
 10
113.5710177951388715
 20
-19.5030300564236079
 10
113.6853949652777658
 20
-19.1471516927083307
 10
113.6853949652777658
 20
-18.7220269097222207
 10
113.6853949652777658
 20
-18.2204210069444414
 10
113.5520697699652715
 20
-17.9406792534722221
 10
113.2471788194444287
 20
-17.9406792534722221
 97
        0
 92
        1
 93
        1
 72
     4
 94
        3
 73
     0
 74
     0
 95
       35
 96
       31
 40
0.0
 40
0.0
 40
0.0
 40
0.0
 40
1.0
 40
1.0
 40
1.0
 40
2.0
 40
2.0
 40
2.0
 40
3.0
 40
3.0
 40
3.0
 40
4.0
 40
4.0
 40
4.0
 40
5.0
 40
5.0
 40
5.0
 40
6.0
 40
6.0
 40
6.0
 40
7.0
 40
7.0
 40
7.0
 40
8.0
 40
8.0
 40
8.0
 40
9.0
 40
9.0
 40
9.0
 40
10.0
 40
10.0
 40
10.0
 40
10.0
 10
113.2092827690972143
 20
-19.9157524956597207
 10
112.3838378906249886
 20
-19.9157524956597207
 10
112.2246744791666515
 20
-19.2174316406249979
 10
112.2246744791666515
 20
-18.1756347656249986
 10
112.2246744791666515
 20
-17.0897406684027757
 10
112.4089870876735944
 20
-16.21365288628472
 10
113.2664713541666544
 20
-16.21365288628472
 10
113.8442138671874915
 20
-16.21365288628472
 10
114.1491048177083201
 20
-16.4992513020833336
 10
114.1491048177083201
 20
-17.0962863498263857
 10
114.1491048177083201
 20
-17.0962863498263857
 10
113.6220052083333201
 20
-17.0962863498263857
 10
113.6220052083333201
 20
-17.0962863498263857
 10
113.6220052083333201
 20
-16.88027886284722
 10
113.5393229166666629
 20
-16.6198296440972193
 10
113.27267252604166
 20
-16.6198296440972193
 10
112.7772677951388829
 20
-16.6198296440972193
 10
112.7517740885416515
 20
-17.3439887152777779
 10
112.7517740885416515
 20
-17.8710883246527779
 10
112.7517740885416515
 20
-17.8710883246527779
 10
112.7648654513888857
 20
-17.883490668402775
 10
112.7648654513888857
 20
-17.883490668402775
 10
112.8978461371527686
 20
-17.6233859592013857
 10
113.1138536241319343
 20
-17.4962619357638864
 10
113.3994520399305515
 20
-17.4962619357638864
 10
113.8507595486110944
 20
-17.4962619357638864
 10
114.2124945746527658
 20
-17.8583414713541657
 10
114.2124945746527658
 20
-18.5821560329861093
 10
114.2124945746527658
 20
-19.4141465928819414
 10
113.9010579427083201
 20
-19.9157524956597207
 10
113.2092827690972143
 20
-19.9157524956597207
 97
        0
 92
        1
 93
        1
 72
     4
 94
        3
 73
     0
 74
     0
 95
       32
 96
       28
 40
0.0
 40
0.0
 40
0.0
 40
0.0
 40
1.0
 40
1.0
 40
1.0
 40
2.0
 40
2.0
 40
2.0
 40
3.0
 40
3.0
 40
3.0
 40
4.0
 40
4.0
 40
4.0
 40
5.0
 40
5.0
 40
5.0
 40
6.0
 40
6.0
 40
6.0
 40
7.0
 40
7.0
 40
7.0
 40
8.0
 40
8.0
 40
8.0
 40
9.0
 40
9.0
 40
9.0
 40
9.0
 10
111.02474772135416
 20
-19.8396158854166664
 10
111.02474772135416
 20
-19.8396158854166664
 10
111.02474772135416
 20
-17.2041178385416664
 10
111.02474772135416
 20
-17.2041178385416664
 10
111.02474772135416
 20
-17.2041178385416664
 10
110.3453748914930515
 20
-17.2041178385416664
 10
110.3453748914930515
 20
-17.2041178385416664
 10
110.3453748914930515
 20
-17.2041178385416664
 10
110.3453748914930515
 20
-16.8296359592013864
 10
110.3453748914930515
 20
-16.8296359592013864
 10
110.3453748914930515
 20
-16.8296359592013864
 10
110.3960177951388744
 20
-16.8296359592013864
 10
110.3960177951388744
 20
-16.8296359592013864
 10
110.7136555989583258
 20
-16.8296359592013864
 10
111.0753906249999829
 20
-16.7472981770833336
 10
111.1708197699652629
 20
-16.2835883246527757
 10
111.1708197699652629
 20
-16.2835883246527757
 10
111.1708197699652629
 20
-16.21365288628472
 10
111.1708197699652629
 20
-16.21365288628472
 10
111.1708197699652629
 20
-16.21365288628472
 10
111.55184733072916
 20
-16.21365288628472
 10
111.55184733072916
 20
-16.21365288628472
 10
111.55184733072916
 20
-16.21365288628472
 10
111.55184733072916
 20
-19.8396158854166664
 10
111.55184733072916
 20
-19.8396158854166664
 10
111.55184733072916
 20
-19.8396158854166664
 10
111.02474772135416
 20
-19.8396158854166664
 10
111.02474772135416
 20
-19.8396158854166664
 97
        0
 92
       16
 93
        1
 72
     4
 94
        3
 73
     0
 74
     0
 95
       17
 96
       13
 40
0.0
 40
0.0
 40
0.0
 40
0.0
 40
1.0
 40
1.0
 40
1.0
 40
2.0
 40
2.0
 40
2.0
 40
3.0
 40
3.0
 40
3.0
 40
4.0
 40
4.0
 40
4.0
 40
4.0
 10
112.3135579427083286
 20
-15.2993245442708314
 10
110.7963378906249829
 20
-15.2993245442708314
 10
109.5705729166666629
 20
-16.5247450086805543
 10
109.5705729166666629
 20
-18.0426540798611086
 10
109.5705729166666629
 20
-19.560218641493055
 10
110.7963378906249829
 20
-20.7856391059027743
 10
112.3135579427083286
 20
-20.7856391059027743
 10
113.8314670138888829
 20
-20.7856391059027743
 10
115.0572319878472172
 20
-19.560218641493055
 10
115.0572319878472172
 20
-18.0426540798611086
 10
115.0572319878472172
 20
-16.5247450086805543
 10
113.8314670138888829
 20
-15.2993245442708314
 10
112.3135579427083286
 20
-15.2993245442708314
 97
        0
 92
        1
 93
        1
 72
     4
 94
        3
 73
     0
 74
     0
 95
       17
 96
       13
 40
0.0
 40
0.0
 40
0.0
 40
0.0
 40
1.0
 40
1.0
 40
1.0
 40
2.0
 40
2.0
 40
2.0
 40
3.0
 40
3.0
 40
3.0
 40
4.0
 40
4.0
 40
4.0
 40
4.0
 10
112.3135579427083286
 20
-20.9696072048611093
 10
110.6943630642361001
 20
-20.9696072048611093
 10
109.3866048177083172
 20
-19.6556477864583314
 10
109.3866048177083172
 20
-18.0426540798611086
 10
109.3866048177083172
 20
-16.4234592013888872
 10
110.6943630642361001
 20
-15.1150119357638868
 10
112.3135579427083286
 20
-15.1150119357638868
 10
113.9265516493055515
 20
-15.1150119357638868
 10
115.2412000868055486
 20
-16.4234592013888872
 10
115.2412000868055486
 20
-18.0426540798611086
 10
115.2412000868055486
 20
-19.6556477864583314
 10
113.9265516493055515
 20
-20.9696072048611093
 10
112.3135579427083286
 20
-20.9696072048611093
 97
        0
 75
     2
 76
     1
 98
        1
 10
0.0
 20
0.0
  0
LINE
  5
38
100
AcDbEntity
  8
COMMENT
390
0
 62
     7
100
AcDbLine
 10
35.101389
 20
13.612434
 30
0.0
 11
35.101389
 21
-13.65498
 31
0.0
  0
LINE
  5
37
100
AcDbEntity
  8
COMMENT
390
0
 62
     7
100
AcDbLine
 10
35.101389
 20
14.906067
 30
0.0
 11
35.101389
 21
-14.903483
 31
0.0
  0
ELLIPSE
  5
36
100
AcDbEntity
  8
COMMENT
390
0
 62
     7
100
AcDbEllipse
 10
35.101389
 20
14.950336
 30
0.0
 11
0.0
 21
0.5732638888888888
 31
0.0
210
0.0
220
0.0
230
1.0
 40
0.923077
 41
0.0
 42
6.2831853071795862
  0
HATCH
  5
35
100
AcDbEntity
  8
COMMENT
390
0
 62
     7
100
AcDbHatch
 10
0.0
 20
0.0
 30
0.0
210
0.0
220
0.0
230
1.0
  2
SOLID
 70
     1
 71
     0
 91
        1
 92
        1
 93
        1
 72
     4
 94
        3
 73
     0
 74
     0
 95
       17
 96
       13
 40
0.0
 40
0.0
 40
0.0
 40
0.0
 40
1.0
 40
1.0
 40
1.0
 40
2.0
 40
2.0
 40
2.0
 40
3.0
 40
3.0
 40
3.0
 40
4.0
 40
4.0
 40
4.0
 40
4.0
 10
34.5722222222222157
 20
14.9503363715277757
 10
34.5722222222222157
 20
15.2669406467013875
 10
34.8090725368923586
 20
15.5236002604166661
 10
35.1013888888888843
 20
15.5236002604166661
 10
35.39370524088541
 20
15.5236002604166661
 10
35.6305555555555529
 20
15.2669406467013875
 10
35.6305555555555529
 20
14.9503363715277757
 10
35.6305555555555529
 20
14.6337320963541657
 10
35.39370524088541
 20
14.3770724826388872
 10
35.1013888888888843
 20
14.3770724826388872
 10
34.8090725368923586
 20
14.3770724826388872
 10
34.5722222222222157
 20
14.6337320963541657
 10
34.5722222222222157
 20
14.9503363715277757
 97
        0
 75
     2
 76
     1
 98
        1
 10
0.0
 20
0.0
  0
LINE
  5
34
100
AcDbEntity
  8
COMMENT
390
0
 62
     7
100
AcDbLine
 10
18.168056
 20
13.436045
 30
0.0
 11
18.168056
 21
-13.831369
 31
0.0
  0
LINE
  5
33
100
AcDbEntity
  8
COMMENT
390
0
 62
     7
100
AcDbLine
 10
18.168056
 20
14.729678
 30
0.0
 11
18.168056
 21
-15.079872
 31
0.0
  0
ELLIPSE
  5
32
100
AcDbEntity
  8
COMMENT
390
0
 62
     7
100
AcDbEllipse
 10
18.168056
 20
14.773947
 30
0.0
 11
0.0
 21
0.5732638888888888
 31
0.0
210
0.0
220
0.0
230
1.0
 40
0.923077
 41
0.0
 42
6.2831853071795862
  0
HATCH
  5
31
100
AcDbEntity
  8
COMMENT
390
0
 62
     7
100
AcDbHatch
 10
0.0
 20
0.0
 30
0.0
210
0.0
220
0.0
230
1.0
  2
SOLID
 70
     1
 71
     0
 91
        1
 92
        1
 93
        1
 72
     4
 94
        3
 73
     0
 74
     0
 95
       17
 96
       13
 40
0.0
 40
0.0
 40
0.0
 40
0.0
 40
1.0
 40
1.0
 40
1.0
 40
2.0
 40
2.0
 40
2.0
 40
3.0
 40
3.0
 40
3.0
 40
4.0
 40
4.0
 40
4.0
 40
4.0
 10
17.6388888888888857
 20
14.7739474826388868
 10
17.6388888888888857
 20
15.0905517578124986
 10
17.875739203559025
 20
15.3472113715277771
 10
18.1680555555555543
 20
15.3472113715277771
 10
18.46037190755208
 20
15.3472113715277771
 10
18.6972222222222193
 20
15.0905517578124986
 10
18.6972222222222193
 20
14.7739474826388868
 10
18.6972222222222193
 20
14.4573432074652768
 10
18.46037190755208
 20
14.2006835937499982
 10
18.1680555555555543
 20
14.2006835937499982
 10
17.875739203559025
 20
14.2006835937499982
 10
17.6388888888888857
 20
14.4573432074652768
 10
17.6388888888888857
 20
14.7739474826388868
 97
        0
 75
     2
 76
     1
 98
        1
 10
0.0
 20
0.0
  0
LINE
  5
30
100
AcDbEntity
  8
COMMENT
390
0
 62
     7
100
AcDbLine
 10
112.359722
 20
13.259656
 30
0.0
 11
112.359722
 21
-14.007758
 31
0.0
  0
LINE
  5
2F
100
AcDbEntity
  8
COMMENT
390
0
 62
     7
100
AcDbLine
 10
112.359722
 20
14.553289
 30
0.0
 11
112.359722
 21
-15.256261
 31
0.0
  0
ELLIPSE
  5
2E
100
AcDbEntity
  8
COMMENT
390
0
 62
     7
100
AcDbEllipse
 10
112.359722
 20
14.597559
 30
0.0
 11
0.0
 21
0.5732638888888888
 31
0.0
210
0.0
220
0.0
230
1.0
 40
0.923077
 41
0.0
 42
6.2831853071795862
  0
HATCH
  5
2D
100
AcDbEntity
  8
COMMENT
390
0
 62
     7
100
AcDbHatch
 10
0.0
 20
0.0
 30
0.0
210
0.0
220
0.0
230
1.0
  2
SOLID
 70
     1
 71
     0
 91
        1
 92
        1
 93
        1
 72
     4
 94
        3
 73
     0
 74
     0
 95
       17
 96
       13
 40
0.0
 40
0.0
 40
0.0
 40
0.0
 40
1.0
 40
1.0
 40
1.0
 40
2.0
 40
2.0
 40
2.0
 40
3.0
 40
3.0
 40
3.0
 40
4.0
 40
4.0
 40
4.0
 40
4.0
 10
111.8305555555555486
 20
14.5975585937499979
 10
111.8305555555555486
 20
14.9141628689236097
 10
112.0675781249999829
 20
15.1708224826388882
 10
112.3597222222222172
 20
15.1708224826388882
 10
112.6518663194444372
 20
15.1708224826388882
 10
112.8888888888888857
 20
14.9141628689236097
 10
112.8888888888888857
 20
14.5975585937499979
 10
112.8888888888888857
 20
14.2809543185763879
 10
112.6518663194444372
 20
14.0242947048611093
 10
112.3597222222222172
 20
14.0242947048611093
 10
112.0675781249999829
 20
14.0242947048611093
 10
111.8305555555555486
 20
14.2809543185763879
 10
111.8305555555555486
 20
14.5975585937499979
 97
        0
 75
     2
 76
     1
 98
        1
 10
0.0
 20
0.0
  0
LINE
  5
2C
100
AcDbEntity
  8
COMMENT
390
0
 62
     7
100
AcDbLine
 10
55.5625
 20
13.612434
 30
0.0
 11
55.5625
 21
-13.65498
 31
0.0
  0
LINE
  5
2B
100
AcDbEntity
  8
COMMENT
390
0
 62
     7
100
AcDbLine
 10
55.5625
 20
14.906067
 30
0.0
 11
55.5625
 21
-14.903483
 31
0.0
  0
ELLIPSE
  5
2A
100
AcDbEntity
  8
COMMENT
390
0
 62
     7
100
AcDbEllipse
 10
55.5625
 20
14.950336
 30
0.0
 11
0.0
 21
0.5732638888888888
 31
0.0
210
0.0
220
0.0
230
1.0
 40
0.923077
 41
0.0
 42
6.2831853071795862
  0
HATCH
  5
29
100
AcDbEntity
  8
COMMENT
390
0
 62
     7
100
AcDbHatch
 10
0.0
 20
0.0
 30
0.0
210
0.0
220
0.0
230
1.0
  2
SOLID
 70
     1
 71
     0
 91
        1
 92
        1
 93
        1
 72
     4
 94
        3
 73
     0
 74
     0
 95
       17
 96
       13
 40
0.0
 40
0.0
 40
0.0
 40
0.0
 40
1.0
 40
1.0
 40
1.0
 40
2.0
 40
2.0
 40
2.0
 40
3.0
 40
3.0
 40
3.0
 40
4.0
 40
4.0
 40
4.0
 40
4.0
 10
55.0333333333333314
 20
14.9503363715277757
 10
55.0333333333333314
 20
15.2669406467013875
 10
55.2701836480034672
 20
15.5236002604166661
 10
55.5624999999999929
 20
15.5236002604166661
 10
55.8548163519965257
 20
15.5236002604166661
 10
56.0916666666666615
 20
15.2669406467013875
 10
56.0916666666666615
 20
14.9503363715277757
 10
56.0916666666666615
 20
14.6337320963541657
 10
55.8548163519965257
 20
14.3770724826388872
 10
55.5624999999999929
 20
14.3770724826388872
 10
55.2701836480034672
 20
14.3770724826388872
 10
55.0333333333333314
 20
14.6337320963541657
 10
55.0333333333333314
 20
14.9503363715277757
 97
        0
 75
     2
 76
     1
 98
        1
 10
0.0
 20
0.0
  0
ENDSEC
  0
SECTION
  2
OBJECTS
  0
DICTIONARY
  5
19
100
AcDbDictionary
280
     0
281
     1
  3
ACAD_GROUP
350
1A
  3
ACAD_MLINESTYLE
350
1B
  3
ACAD_LAYOUT
350
1E
  3
ACAD_PLOTSETTINGS
350
22
  3
ACAD_PLOTSTYLENAME
350
1F
  3
ACAD_WIPEOUT_VARS
350
23
  0
DICTIONARY
  5
1A
102
{ACAD_REACTORS
330
19
102
}
100
AcDbDictionary
280
     0
281
     1
  0
DICTIONARY
  5
1B
102
{ACAD_REACTORS
330
19
102
}
100
AcDbDictionary
280
     0
281
     1
  3
Standard
350
1C
  0
MLINESTYLE
  5
1C
102
{ACAD_REACTORS
330
1B
102
}
100
AcDbMlineStyle
  2
Standard
 70
     0
  3

 62
     0
 51
90.0
 52
90.0
 71
     2
 49
0.5
 62
   256
  6
ByLayer
 49
-0.5
 62
   256
  6
ByLayer
  0
ACDBDICTIONARYWDFLT
  5
1F
102
{ACAD_REACTORS
330
19
102
}
100
AcDbDictionary
281
     1
  3
Normal
350
1D
100
AcDbDictionaryWithDefault
340
1D
  0
ACDBPLACEHOLDER
  5
1D
102
{ACAD_REACTORS
330
1F
102
}
  0
LAYOUT
  5
20
102
{ACAD_REACTORS
330
1E
102
}
100
AcDbPlotSettings
  1

  2

  4

  6

 40
0.0
 41
0.0
 42
0.0
 43
0.0
 44
0.0
 45
0.0
 46
0.0
 47
0.0
 48
0.0
 49
0.0
140
0.0
141
0.0
142
1.0
143
1.0
 70
  1024
 72
     0
 73
     0
 74
     0
  7

 75
     0
147
1.0
148
0.0
149
0.0
100
AcDbLayout
  1
Model
 70
     0
 71
     0
 10
0.0
 20
0.0
 11
0.0
 21
0.0
 12
0.0
 22
0.0
 32
0.0
 14
0.0
 24
0.0
 34
0.0
 15
0.0
 25
0.0
 35
0.0
146
0.0
 13
0.0
 23
0.0
 33
0.0
 16
0.0
 26
0.0
 36
0.0
 17
0.0
 27
0.0
 37
0.0
 76
     0
330
A
331
0
345
0
346
0
  0
LAYOUT
  5
21
102
{ACAD_REACTORS
330
1E
102
}
100
AcDbPlotSettings
  1

  2

  4

  6

 40
0.0
 41
0.0
 42
0.0
 43
0.0
 44
0.0
 45
0.0
 46
0.0
 47
0.0
 48
0.0
 49
0.0
140
0.0
141
0.0
142
1.0
143
1.0
 70
     0
 72
     0
 73
     0
 74
     0
  7

 75
     0
147
1.0
148
0.0
149
0.0
100
AcDbLayout
  1
Layout1
 70
     0
 71
     0
 10
0.0
 20
0.0
 11
0.0
 21
0.0
 12
0.0
 22
0.0
 32
0.0
 14
0.0
 24
0.0
 34
0.0
 15
0.0
 25
0.0
 35
0.0
146
0.0
 13
0.0
 23
0.0
 33
0.0
 16
0.0
 26
0.0
 36
0.0
 17
0.0
 27
0.0
 37
0.0
 76
     0
330
B
331
0
345
0
346
0
  0
DICTIONARY
  5
1E
102
{ACAD_REACTORS
330
19
102
}
100
AcDbDictionary
280
     0
281
     1
  3
Layout1
350
21
  3
Model
350
20
  0
DICTIONARY
  5
22
102
{ACAD_REACTORS
330
19
102
}
100
AcDbDictionary
280
     0
281
     1
  0
WIPEOUTVARIABLES
  5
23
100
AcDbWipeoutVariables
 70
     1
  0
ENDSEC
  0
EOF
