  0
SECTION
  2
HEADER
  9
$ACADVER
  1
AC1015
  9
$ACADMAINTVER
 70
     6
  9
$DWGCODEPAGE
  3
ANSI_932
  9
$INSBASE
 10
0.0
 20
0.0
 30
0.0
  9
$EXTMIN
 10
0.027561
 20
-18.589391
 30
1.000000E+20
  9
$EXTMAX
 10
40.733431
 20
14.275442
 30
-1.000000E+20
  9
$LIMMIN
 10
0.027561
 20
-18.589391
  9
$LIMMAX
 10
40.733431
 20
14.275442
  9
$ORTHOMODE
 70
     0
  9
$REGENMODE
 70
     1
  9
$FILLMODE
 70
     1
  9
$QTEXTMODE
 70
     0
  9
$MIRRTEXT
 70
     1
  9
$LTSCALE
 40
1.0
  9
$ATTMODE
 70
     1
  9
$TEXTSIZE
 40
0.2
  9
$TRACEWID
 40
0.05
  9
$TEXTSTYLE
  7
Standard
  9
$CLAYER
  8
0
  9
$CELTYPE
  6
Continuous
  9
$CECOLOR
 62
   256
  9
$CELTSCALE
 40
1.0
  9
$DISPSILH
 70
     0
  9
$DIMSCALE
 40
1.0
  9
$DIMASZ
 40
0.18
  9
$DIMEXO
 40
0.0625
  9
$DIMDLI
 40
0.38
  9
$DIMRND
 40
0.0
  9
$DIMDLE
 40
0.0
  9
$DIMEXE
 40
0.18
  9
$DIMTP
 40
0.0
  9
$DIMTM
 40
0.0
  9
$DIMTXT
 40
0.18
  9
$DIMCEN
 40
0.09
  9
$DIMTSZ
 40
0.0
  9
$DIMTOL
 70
     0
  9
$DIMLIM
 70
     0
  9
$DIMTIH
 70
     1
  9
$DIMTOH
 70
     1
  9
$DIMSE1
 70
     0
  9
$DIMSE2
 70
     0
  9
$DIMTAD
 70
     0
  9
$DIMZIN
 70
     0
  9
$DIMBLK
  1

  9
$DIMASO
 70
     1
  9
$DIMSHO
 70
     1
  9
$DIMPOST
  1

  9
$DIMAPOST
  1

  9
$DIMALT
 70
     0
  9
$DIMALTD
 70
     2
  9
$DIMALTF
 40
25.4
  9
$DIMLFAC
 40
1.0
  9
$DIMTOFL
 70
     0
  9
$DIMTVP
 40
0.0
  9
$DIMTIX
 70
     0
  9
$DIMSOXD
 70
     0
  9
$DIMSAH
 70
     0
  9
$DIMBLK1
  1

  9
$DIMBLK2
  1

  9
$DIMSTYLE
  2
Standard
  9
$DIMCLRD
 70
     0
  9
$DIMCLRE
 70
     0
  9
$DIMCLRT
 70
     0
  9
$DIMTFAC
 40
1.0
  9
$DIMGAP
 40
0.09
  9
$DIMJUST
 70
     0
  9
$DIMSD1
 70
     0
  9
$DIMSD2
 70
     0
  9
$DIMTOLJ
 70
     1
  9
$DIMTZIN
 70
     0
  9
$DIMALTZ
 70
     0
  9
$DIMALTTZ
 70
     0
  9
$DIMUPT
 70
     0
  9
$DIMDEC
 70
     4
  9
$DIMTDEC
 70
     4
  9
$DIMALTU
 70
     2
  9
$DIMALTTD
 70
     2
  9
$DIMTXSTY
  7
Standard
  9
$DIMAUNIT
 70
     0
  9
$DIMADEC
 70
     0
  9
$DIMALTRND
 40
0.0
  9
$DIMAZIN
 70
     0
  9
$DIMDSEP
 70
     0
  9
$DIMATFIT
 70
     3
  9
$DIMFRAC
 70
     0
  9
$DIMLDRBLK
  1

  9
$DIMLUNIT
 70
     2
  9
$DIMLWD
 70
     0
  9
$DIMLWE
 70
     0
  9
$DIMTMOVE
 70
     0
  9
$LUNITS
 70
     2
  9
$LUPREC
 70
     4
  9
$SKETCHINC
 40
0.1
  9
$FILLETRAD
 40
0.0
  9
$AUNITS
 70
     0
  9
$AUPREC
 70
     0
  9
$MENU
  1
acad
  9
$ELEVATION
 40
0.0
  9
$PELEVATION
 40
0.0
  9
$THICKNESS
 40
0.0
  9
$LIMCHECK
 70
     0
  9
$CHAMFERA
 40
0.0
  9
$CHAMFERB
 40
0.0
  9
$CHAMFERC
 40
0.0
  9
$CHAMFERD
 40
0.0
  9
$SKPOLY
 70
     0
  9
$TDCREATE
 40
0.000000000
  9
$TDUCREATE
 40
0.000000000
  9
$TDUPDATE
 40
0.000000000
  9
$TDUUPDATE
 40
0.000000000
  9
$TDINDWG
 40
0.0000000000
  9
$TDUSRTIMER
 40
0.0000000000
  9
$USRTIMER
 70
     1
  9
$ANGBASE
 50
0.0
  9
$ANGDIR
 70
     0
  9
$PDMODE
 70
     0
  9
$PDSIZE
 40
0.0
  9
$PLINEWID
 40
0.0
  9
$SPLFRAME
 70
     0
  9
$SPLINETYPE
 70
     6
  9
$SPLINESEGS
 70
     8
  9
$HANDSEED
  5
238
  9
$SURFTAB1
 70
     6
  9
$SURFTAB2
 70
     6
  9
$SURFTYPE
 70
     6
  9
$SURFU
 70
     6
  9
$SURFV
 70
     6
  9
$UCSBASE
  2

  9
$UCSNAME
  2

  9
$UCSORG
 10
0.0
 20
0.0
 30
0.0
  9
$UCSXDIR
 10
1.0
 20
0.0
 30
0.0
  9
$UCSYDIR
 10
0.0
 20
1.0
 30
0.0
  9
$UCSORTHOREF
  2

  9
$UCSORTHOVIEW
 70
     0
  9
$UCSORGTOP
 10
0.0
 20
0.0
 30
0.0
  9
$UCSORGBOTTOM
 10
0.0
 20
0.0
 30
0.0
  9
$UCSORGLEFT
 10
0.0
 20
0.0
 30
0.0
  9
$UCSORGRIGHT
 10
0.0
 20
0.0
 30
0.0
  9
$UCSORGFRONT
 10
0.0
 20
0.0
 30
0.0
  9
$UCSORGBACK
 10
0.0
 20
0.0
 30
0.0
  9
$PUCSBASE
  2

  9
$PUCSNAME
  2

  9
$PUCSORG
 10
0.0
 20
0.0
 30
0.0
  9
$PUCSXDIR
 10
1.0
 20
0.0
 30
0.0
  9
$PUCSYDIR
 10
0.0
 20
1.0
 30
0.0
  9
$PUCSORTHOREF
  2

  9
$PUCSORTHOVIEW
 70
     0
  9
$PUCSORGTOP
 10
0.0
 20
0.0
 30
0.0
  9
$PUCSORGBOTTOM
 10
0.0
 20
0.0
 30
0.0
  9
$PUCSORGLEFT
 10
0.0
 20
0.0
 30
0.0
  9
$PUCSORGRIGHT
 10
0.0
 20
0.0
 30
0.0
  9
$PUCSORGFRONT
 10
0.0
 20
0.0
 30
0.0
  9
$PUCSORGBACK
 10
0.0
 20
0.0
 30
0.0
  9
$USERI1
 70
     0
  9
$USERI2
 70
     0
  9
$USERI3
 70
     0
  9
$USERI4
 70
     0
  9
$USERI5
 70
     0
  9
$USERR1
 40
0.0
  9
$USERR2
 40
0.0
  9
$USERR3
 40
0.0
  9
$USERR4
 40
0.0
  9
$USERR5
 40
0.0
  9
$WORLDVIEW
 70
     1
  9
$SHADEDGE
 70
     3
  9
$SHADEDIF
 70
    70
  9
$TILEMODE
 70
     1
  9
$MAXACTVP
 70
    16
  9
$PINSBASE
 10
0.0
 20
0.0
 30
0.0
  9
$PLIMCHECK
 70
     0
  9
$PEXTMIN
 10
1.000000E+20
 20
1.000000E+20
 30
1.000000E+20
  9
$PEXTMAX
 10
-1.000000E+20
 20
-1.000000E+20
 30
-1.000000E+20
  9
$PLIMMIN
 10
0.0
 20
0.0
  9
$PLIMMAX
 10
12.0
 20
9.0
  9
$UNITMODE
 70
     0
  9
$VISRETAIN
 70
     0
  9
$PLINEGEN
 70
     1
  9
$PSLTSCALE
 70
     0
  9
$TREEDEPTH
 70
  3020
  9
$CMLSTYLE
  2
Standard
  9
$CMLJUST
 70
     0
  9
$CMLSCALE
 40
1.0
  9
$PROXYGRAPHICS
 70
     0
  9
$MEASUREMENT
 70
     1
  9
$CELWEIGHT
370
     0
  9
$ENDCAPS
280
     0
  9
$JOINSTYLE
280
     0
  9
$LWDISPLAY
290
     0
  9
$INSUNITS
 70
     0
  9
$HYPERLINKBASE
  1

  9
$STYLESHEET
  1

  9
$XEDIT
290
     1
  9
$CEPSNTYPE
380
     0
  9
$PSTYLEMODE
290
     1
  9
$FINGERPRINTGUID
  2

  9
$VERSIONGUID
  2

  9
$EXTNAMES
290
     1
  9
$PSVPSCALE
 40
0.0
  0
ENDSEC
  0
SECTION
  2
CLASSES
  0
CLASS
  1
LWPOLYLINE
  2
AcDbPolyline
  3
AutoCAD 2000
 90
        0
280
     0
281
     1
  0
CLASS
  1
IMAGE
  2
AcDbRasterImage
  3
ISM
 90
      127
280
     0
281
     1
  0
CLASS
  1
OLE2FRAME
  2
AcDbOle2Frame
  3
AutoCAD 2000
 90
        0
280
     0
281
     1
  0
CLASS
  1
HATCH
  2
AcDbHatch
  3
AutoCAD 2000
 90
        0
280
     0
281
     1
  0
CLASS
  1
DICTIONARYVAR
  2
AcDbDictionaryVar
  3
AutoCAD 2000
 90
        0
280
     0
281
     0
  0
CLASS
  1
RASTERVARIABLES
  2
AcDbRasterVariables
  3
ISM
 90
        0
280
     0
281
     0
  0
CLASS
  1
IMAGEDEF
  2
AcDbRasterImageDef
  3
ISM
 90
        0
280
     0
281
     0
  0
CLASS
  1
IMAGEDEF_REACTOR
  2
AcDbRasterImageDefReactor
  3
ISM
 90
        1
280
     0
281
     0
  0
CLASS
  1
IDBUFFER
  2
AcDbIdBuffer
  3
AutoCAD 2000
 90
        0
280
     0
281
     0
  0
CLASS
  1
SPATIAL_FILTER
  2
AcDbSpatialFilter
  3
AutoCAD 2000
 90
        0
280
     0
281
     0
  0
CLASS
  1
XRECORD
  2
AcDbXrecord
  3
AutoCAD 2000
 90
        0
280
     0
281
     0
  0
CLASS
  1
SORTENTSTABLE
  2
AcDbSortentsTable
  3
AutoCAD 2000
 90
        0
280
     0
281
     0
  0
CLASS
  1
LAYER_INDEX
  2
AcDbLayerIndex
  3
AutoCAD 2000
 90
        0
280
     0
281
     0
  0
CLASS
  1
SPATIAL_INDEX
  2
AcDbSpatialIndex
  3
AutoCAD 2000
 90
        0
280
     0
281
     0
  0
CLASS
  1
OBJECT_PTR
  2
CAseDLPNTableRecord
  3
"ASE-LPNTableRecord"
 90
        1
280
     0
281
     0
  0
CLASS
  1
LAYOUT
  2
AcDbLayout
  3
AutoCAD 2000
 90
        0
280
     0
281
     0
  0
CLASS
  1
PLOTSETTINGS
  2
AcDbPlotSettings
  3
AutoCAD 2000
 90
        0
280
     0
281
     0
  0
CLASS
  1
ACDBDICTIONARYWDFLT
  2
AcDbDictionaryWithDefault
  3
AutoCAD 2000
 90
        0
280
     0
281
     0
  0
CLASS
  1
ACDBPLACEHOLDER
  2
AcDbPlaceHolder
  3
AutoCAD 2000
 90
        0
280
     0
281
     0
  0
CLASS
  1
VBA_PROJECT
  2
AcDbVbaProject
  3
acadvba
 90
        0
280
     0
281
     0
  0
CLASS
  1
WIPEOUT
  2
AcDbWipeout
  3
WipeOut|AutoCAD Express Tool|expresstools@autodesk.com
 90
      127
280
     0
281
     1
  0
CLASS
  1
WIPEOUTVARIABLES
  2
AcDbWipeoutVariables
  3
WipeOut|AutoCAD Express Tool|expresstools@autodesk.com
 90
        0
280
     0
281
     0
  0
CLASS
  1
RTEXT
  2
RText
  3
RText|AutoCAD Express Tool|expresstools@autodesk.com
 90
        0
280
     0
281
     1
  0
CLASS
  1
ARCALIGNEDTEXT
  2
AcDbArcAlignedText
  3
ATEXT|AutoCAD Express Tool|expresstools@autodesk.com
 90
        0
280
     0
281
     1
  0
ENDSEC
  0
SECTION
  2
TABLES
  0
TABLE
  2
VPORT
  5
7
100
AcDbSymbolTable
 70
     1
  0
VPORT
  5
15
100
AcDbSymbolTableRecord
100
AcDbViewportTableRecord
  2
*ACTIVE
 70
     0
 10
0.0
 20
0.0
 11
1.0
 21
1.0
 12
6.591288
 22
4.579184
 13
0.0
 23
0.0
 14
1.0
 24
1.0
 15
0.0
 25
0.0
 16
0.0
 26
0.0
 36
1.0
 17
0.0
 27
0.0
 37
0.0
 40
9.158369
 41
0.688564
 42
50.0
 43
0.0
 44
0.0
 50
0.0
 51
0.0
 71
     0
 72
   100
 73
     1
 74
     1
 75
     0
 76
     0
 77
     0
 78
     0
281
     0
 65
     0
110
0.0
120
0.0
130
0.0
111
1.0
121
0.0
131
0.0
112
0.0
122
1.0
132
0.0
345
0
346
0
 79
     0
146
0.0
  0
ENDTAB
  0
TABLE
  2
LTYPE
  5
4
100
AcDbSymbolTable
 70
     3
  0
LTYPE
  5
11
100
AcDbSymbolTableRecord
100
AcDbLinetypeTableRecord
  2
ByBlock
 70
    64
  3

 72
    65
 73
     0
 40
0.0
  0
LTYPE
  5
12
100
AcDbSymbolTableRecord
100
AcDbLinetypeTableRecord
  2
ByLayer
 70
    64
  3

 72
    65
 73
     0
 40
0.0
  0
LTYPE
  5
13
100
AcDbSymbolTableRecord
100
AcDbLinetypeTableRecord
  2
Continuous
 70
    64
  3
Solid line
 72
    65
 73
     0
 40
0.0
  0
ENDTAB
  0
TABLE
  2
LAYER
  5
2
100
AcDbSymbolTable
 70
     4
  0
LAYER
  5
14
100
AcDbSymbolTableRecord
100
AcDbLayerTableRecord
  2
0
 70
     0
 62
     7
  6
Continuous
290
     1
370
    -3
390
1D
  0
LAYER
  5
28
100
AcDbSymbolTableRecord
100
AcDbLayerTableRecord
  2
NO
 70
     4
 62
    -3
  6
Continuous
290
     1
370
    -3
390
1D
  0
LAYER
  5
38
100
AcDbSymbolTableRecord
100
AcDbLayerTableRecord
  2
DR100_SILK081226
 70
     0
 62
     5
  6
Continuous
290
     1
370
    -3
390
1D
  0
LAYER
  5
41
100
AcDbSymbolTableRecord
100
AcDbLayerTableRecord
  2
DR-100_FRONT_50P_
 70
     4
 62
   160
  6
Continuous
290
     1
370
    -3
390
1D
  0
ENDTAB
  0
TABLE
  2
STYLE
  5
3
100
AcDbSymbolTable
 70
     5
  0
STYLE
  5
17
100
AcDbSymbolTableRecord
100
AcDbTextStyleTableRecord
  2
Standard
 70
     0
 40
0.0
 41
1.0
 50
0.0
 71
     0
 42
0.0
  3
txt
  4

  0
STYLE
  5
24
100
AcDbSymbolTableRecord
100
AcDbTextStyleTableRecord
  2
STD
 70
     0
 40
0.0
 41
1.0
 50
0.0
 71
     0
 42
0.0
  3
txt
  4

  0
STYLE
  5
25
100
AcDbSymbolTableRecord
100
AcDbTextStyleTableRecord
  2
TATESTD
 70
     4
 40
0.0
 41
1.0
 50
0.0
 71
     0
 42
0.0
  3
txt
  4

  0
STYLE
  5
26
100
AcDbSymbolTableRecord
100
AcDbTextStyleTableRecord
  2
KANJISTD
 70
     0
 40
0.0
 41
1.0
 50
0.0
 71
     0
 42
0.0
  3
txt
  4
extfont
  0
STYLE
  5
27
100
AcDbSymbolTableRecord
100
AcDbTextStyleTableRecord
  2
KANJITATE
 70
     4
 40
0.0
 41
1.0
 50
0.0
 71
     0
 42
0.0
  3
txt
  4
extfont
  0
ENDTAB
  0
TABLE
  2
VIEW
  5
5
100
AcDbSymbolTable
 70
     0
  0
ENDTAB
  0
TABLE
  2
UCS
  5
6
100
AcDbSymbolTable
 70
     0
  0
ENDTAB
  0
TABLE
  2
APPID
  5
8
100
AcDbSymbolTable
 70
     1
  0
APPID
  5
16
100
AcDbSymbolTableRecord
100
AcDbRegAppTableRecord
  2
ACAD
 70
     0
  0
ENDTAB
  0
TABLE
  2
DIMSTYLE
  5
9
100
AcDbSymbolTable
 70
     1
100
AcDbDimStyleTable
 71
     0
  0
DIMSTYLE
105
18
100
AcDbSymbolTableRecord
100
AcDbDimStyleTableRecord
  2
Standard
 70
     0
  3

  4

 40
1.0
 41
0.18
 42
0.0625
 43
0.38
 44
0.18
 45
0.0
 46
0.0
 47
0.0
 48
0.0
 71
     0
 72
     0
 73
     1
 74
     1
 75
     0
 76
     0
 77
     0
 78
     0
 79
     0
140
0.18
141
0.09
142
0.0
143
25.4
144
1.0
145
0.0
146
1.0
147
0.09
148
0.0
170
     0
171
     2
172
     0
173
     0
174
     0
175
     0
176
     0
177
     0
178
     0
179
     0
271
     4
272
     4
273
     2
274
     2
275
     0
276
     0
277
     2
278
    46
279
     0
280
     0
281
     0
282
     0
283
     1
284
     0
285
     0
286
     0
288
     0
289
     3
340
17
341
0
342
0
343
0
344
0
371
    -2
372
    -2
  0
ENDTAB
  0
TABLE
  2
BLOCK_RECORD
  5
1
100
AcDbSymbolTable
 70
     1
  0
BLOCK_RECORD
  5
A
100
AcDbSymbolTableRecord
100
AcDbBlockTableRecord
  2
*MODEL_SPACE
340
20
  0
BLOCK_RECORD
  5
B
100
AcDbSymbolTableRecord
100
AcDbBlockTableRecord
  2
*PAPER_SPACE
340
21
  0
BLOCK_RECORD
  5
3B
100
AcDbSymbolTableRecord
100
AcDbBlockTableRecord
  2
AI9-BLK1
340
0
102
{BLKREFS
331
3C
102
}
  0
ENDTAB
  0
ENDSEC
  0
SECTION
  2
BLOCKS
  0
BLOCK
  5
D
100
AcDbEntity
  8
0
390
0
100
AcDbBlockBegin
  2
*MODEL_SPACE
 70
     0
 10
0.0
 20
0.0
 30
0.0
  3
*MODEL_SPACE
  1

  0
ENDBLK
  5
E
100
AcDbEntity
  8
0
390
0
100
AcDbBlockEnd
  0
BLOCK
  5
F
100
AcDbEntity
 67
     1
  8
0
390
0
100
AcDbBlockBegin
  2
*PAPER_SPACE
 70
     0
 10
0.0
 20
0.0
 30
0.0
  3
*PAPER_SPACE
  1

  0
ENDBLK
  5
10
100
AcDbEntity
 67
     1
  8
0
390
0
100
AcDbBlockEnd
  0
BLOCK
  5
3D
100
AcDbEntity
  8
DR100_SILK081226
390
0
 62
     7
100
AcDbBlockBegin
  2
AI9-BLK1
 70
     0
 10
0.0
 20
0.0
 30
0.0
  3
AI9-BLK1
  1

  0
HATCH
  5
3E
100
AcDbEntity
  8
DR100_SILK081226
390
0
 62
     7
100
AcDbHatch
 10
0.0
 20
0.0
 30
0.0
210
0.0
220
0.0
230
1.0
  2
SOLID
 70
     1
 71
     0
 91
        1
 92
        3
 72
     0
 73
     1
 93
        6
 10
-0.2960198296440972
 20
0.4251247829861111
 10
-0.2960198296440972
 20
-0.4251247829861111
 10
0.2960198296440972
 20
-0.4251247829861111
 10
0.2960198296440972
 20
-0.2814643012152778
 10
-0.1199754503038194
 20
-0.2814643012152778
 10
-0.1199754503038194
 20
0.4251247829861111
 97
        0
 75
     2
 76
     1
 98
        1
 10
0.0
 20
0.0
  0
ENDBLK
  5
3F
100
AcDbEntity
  8
DR100_SILK081226
390
0
100
AcDbBlockEnd
  0
ENDSEC
  0
SECTION
  2
ENTITIES
  0
LINE
  5
237
100
AcDbEntity
  8
DR-100_FRONT_50P_
390
0
 62
     7
100
AcDbLine
 10
0.242018
 20
-5.064979
 30
0.0
 11
0.242018
 21
-5.100808
 31
0.0
  0
LINE
  5
236
100
AcDbEntity
  8
DR-100_FRONT_50P_
390
0
 62
     7
100
AcDbLine
 10
0.245119
 20
-5.051544
 30
0.0
 11
0.242018
 21
-5.064979
 31
0.0
  0
LINE
  5
235
100
AcDbEntity
  8
DR-100_FRONT_50P_
390
0
 62
     7
100
AcDbLine
 10
0.242018
 20
-4.737695
 30
0.0
 11
0.245119
 21
-4.751476
 31
0.0
  0
LINE
  5
234
100
AcDbEntity
  8
DR-100_FRONT_50P_
390
0
 62
     7
100
AcDbLine
 10
0.242018
 20
-4.701522
 30
0.0
 11
0.242018
 21
-4.737695
 31
0.0
  0
LINE
  5
233
100
AcDbEntity
  8
DR-100_FRONT_50P_
390
0
 62
     7
100
AcDbLine
 10
0.242018
 20
-11.237901
 30
0.0
 11
0.245119
 21
-11.251337
 31
0.0
  0
LINE
  5
232
100
AcDbEntity
  8
DR-100_FRONT_50P_
390
0
 62
     7
100
AcDbLine
 10
0.242018
 20
-11.201728
 30
0.0
 11
0.242018
 21
-11.237901
 31
0.0
  0
LINE
  5
231
100
AcDbEntity
  8
DR-100_FRONT_50P_
390
0
 62
     7
100
AcDbLine
 10
0.242018
 20
-11.564841
 30
0.0
 11
0.242018
 21
-11.601015
 31
0.0
  0
LINE
  5
230
100
AcDbEntity
  8
DR-100_FRONT_50P_
390
0
 62
     7
100
AcDbLine
 10
0.245119
 20
-11.551405
 30
0.0
 11
0.242018
 21
-11.564841
 31
0.0
  0
LINE
  5
22F
100
AcDbEntity
  8
DR-100_FRONT_50P_
390
0
 62
     7
100
AcDbLine
 10
2.01762
 20
-15.1095
 30
0.0
 11
2.054138
 21
-15.151185
 31
0.0
  0
LINE
  5
22E
100
AcDbEntity
  8
DR-100_FRONT_50P_
390
0
 62
     7
100
AcDbLine
 10
1.904277
 20
-14.97583
 30
0.0
 11
2.01762
 21
-15.1095
 31
0.0
  0
LINE
  5
22D
100
AcDbEntity
  8
DR-100_FRONT_50P_
390
0
 62
     7
100
AcDbLine
 10
1.717725
 20
-14.740875
 30
0.0
 11
1.904277
 21
-14.97583
 31
0.0
  0
LINE
  5
22C
100
AcDbEntity
  8
DR-100_FRONT_50P_
390
0
 62
     7
100
AcDbLine
 10
1.46606
 20
-14.392575
 30
0.0
 11
1.717725
 21
-14.740875
 31
0.0
  0
LINE
  5
22B
100
AcDbEntity
  8
DR-100_FRONT_50P_
390
0
 62
     7
100
AcDbLine
 10
1.167198
 20
-13.918875
 30
0.0
 11
1.46606
 21
-14.392575
 31
0.0
  0
LINE
  5
22A
100
AcDbEntity
  8
DR-100_FRONT_50P_
390
0
 62
     7
100
AcDbLine
 10
1.151868
 20
-14.177946
 30
0.0
 11
1.136709
 21
-14.151419
 31
0.0
  0
LINE
  5
229
100
AcDbEntity
  8
DR-100_FRONT_50P_
390
0
 62
     7
100
AcDbLine
 10
1.167198
 20
-14.204129
 30
0.0
 11
1.151868
 21
-14.177946
 31
0.0
  0
LINE
  5
228
100
AcDbEntity
  8
DR-100_FRONT_50P_
390
0
 62
     7
100
AcDbLine
 10
0.956014
 20
-13.810354
 30
0.0
 11
0.880394
 21
-13.654636
 31
0.0
  0
LINE
  5
227
100
AcDbEntity
  8
DR-100_FRONT_50P_
390
0
 62
     7
100
AcDbLine
 10
1.041452
 20
-13.976752
 30
0.0
 11
0.956014
 21
-13.810354
 31
0.0
  0
LINE
  5
226
100
AcDbEntity
  8
DR-100_FRONT_50P_
390
0
 62
     7
100
AcDbLine
 10
1.136709
 20
-14.151419
 30
0.0
 11
1.041452
 21
-13.976752
 31
0.0
  0
LINE
  5
225
100
AcDbEntity
  8
DR-100_FRONT_50P_
390
0
 62
     7
100
AcDbLine
 10
1.053338
 20
-13.713892
 30
0.0
 11
1.157035
 21
-13.901649
 31
0.0
  0
LINE
  5
224
100
AcDbEntity
  8
DR-100_FRONT_50P_
390
0
 62
     7
100
AcDbLine
 10
0.961354
 20
-13.537158
 30
0.0
 11
1.053338
 21
-13.713892
 31
0.0
  0
LINE
  5
223
100
AcDbEntity
  8
DR-100_FRONT_50P_
390
0
 62
     7
100
AcDbLine
 10
1.467955
 20
-14.666116
 30
0.0
 11
1.167198
 21
-14.204129
 31
0.0
  0
LINE
  5
222
100
AcDbEntity
  8
DR-100_FRONT_50P_
390
0
 62
     7
100
AcDbLine
 10
1.719275
 20
-15.00408
 30
0.0
 11
1.467955
 21
-14.666116
 31
0.0
  0
LINE
  5
221
100
AcDbEntity
  8
DR-100_FRONT_50P_
390
0
 62
     7
100
AcDbLine
 10
1.905655
 20
-15.231456
 30
0.0
 11
1.719275
 21
-15.00408
 31
0.0
  0
LINE
  5
220
100
AcDbEntity
  8
DR-100_FRONT_50P_
390
0
 62
     7
100
AcDbLine
 10
2.01762
 20
-15.360992
 30
0.0
 11
1.905655
 21
-15.231456
 31
0.0
  0
LINE
  5
21F
100
AcDbEntity
  8
DR-100_FRONT_50P_
390
0
 62
     7
100
AcDbLine
 10
2.054138
 20
-15.401299
 30
0.0
 11
2.01762
 21
-15.360992
 31
0.0
  0
LINE
  5
21E
100
AcDbEntity
  8
DR-100_FRONT_50P_
390
0
 62
     7
100
AcDbLine
 10
34.874357
 20
-17.642678
 30
0.0
 11
34.781684
 21
-17.666105
 31
0.0
  0
LINE
  5
21D
100
AcDbEntity
  8
DR-100_FRONT_50P_
390
0
 62
     7
100
AcDbLine
 10
34.905363
 20
-17.635099
 30
0.0
 11
34.874357
 21
-17.642678
 31
0.0
  0
LINE
  5
21C
100
AcDbEntity
  8
DR-100_FRONT_50P_
390
0
 62
     7
100
AcDbLine
 10
34.203597
 20
-17.78944
 30
0.0
 11
33.95555
 21
-17.831814
 31
0.0
  0
LINE
  5
21B
100
AcDbEntity
  8
DR-100_FRONT_50P_
390
0
 62
     7
100
AcDbLine
 10
34.434763
 20
-17.744998
 30
0.0
 11
34.203597
 21
-17.78944
 31
0.0
  0
LINE
  5
21A
100
AcDbEntity
  8
DR-100_FRONT_50P_
390
0
 62
     7
100
AcDbLine
 10
34.632167
 20
-17.701245
 30
0.0
 11
34.434763
 21
-17.744998
 31
0.0
  0
LINE
  5
219
100
AcDbEntity
  8
DR-100_FRONT_50P_
390
0
 62
     7
100
AcDbLine
 10
6.557567
 20
-17.78944
 30
0.0
 11
6.326057
 21
-17.744998
 31
0.0
  0
LINE
  5
218
100
AcDbEntity
  8
DR-100_FRONT_50P_
390
0
 62
     7
100
AcDbLine
 10
6.805269
 20
-17.831814
 30
0.0
 11
6.557567
 21
-17.78944
 31
0.0
  0
LINE
  5
217
100
AcDbEntity
  8
DR-100_FRONT_50P_
390
0
 62
     7
100
AcDbLine
 10
40.36894
 20
-14.502474
 30
0.0
 11
40.380653
 21
-14.455965
 31
0.0
  0
LINE
  5
216
100
AcDbEntity
  8
DR-100_FRONT_50P_
390
0
 62
     7
100
AcDbLine
 10
40.336556
 20
-14.541059
 30
0.0
 11
40.36894
 21
-14.502474
 31
0.0
  0
LINE
  5
215
100
AcDbEntity
  8
DR-100_FRONT_50P_
390
0
 62
     7
100
AcDbLine
 10
40.28798
 20
-14.567242
 30
0.0
 11
40.336556
 21
-14.541059
 31
0.0
  0
LINE
  5
214
100
AcDbEntity
  8
DR-100_FRONT_50P_
390
0
 62
     7
100
AcDbLine
 10
40.230447
 20
-14.576544
 30
0.0
 11
40.28798
 21
-14.567242
 31
0.0
  0
LINE
  5
213
100
AcDbEntity
  8
DR-100_FRONT_50P_
390
0
 62
     7
100
AcDbLine
 10
0.39188
 20
-14.070459
 30
0.0
 11
0.380511
 21
-14.019816
 31
0.0
  0
LINE
  5
212
100
AcDbEntity
  8
DR-100_FRONT_50P_
390
0
 62
     7
100
AcDbLine
 10
0.424264
 20
-14.113178
 30
0.0
 11
0.39188
 21
-14.070459
 31
0.0
  0
LINE
  5
211
100
AcDbEntity
  8
DR-100_FRONT_50P_
390
0
 62
     7
100
AcDbLine
 10
0.472839
 20
-14.141083
 30
0.0
 11
0.424264
 21
-14.113178
 31
0.0
  0
LINE
  5
210
100
AcDbEntity
  8
DR-100_FRONT_50P_
390
0
 62
     7
100
AcDbLine
 10
0.530372
 20
-14.151419
 30
0.0
 11
0.472839
 21
-14.141083
 31
0.0
  0
LINE
  5
20F
100
AcDbEntity
  8
DR-100_FRONT_50P_
390
0
 62
     7
100
AcDbLine
 10
37.53466
 20
-0.418924
 30
0.0
 11
37.51709
 21
-0.417546
 31
0.0
  0
LINE
  5
20E
100
AcDbEntity
  8
DR-100_FRONT_50P_
390
0
 62
     7
100
AcDbLine
 10
37.536727
 20
-0.418924
 30
0.0
 11
37.53466
 21
-0.418924
 31
0.0
  0
LINE
  5
20D
100
AcDbEntity
  8
DR-100_FRONT_50P_
390
0
 62
     7
100
AcDbLine
 10
38.650871
 20
-0.418235
 30
0.0
 11
38.355282
 21
-0.401354
 31
0.0
  0
LINE
  5
20C
100
AcDbEntity
  8
DR-100_FRONT_50P_
390
0
 62
     7
100
AcDbLine
 10
38.912009
 20
-0.468877
 30
0.0
 11
38.650871
 21
-0.418235
 31
0.0
  0
LINE
  5
20B
100
AcDbEntity
  8
DR-100_FRONT_50P_
390
0
 62
     7
100
AcDbLine
 10
39.136629
 20
-0.551904
 30
0.0
 11
38.912009
 21
-0.468877
 31
0.0
  0
LINE
  5
20A
100
AcDbEntity
  8
DR-100_FRONT_50P_
390
0
 62
     7
100
AcDbLine
 10
38.334611
 20
-0.589111
 30
0.0
 11
38.323242
 21
-0.585322
 31
0.0
  0
LINE
  5
209
100
AcDbEntity
  8
DR-100_FRONT_50P_
390
0
 62
     7
100
AcDbLine
 10
38.345291
 20
-0.593245
 30
0.0
 11
38.334611
 21
-0.589111
 31
0.0
  0
LINE
  5
208
100
AcDbEntity
  8
DR-100_FRONT_50P_
390
0
 62
     7
100
AcDbLine
 10
38.35666
 20
-0.59738
 30
0.0
 11
38.345291
 21
-0.593245
 31
0.0
  0
LINE
  5
207
100
AcDbEntity
  8
DR-100_FRONT_50P_
390
0
 62
     7
100
AcDbLine
 10
38.366995
 20
-0.601514
 30
0.0
 11
38.35666
 21
-0.59738
 31
0.0
  0
LINE
  5
206
100
AcDbEntity
  8
DR-100_FRONT_50P_
390
0
 62
     7
100
AcDbLine
 10
38.378708
 20
-0.605992
 30
0.0
 11
38.366995
 21
-0.601514
 31
0.0
  0
LINE
  5
205
100
AcDbEntity
  8
DR-100_FRONT_50P_
390
0
 62
     7
100
AcDbLine
 10
38.941292
 20
-14.88109
 30
0.0
 11
39.324042
 21
-14.360192
 31
0.0
  0
LINE
  5
204
100
AcDbEntity
  8
DR-100_FRONT_50P_
390
0
 62
     7
100
AcDbLine
 10
38.594371
 20
-15.286233
 30
0.0
 11
38.941292
 21
-14.88109
 31
0.0
  0
LINE
  5
203
100
AcDbEntity
  8
DR-100_FRONT_50P_
390
0
 62
     7
100
AcDbLine
 10
38.303605
 20
-15.587679
 30
0.0
 11
38.594371
 21
-15.286233
 31
0.0
  0
LINE
  5
202
100
AcDbEntity
  8
DR-100_FRONT_50P_
390
0
 62
     7
100
AcDbLine
 10
38.082775
 20
-15.795418
 30
0.0
 11
38.303605
 21
-15.587679
 31
0.0
  0
LINE
  5
201
100
AcDbEntity
  8
DR-100_FRONT_50P_
390
0
 62
     7
100
AcDbLine
 10
37.937736
 20
-15.92392
 30
0.0
 11
38.082775
 21
-15.795418
 31
0.0
  0
LINE
  5
200
100
AcDbEntity
  8
DR-100_FRONT_50P_
390
0
 62
     7
100
AcDbLine
 10
37.865044
 20
-15.985932
 30
0.0
 11
37.937736
 21
-15.92392
 31
0.0
  0
LINE
  5
1FF
100
AcDbEntity
  8
DR-100_FRONT_50P_
390
0
 62
     7
100
AcDbLine
 10
37.846441
 20
-16.00178
 30
0.0
 11
37.865044
 21
-15.985932
 31
0.0
  0
LINE
  5
1FE
100
AcDbEntity
  8
DR-100_FRONT_50P_
390
0
 62
     7
100
AcDbLine
 10
38.718739
 20
-0.427536
 30
0.0
 11
38.617798
 21
-0.416512
 31
0.0
  0
LINE
  5
1FD
100
AcDbEntity
  8
DR-100_FRONT_50P_
390
0
 62
     7
100
AcDbLine
 10
38.898573
 20
-0.465088
 30
0.0
 11
38.718739
 21
-0.427536
 31
0.0
  0
LINE
  5
1FC
100
AcDbEntity
  8
DR-100_FRONT_50P_
390
0
 62
     7
100
AcDbLine
 10
39.081163
 20
-0.5271
 30
0.0
 11
38.898573
 21
-0.465088
 31
0.0
  0
LINE
  5
1FB
100
AcDbEntity
  8
DR-100_FRONT_50P_
390
0
 62
     7
100
AcDbLine
 10
39.130084
 20
-0.552938
 30
0.0
 11
39.081163
 21
-0.5271
 31
0.0
  0
LINE
  5
1FA
100
AcDbEntity
  8
DR-100_FRONT_50P_
390
0
 62
     7
100
AcDbLine
 10
38.727352
 20
-0.777214
 30
0.0
 11
38.716672
 21
-0.770668
 31
0.0
  0
LINE
  5
1F9
100
AcDbEntity
  8
DR-100_FRONT_50P_
390
0
 62
     7
100
AcDbLine
 10
38.738376
 20
-0.783759
 30
0.0
 11
38.727352
 21
-0.777214
 31
0.0
  0
LINE
  5
1F8
100
AcDbEntity
  8
DR-100_FRONT_50P_
390
0
 62
     7
100
AcDbLine
 10
38.80211
 20
-0.8251
 30
0.0
 11
38.738376
 21
-0.783759
 31
0.0
  0
LINE
  5
1F7
100
AcDbEntity
  8
DR-100_FRONT_50P_
390
0
 62
     7
100
AcDbLine
 10
40.518802
 20
-4.73804
 30
0.0
 11
40.518802
 21
-4.702211
 31
0.0
  0
LINE
  5
1F6
100
AcDbEntity
  8
DR-100_FRONT_50P_
390
0
 62
     7
100
AcDbLine
 10
40.515701
 20
-4.751476
 30
0.0
 11
40.518802
 21
-4.73804
 31
0.0
  0
LINE
  5
1F5
100
AcDbEntity
  8
DR-100_FRONT_50P_
390
0
 62
     7
100
AcDbLine
 10
39.335411
 20
-14.344
 30
0.0
 11
39.347125
 21
-14.32643
 31
0.0
  0
LINE
  5
1F4
100
AcDbEntity
  8
DR-100_FRONT_50P_
390
0
 62
     7
100
AcDbLine
 10
39.324042
 20
-14.360192
 30
0.0
 11
39.335411
 21
-14.344
 31
0.0
  0
LINE
  5
1F3
100
AcDbEntity
  8
DR-100_FRONT_50P_
390
0
 62
     7
100
AcDbLine
 10
37.864355
 20
-16.236391
 30
0.0
 11
37.846441
 21
-16.251893
 31
0.0
  0
LINE
  5
1F2
100
AcDbEntity
  8
DR-100_FRONT_50P_
390
0
 62
     7
100
AcDbLine
 10
37.937391
 20
-16.17679
 30
0.0
 11
37.864355
 21
-16.236391
 31
0.0
  0
LINE
  5
1F1
100
AcDbEntity
  8
DR-100_FRONT_50P_
390
0
 62
     7
100
AcDbLine
 10
38.081741
 20
-16.052422
 30
0.0
 11
37.937391
 21
-16.17679
 31
0.0
  0
LINE
  5
1F0
100
AcDbEntity
  8
DR-100_FRONT_50P_
390
0
 62
     7
100
AcDbLine
 10
38.303605
 20
-15.849851
 30
0.0
 11
38.081741
 21
-16.052422
 31
0.0
  0
LINE
  5
1EF
100
AcDbEntity
  8
DR-100_FRONT_50P_
390
0
 62
     7
100
AcDbLine
 10
38.595749
 20
-15.558051
 30
0.0
 11
38.303605
 21
-15.849851
 31
0.0
  0
LINE
  5
1EE
100
AcDbEntity
  8
DR-100_FRONT_50P_
390
0
 62
     7
100
AcDbLine
 10
38.94267
 20
-15.167377
 30
0.0
 11
38.595749
 21
-15.558051
 31
0.0
  0
LINE
  5
1ED
100
AcDbEntity
  8
DR-100_FRONT_50P_
390
0
 62
     7
100
AcDbLine
 10
39.324042
 20
-14.669906
 30
0.0
 11
38.94267
 21
-15.167377
 31
0.0
  0
LINE
  5
1EC
100
AcDbEntity
  8
DR-100_FRONT_50P_
390
0
 62
     7
100
AcDbLine
 10
38.833805
 20
-0.84646
 30
0.0
 11
38.911664
 21
-0.903649
 31
0.0
  0
LINE
  5
1EB
100
AcDbEntity
  8
DR-100_FRONT_50P_
390
0
 62
     7
100
AcDbLine
 10
38.745955
 20
-0.788582
 30
0.0
 11
38.833805
 21
-0.84646
 31
0.0
  0
LINE
  5
1EA
100
AcDbEntity
  8
DR-100_FRONT_50P_
390
0
 62
     7
100
AcDbLine
 10
38.869634
 20
-0.871954
 30
0.0
 11
38.925445
 21
-0.915017
 31
0.0
  0
LINE
  5
1E9
100
AcDbEntity
  8
DR-100_FRONT_50P_
390
0
 62
     7
100
AcDbLine
 10
38.825193
 20
-0.840603
 30
0.0
 11
38.869634
 21
-0.871954
 31
0.0
  0
LINE
  5
1E8
100
AcDbEntity
  8
DR-100_FRONT_50P_
390
0
 62
     7
100
AcDbLine
 10
38.94646
 20
-0.931554
 30
0.0
 11
38.989524
 21
-0.967383
 31
0.0
  0
LINE
  5
1E7
100
AcDbEntity
  8
DR-100_FRONT_50P_
390
0
 62
     7
100
AcDbLine
 10
38.906152
 20
-0.899859
 30
0.0
 11
38.94646
 21
-0.931554
 31
0.0
  0
LINE
  5
1E6
100
AcDbEntity
  8
DR-100_FRONT_50P_
390
0
 62
     7
100
AcDbLine
 10
39.454267
 20
-1.559939
 30
0.0
 11
39.513867
 21
-1.684307
 31
0.0
  0
LINE
  5
1E5
100
AcDbEntity
  8
DR-100_FRONT_50P_
390
0
 62
     7
100
AcDbLine
 10
39.388466
 20
-1.442461
 30
0.0
 11
39.454267
 21
-1.559939
 31
0.0
  0
LINE
  5
1E4
100
AcDbEntity
  8
DR-100_FRONT_50P_
390
0
 62
     7
100
AcDbLine
 10
39.316463
 20
-1.331874
 30
0.0
 11
39.388466
 21
-1.442461
 31
0.0
  0
LINE
  5
1E3
100
AcDbEntity
  8
DR-100_FRONT_50P_
390
0
 62
     7
100
AcDbLine
 10
39.241016
 20
-1.229555
 30
0.0
 11
39.316463
 21
-1.331874
 31
0.0
  0
LINE
  5
1E2
100
AcDbEntity
  8
DR-100_FRONT_50P_
390
0
 62
     7
100
AcDbLine
 10
39.160745
 20
-1.135159
 30
0.0
 11
39.241016
 21
-1.229555
 31
0.0
  0
LINE
  5
1E1
100
AcDbEntity
  8
DR-100_FRONT_50P_
390
0
 62
     7
100
AcDbLine
 10
39.078063
 20
-1.048687
 30
0.0
 11
39.160745
 21
-1.135159
 31
0.0
  0
LINE
  5
1E0
100
AcDbEntity
  8
DR-100_FRONT_50P_
390
0
 62
     7
100
AcDbLine
 10
38.994347
 20
-0.971517
 30
0.0
 11
39.078063
 21
-1.048687
 31
0.0
  0
LINE
  5
1DF
100
AcDbEntity
  8
DR-100_FRONT_50P_
390
0
 62
     7
100
AcDbLine
 10
38.911664
 20
-0.903649
 30
0.0
 11
38.994347
 21
-0.971517
 31
0.0
  0
LINE
  5
1DE
100
AcDbEntity
  8
DR-100_FRONT_50P_
390
0
 62
     7
100
AcDbLine
 10
39.109068
 20
-1.080037
 30
0.0
 11
39.144553
 21
-1.117244
 31
0.0
  0
LINE
  5
1DD
100
AcDbEntity
  8
DR-100_FRONT_50P_
390
0
 62
     7
100
AcDbLine
 10
39.073584
 20
-1.044208
 30
0.0
 11
39.109068
 21
-1.080037
 31
0.0
  0
LINE
  5
1DC
100
AcDbEntity
  8
DR-100_FRONT_50P_
390
0
 62
     7
100
AcDbLine
 10
39.035688
 20
-1.008035
 30
0.0
 11
39.073584
 21
-1.044208
 31
0.0
  0
LINE
  5
1DB
100
AcDbEntity
  8
DR-100_FRONT_50P_
390
0
 62
     7
100
AcDbLine
 10
39.644781
 20
-2.048798
 30
0.0
 11
39.50112
 21
-1.655368
 31
0.0
  0
LINE
  5
1DA
100
AcDbEntity
  8
DR-100_FRONT_50P_
390
0
 62
     7
100
AcDbLine
 10
39.730908
 20
-2.452563
 30
0.0
 11
39.644781
 21
-2.048798
 31
0.0
  0
LINE
  5
1D9
100
AcDbEntity
  8
DR-100_FRONT_50P_
390
0
 62
     7
100
AcDbLine
 10
39.770527
 20
-2.827734
 30
0.0
 11
39.730908
 21
-2.452563
 31
0.0
  0
LINE
  5
1D8
100
AcDbEntity
  8
DR-100_FRONT_50P_
390
0
 62
     7
100
AcDbLine
 10
39.780518
 20
-3.151573
 30
0.0
 11
39.770527
 21
-2.827734
 31
0.0
  0
LINE
  5
1D7
100
AcDbEntity
  8
DR-100_FRONT_50P_
390
0
 62
     7
100
AcDbLine
 10
40.518802
 20
-5.065324
 30
0.0
 11
40.515701
 21
-5.051544
 31
0.0
  0
LINE
  5
1D6
100
AcDbEntity
  8
DR-100_FRONT_50P_
390
0
 62
     7
100
AcDbLine
 10
40.518802
 20
-5.101153
 30
0.0
 11
40.518802
 21
-5.065324
 31
0.0
  0
LINE
  5
1D5
100
AcDbEntity
  8
DR-100_FRONT_50P_
390
0
 62
     7
100
AcDbLine
 10
40.518802
 20
-11.564841
 30
0.0
 11
40.515701
 21
-11.551405
 31
0.0
  0
LINE
  5
1D4
100
AcDbEntity
  8
DR-100_FRONT_50P_
390
0
 62
     7
100
AcDbLine
 10
40.518802
 20
-11.601359
 30
0.0
 11
40.518802
 21
-11.564841
 31
0.0
  0
LINE
  5
1D3
100
AcDbEntity
  8
DR-100_FRONT_50P_
390
0
 62
     7
100
AcDbLine
 10
40.518802
 20
-11.237901
 30
0.0
 11
40.518802
 21
-11.201728
 31
0.0
  0
LINE
  5
1D2
100
AcDbEntity
  8
DR-100_FRONT_50P_
390
0
 62
     7
100
AcDbLine
 10
40.515701
 20
-11.251337
 30
0.0
 11
40.518802
 21
-11.237901
 31
0.0
  0
LINE
  5
1D1
100
AcDbEntity
  8
DR-100_FRONT_50P_
390
0
 62
     7
100
AcDbLine
 10
39.581047
 20
-14.252016
 30
0.0
 11
39.386743
 21
-14.576544
 31
0.0
  0
LINE
  5
1D0
100
AcDbEntity
  8
DR-100_FRONT_50P_
390
0
 62
     7
100
AcDbLine
 10
39.745378
 20
-13.948847
 30
0.0
 11
39.581047
 21
-14.252016
 31
0.0
  0
LINE
  5
1CF
100
AcDbEntity
  8
DR-100_FRONT_50P_
390
0
 62
     7
100
AcDbLine
 10
39.88077
 20
-13.673928
 30
0.0
 11
39.745378
 21
-13.948847
 31
0.0
  0
LINE
  5
1CE
100
AcDbEntity
  8
DR-100_FRONT_50P_
390
0
 62
     7
100
AcDbLine
 10
39.558653
 20
-13.981231
 30
0.0
 11
39.73642
 21
-13.660493
 31
0.0
  0
LINE
  5
1CD
100
AcDbEntity
  8
DR-100_FRONT_50P_
390
0
 62
     7
100
AcDbLine
 10
39.347125
 20
-14.32643
 30
0.0
 11
39.558653
 21
-13.981231
 31
0.0
  0
LINE
  5
1CC
100
AcDbEntity
  8
DR-100_FRONT_50P_
390
0
 62
     7
100
AcDbLine
 10
39.356082
 20
-14.62443
 30
0.0
 11
39.324042
 21
-14.669906
 31
0.0
  0
LINE
  5
1CB
100
AcDbEntity
  8
DR-100_FRONT_50P_
390
0
 62
     7
100
AcDbLine
 10
39.386743
 20
-14.576544
 30
0.0
 11
39.356082
 21
-14.62443
 31
0.0
  0
LINE
  5
1CA
100
AcDbEntity
  8
DR-100_FRONT_50P_
390
0
 62
     7
100
AcDbLine
 10
39.135596
 20
-1.107254
 30
0.0
 11
39.182449
 21
-1.15893
 31
0.0
  0
LINE
  5
1C9
100
AcDbEntity
  8
DR-100_FRONT_50P_
390
0
 62
     7
100
AcDbLine
 10
39.082886
 20
-1.053855
 30
0.0
 11
39.135596
 21
-1.107254
 31
0.0
  0
LINE
  5
1C8
100
AcDbEntity
  8
DR-100_FRONT_50P_
390
0
 62
     7
100
AcDbLine
 10
37.587714
 20
-0.424091
 30
0.0
 11
37.13055
 21
-0.401354
 31
0.0
  0
LINE
  5
1C7
100
AcDbEntity
  8
DR-100_FRONT_50P_
390
0
 62
     7
100
AcDbLine
 10
38.014217
 20
-0.494027
 30
0.0
 11
37.587714
 21
-0.424091
 31
0.0
  0
LINE
  5
1C6
100
AcDbEntity
  8
DR-100_FRONT_50P_
390
0
 62
     7
100
AcDbLine
 10
38.408336
 20
-0.617706
 30
0.0
 11
38.014217
 21
-0.494027
 31
0.0
  0
LINE
  5
1C5
100
AcDbEntity
  8
DR-100_FRONT_50P_
390
0
 62
     7
100
AcDbLine
 10
38.759391
 20
-0.797195
 30
0.0
 11
38.408336
 21
-0.617706
 31
0.0
  0
LINE
  5
1C4
100
AcDbEntity
  8
DR-100_FRONT_50P_
390
0
 62
     7
100
AcDbLine
 10
39.056703
 20
-1.028361
 30
0.0
 11
38.759391
 21
-0.797195
 31
0.0
  0
LINE
  5
1C3
100
AcDbEntity
  8
DR-100_FRONT_50P_
390
0
 62
     7
100
AcDbLine
 10
39.304405
 20
-1.313959
 30
0.0
 11
39.056703
 21
-1.028361
 31
0.0
  0
LINE
  5
1C2
100
AcDbEntity
  8
DR-100_FRONT_50P_
390
0
 62
     7
100
AcDbLine
 10
39.286835
 20
-1.290188
 30
0.0
 11
39.327832
 21
-1.34841
 31
0.0
  0
LINE
  5
1C1
100
AcDbEntity
  8
DR-100_FRONT_50P_
390
0
 62
     7
100
AcDbLine
 10
39.245839
 20
-1.2361
 30
0.0
 11
39.286835
 21
-1.290188
 31
0.0
  0
LINE
  5
1C0
100
AcDbEntity
  8
DR-100_FRONT_50P_
390
0
 62
     7
100
AcDbLine
 10
39.205876
 20
-1.18718
 30
0.0
 11
39.245839
 21
-1.2361
 31
0.0
  0
LINE
  5
1BF
100
AcDbEntity
  8
DR-100_FRONT_50P_
390
0
 62
     7
100
AcDbLine
 10
39.16798
 20
-1.143083
 30
0.0
 11
39.205876
 21
-1.18718
 31
0.0
  0
LINE
  5
1BE
100
AcDbEntity
  8
DR-100_FRONT_50P_
390
0
 62
     7
100
AcDbLine
 10
39.254107
 20
-1.246436
 30
0.0
 11
39.291314
 21
-1.296389
 31
0.0
  0
LINE
  5
1BD
100
AcDbEntity
  8
DR-100_FRONT_50P_
390
0
 62
     7
100
AcDbLine
 10
39.216555
 20
-1.199927
 30
0.0
 11
39.254107
 21
-1.246436
 31
0.0
  0
LINE
  5
1BC
100
AcDbEntity
  8
DR-100_FRONT_50P_
390
0
 62
     7
100
AcDbLine
 10
39.268921
 20
-1.265728
 30
0.0
 11
39.30475
 21
-1.314993
 31
0.0
  0
LINE
  5
1BB
100
AcDbEntity
  8
DR-100_FRONT_50P_
390
0
 62
     7
100
AcDbLine
 10
39.226546
 20
-1.211985
 30
0.0
 11
39.268921
 21
-1.265728
 31
0.0
  0
LINE
  5
1BA
100
AcDbEntity
  8
DR-100_FRONT_50P_
390
0
 62
     7
100
AcDbLine
 10
39.310607
 20
-1.322917
 30
0.0
 11
39.288558
 21
-1.292255
 31
0.0
  0
LINE
  5
1B9
100
AcDbEntity
  8
DR-100_FRONT_50P_
390
0
 62
     7
100
AcDbLine
 10
39.329555
 20
-1.350822
 30
0.0
 11
39.310607
 21
-1.322917
 31
0.0
  0
LINE
  5
1B8
100
AcDbEntity
  8
DR-100_FRONT_50P_
390
0
 62
     7
100
AcDbLine
 10
39.334378
 20
-0.673172
 30
0.0
 11
39.132151
 21
-0.549837
 31
0.0
  0
LINE
  5
1B7
100
AcDbEntity
  8
DR-100_FRONT_50P_
390
0
 62
     7
100
AcDbLine
 10
39.502154
 20
-0.837503
 30
0.0
 11
39.334378
 21
-0.673172
 31
0.0
  0
LINE
  5
1B6
100
AcDbEntity
  8
DR-100_FRONT_50P_
390
0
 62
     7
100
AcDbLine
 10
39.627555
 20
-1.034218
 30
0.0
 11
39.502154
 21
-0.837503
 31
0.0
  0
LINE
  5
1B5
100
AcDbEntity
  8
DR-100_FRONT_50P_
390
0
 62
     7
100
AcDbLine
 10
39.523858
 20
-1.7067
 30
0.0
 11
39.525236
 21
-1.710145
 31
0.0
  0
LINE
  5
1B4
100
AcDbEntity
  8
DR-100_FRONT_50P_
390
0
 62
     7
100
AcDbLine
 10
39.483895
 20
-1.61885
 30
0.0
 11
39.523858
 21
-1.7067
 31
0.0
  0
LINE
  5
1B3
100
AcDbEntity
  8
DR-100_FRONT_50P_
390
0
 62
     7
100
AcDbLine
 10
39.445654
 20
-1.543747
 30
0.0
 11
39.483895
 21
-1.61885
 31
0.0
  0
LINE
  5
1B2
100
AcDbEntity
  8
DR-100_FRONT_50P_
390
0
 62
     7
100
AcDbLine
 10
39.407069
 20
-1.474501
 30
0.0
 11
39.445654
 21
-1.543747
 31
0.0
  0
LINE
  5
1B1
100
AcDbEntity
  8
DR-100_FRONT_50P_
390
0
 62
     7
100
AcDbLine
 10
39.365039
 20
-1.405254
 30
0.0
 11
39.407069
 21
-1.474501
 31
0.0
  0
LINE
  5
1B0
100
AcDbEntity
  8
DR-100_FRONT_50P_
390
0
 62
     7
100
AcDbLine
 10
39.461502
 20
-1.574064
 30
0.0
 11
39.435664
 21
-1.525833
 31
0.0
  0
LINE
  5
1AF
100
AcDbEntity
  8
DR-100_FRONT_50P_
390
0
 62
     7
100
AcDbLine
 10
39.486306
 20
-1.624018
 30
0.0
 11
39.461502
 21
-1.574064
 31
0.0
  0
LINE
  5
1AE
100
AcDbEntity
  8
DR-100_FRONT_50P_
390
0
 62
     7
100
AcDbLine
 10
39.509389
 20
-1.674661
 30
0.0
 11
39.486306
 21
-1.624018
 31
0.0
  0
LINE
  5
1AD
100
AcDbEntity
  8
DR-100_FRONT_50P_
390
0
 62
     7
100
AcDbLine
 10
39.526614
 20
-1.712557
 30
0.0
 11
39.509389
 21
-1.674661
 31
0.0
  0
LINE
  5
1AC
100
AcDbEntity
  8
DR-100_FRONT_50P_
390
0
 62
     7
100
AcDbLine
 10
39.530404
 20
-1.720825
 30
0.0
 11
39.524202
 21
-1.707734
 31
0.0
  0
LINE
  5
1AB
100
AcDbEntity
  8
DR-100_FRONT_50P_
390
0
 62
     7
100
AcDbLine
 10
39.535571
 20
-1.733917
 30
0.0
 11
39.530404
 21
-1.720825
 31
0.0
  0
LINE
  5
1AA
100
AcDbEntity
  8
DR-100_FRONT_50P_
390
0
 62
     7
100
AcDbLine
 10
39.541083
 20
-1.747352
 30
0.0
 11
39.535571
 21
-1.733917
 31
0.0
  0
LINE
  5
1A9
100
AcDbEntity
  8
DR-100_FRONT_50P_
390
0
 62
     7
100
AcDbLine
 10
39.54694
 20
-1.760444
 30
0.0
 11
39.541083
 21
-1.747352
 31
0.0
  0
LINE
  5
1A8
100
AcDbEntity
  8
DR-100_FRONT_50P_
390
0
 62
     7
100
AcDbLine
 10
39.551763
 20
-1.77388
 30
0.0
 11
39.54694
 21
-1.760444
 31
0.0
  0
LINE
  5
1A7
100
AcDbEntity
  8
DR-100_FRONT_50P_
390
0
 62
     7
100
AcDbLine
 10
39.557275
 20
-1.786971
 30
0.0
 11
39.551763
 21
-1.77388
 31
0.0
  0
LINE
  5
1A6
100
AcDbEntity
  8
DR-100_FRONT_50P_
390
0
 62
     7
100
AcDbLine
 10
39.562788
 20
-1.800407
 30
0.0
 11
39.557275
 21
-1.786971
 31
0.0
  0
SPLINE
  5
1A5
100
AcDbEntity
  8
DR-100_FRONT_50P_
390
0
 62
     7
100
AcDbSpline
210
0.0
220
0.0
230
1.0
 70
     8
 71
     3
 72
    11
 73
     7
 74
     0
 42
0.00000001
 43
0.00000001
 40
0.0
 40
0.0
 40
0.0
 40
0.0
 40
1.0
 40
1.0
 40
1.0
 40
2.0
 40
2.0
 40
2.0
 40
2.0
 10
40.3806532118055515
 20
-3.5515489366319439
 30
0.0
 10
40.3806532118055515
 20
-3.5115858289930553
 30
0.0
 10
40.3644612630208286
 20
-3.4736897786458329
 30
0.0
 10
40.3365559895833314
 20
-3.4454399956597217
 30
0.0
 10
40.3083062065972157
 20
-3.4171902126736109
 30
0.0
 10
40.2704101562499943
 20
-3.4013427734374999
 30
0.0
 10
40.2304470486111043
 20
-3.4013427734374999
 30
0.0
  0
SPLINE
  5
1A4
100
AcDbEntity
  8
DR-100_FRONT_50P_
390
0
 62
     7
100
AcDbSpline
210
0.0
220
0.0
230
1.0
 70
     8
 71
     3
 72
     8
 73
     4
 74
     0
 42
0.00000001
 43
0.00000001
 40
0.0
 40
0.0
 40
0.0
 40
0.0
 40
1.0
 40
1.0
 40
1.0
 40
1.0
 10
36.2554958767361057
 20
-0.3944634331597222
 30
0.0
 10
36.2554958767361057
 20
-0.3166042751736111
 30
0.0
 10
36.1958957248263857
 20
-0.2518364800347222
 30
0.0
 10
36.1183810763888857
 20
-0.2449462890625
 30
0.0
  0
SPLINE
  5
1A3
100
AcDbEntity
  8
DR-100_FRONT_50P_
390
0
 62
     7
100
AcDbSpline
210
0.0
220
0.0
230
1.0
 70
     8
 71
     3
 72
     8
 73
     4
 74
     0
 42
0.00000001
 43
0.00000001
 40
0.0
 40
0.0
 40
0.0
 40
0.0
 40
1.0
 40
1.0
 40
1.0
 40
1.0
 10
34.1422743055555529
 20
-0.2449462890625
 30
0.0
 10
34.0647596571180529
 20
-0.2518364800347222
 30
0.0
 10
34.0055040147569443
 20
-0.3166042751736111
 30
0.0
 10
34.0055040147569443
 20
-0.3944634331597222
 30
0.0
  0
SPLINE
  5
1A2
100
AcDbEntity
  8
DR-100_FRONT_50P_
390
0
 62
     7
100
AcDbSpline
210
0.0
220
0.0
230
1.0
 70
     8
 71
     3
 72
    11
 73
     7
 74
     0
 42
0.00000001
 43
0.00000001
 40
0.0
 40
0.0
 40
0.0
 40
0.0
 40
1.0
 40
1.0
 40
1.0
 40
2.0
 40
2.0
 40
2.0
 40
2.0
 10
34.6052951388888843
 20
-0.2015380859375
 30
0.0
 10
34.6052951388888843
 20
-0.1615749782986111
 30
0.0
 10
34.5894476996527729
 20
-0.1236789279513889
 30
0.0
 10
34.5611979166666643
 20
-0.0954291449652778
 30
0.0
 10
34.53329264322916
 20
-0.0671793619791667
 30
0.0
 10
34.4950520833333272
 20
-0.0513319227430555
 30
0.0
 10
34.4550889756944443
 20
-0.0513319227430555
 30
0.0
  0
SPLINE
  5
1A1
100
AcDbEntity
  8
DR-100_FRONT_50P_
390
0
 62
     7
100
AcDbSpline
210
0.0
220
0.0
230
1.0
 70
     8
 71
     3
 72
    11
 73
     7
 74
     0
 42
0.00000001
 43
0.00000001
 40
0.0
 40
0.0
 40
0.0
 40
0.0
 40
1.0
 40
1.0
 40
1.0
 40
2.0
 40
2.0
 40
2.0
 40
2.0
 10
33.1049560546874986
 20
-0.0513319227430555
 30
0.0
 10
33.06533745659722
 20
-0.0513319227430555
 30
0.0
 10
33.0270968967013872
 20
-0.0671793619791667
 30
0.0
 10
32.9991916232638829
 20
-0.0954291449652778
 30
0.0
 10
32.9709418402777743
 20
-0.1236789279513889
 30
0.0
 10
32.9557834201388857
 20
-0.1615749782986111
 30
0.0
 10
32.9557834201388857
 20
-0.2015380859375
 30
0.0
  0
SPLINE
  5
1A0
100
AcDbEntity
  8
DR-100_FRONT_50P_
390
0
 62
     7
100
AcDbSpline
210
0.0
220
0.0
230
1.0
 70
     8
 71
     3
 72
     8
 73
     4
 74
     0
 42
0.00000001
 43
0.00000001
 40
0.0
 40
0.0
 40
0.0
 40
0.0
 40
1.0
 40
1.0
 40
1.0
 40
1.0
 10
31.5715440538194407
 20
-0.4003200954861111
 30
0.0
 10
31.5494954427083307
 20
-0.3410644531249999
 30
0.0
 10
31.4933403862847179
 20
-0.3014458550347222
 30
0.0
 10
31.4302951388888872
 20
-0.3014458550347222
 30
0.0
  0
SPLINE
  5
19F
100
AcDbEntity
  8
DR-100_FRONT_50P_
390
0
 62
     7
100
AcDbSpline
210
0.0
220
0.0
230
1.0
 70
     8
 71
     3
 72
     8
 73
     4
 74
     0
 42
0.00000001
 43
0.00000001
 40
0.0
 40
0.0
 40
0.0
 40
0.0
 40
1.0
 40
1.0
 40
1.0
 40
1.0
 10
40.48228352864583
 20
-5.0515435112847218
 30
0.0
 10
40.4877956814236057
 20
-4.9516357421874995
 30
0.0
 10
40.4877956814236057
 20
-4.8513834635416666
 30
0.0
 10
40.48228352864583
 20
-4.7514756944444443
 30
0.0
  0
SPLINE
  5
19E
100
AcDbEntity
  8
DR-100_FRONT_50P_
390
0
 62
     7
100
AcDbSpline
210
0.0
220
0.0
230
1.0
 70
     8
 71
     3
 72
     8
 73
     4
 74
     0
 42
0.00000001
 43
0.00000001
 40
0.0
 40
0.0
 40
0.0
 40
0.0
 40
1.0
 40
1.0
 40
1.0
 40
1.0
 10
40.51570095486111
 20
-4.651567925347222
 30
0.0
 10
40.5081217447916657
 20
-4.5678521050347216
 30
0.0
 10
40.4970974392361072
 20
-4.4841362847222221
 30
0.0
 10
40.48228352864583
 20
-4.4014539930555552
 30
0.0
  0
SPLINE
  5
19D
100
AcDbEntity
  8
DR-100_FRONT_50P_
390
0
 62
     7
100
AcDbSpline
210
0.0
220
0.0
230
1.0
 70
     8
 71
     3
 72
     8
 73
     4
 74
     0
 42
0.00000001
 43
0.00000001
 40
0.0
 40
0.0
 40
0.0
 40
0.0
 40
1.0
 40
1.0
 40
1.0
 40
1.0
 10
40.48228352864583
 20
-5.4015652126736109
 30
0.0
 10
40.4970974392361072
 20
-5.3185384114583325
 30
0.0
 10
40.5081217447916657
 20
-5.235511610243055
 30
0.0
 10
40.51570095486111
 20
-5.1514512803819441
 30
0.0
  0
SPLINE
  5
19C
100
AcDbEntity
  8
DR-100_FRONT_50P_
390
0
 62
     7
100
AcDbSpline
210
0.0
220
0.0
230
1.0
 70
     8
 71
     3
 72
     8
 73
     4
 74
     0
 42
0.00000001
 43
0.00000001
 40
0.0
 40
0.0
 40
0.0
 40
0.0
 40
1.0
 40
1.0
 40
1.0
 40
1.0
 10
21.60867241753472
 20
-0.3183268229166666
 30
0.0
 10
21.5597520616319436
 20
-0.3255615234374999
 30
0.0
 10
21.5177218967013886
 20
-0.3562228732638889
 30
0.0
 10
21.495673285590275
 20
-0.4006646050347222
 30
0.0
  0
SPLINE
  5
19B
100
AcDbEntity
  8
DR-100_FRONT_50P_
390
0
 62
     7
100
AcDbSpline
210
0.0
220
0.0
230
1.0
 70
     8
 71
     3
 72
    11
 73
     7
 74
     0
 42
0.00000001
 43
0.00000001
 40
0.0
 40
0.0
 40
0.0
 40
0.0
 40
1.0
 40
1.0
 40
1.0
 40
2.0
 40
2.0
 40
2.0
 40
2.0
 10
20.7305175781249993
 20
-0.3513997395833333
 30
0.0
 10
20.7305175781249993
 20
-0.3117811414930555
 30
0.0
 10
20.7146701388888879
 20
-0.2735405815972222
 30
0.0
 10
20.6864203559027757
 20
-0.2452907986111111
 30
0.0
 10
20.658515082465275
 20
-0.2173855251736111
 30
0.0
 10
20.6202745225694422
 20
-0.2015380859375
 30
0.0
 10
20.5806559244791636
 20
-0.2015380859375
 30
0.0
  0
SPLINE
  5
19A
100
AcDbEntity
  8
DR-100_FRONT_50P_
390
0
 62
     7
100
AcDbSpline
210
0.0
220
0.0
230
1.0
 70
     8
 71
     3
 72
     8
 73
     4
 74
     0
 42
0.00000001
 43
0.00000001
 40
0.0
 40
0.0
 40
0.0
 40
0.0
 40
1.0
 40
1.0
 40
1.0
 40
1.0
 10
24.7306179470486072
 20
-0.3014458550347222
 30
0.0
 10
24.667228190104165
 20
-0.3014458550347222
 30
0.0
 10
24.6110731336805522
 20
-0.3410644531249999
 30
0.0
 10
24.5893690321180536
 20
-0.4003200954861111
 30
0.0
  0
SPLINE
  5
199
100
AcDbEntity
  8
DR-100_FRONT_50P_
390
0
 62
     7
100
AcDbSpline
210
0.0
220
0.0
230
1.0
 70
     8
 71
     3
 72
     8
 73
     4
 74
     0
 42
0.00000001
 43
0.00000001
 40
0.0
 40
0.0
 40
0.0
 40
0.0
 40
1.0
 40
1.0
 40
1.0
 40
1.0
 10
21.9566270616319414
 20
-3.0265163845486107
 30
0.0
 10
22.4451416015624972
 20
-3.2731852213541663
 30
0.0
 10
22.9853325737847207
 20
-3.4013427734374999
 30
0.0
 10
23.5324137369791657
 20
-3.4013427734374999
 30
0.0
  0
SPLINE
  5
198
100
AcDbEntity
  8
DR-100_FRONT_50P_
390
0
 62
     7
100
AcDbSpline
210
0.0
220
0.0
230
1.0
 70
     8
 71
     3
 72
     8
 73
     4
 74
     0
 42
0.00000001
 43
0.00000001
 40
0.0
 40
0.0
 40
0.0
 40
0.0
 40
1.0
 40
1.0
 40
1.0
 40
1.0
 10
21.8891031901041657
 20
-3.1601860894097218
 30
0.0
 10
22.3989773220486086
 20
-3.4175347222222219
 30
0.0
 10
22.961905924479165
 20
-3.5515489366319439
 30
0.0
 10
23.5324137369791657
 20
-3.5515489366319439
 30
0.0
  0
SPLINE
  5
197
100
AcDbEntity
  8
DR-100_FRONT_50P_
390
0
 62
     7
100
AcDbSpline
210
0.0
220
0.0
230
1.0
 70
     8
 71
     3
 72
    17
 73
    13
 74
     0
 42
0.00000001
 43
0.00000001
 40
0.0
 40
0.0
 40
0.0
 40
0.0
 40
1.0
 40
1.0
 40
1.0
 40
2.0
 40
2.0
 40
2.0
 40
3.0
 40
3.0
 40
3.0
 40
4.0
 40
4.0
 40
4.0
 40
4.0
 10
30.7805501302083293
 20
-8.1266357421874993
 30
0.0
 10
30.7805501302083293
 20
-7.7676567925347211
 30
0.0
 10
30.48943956163194
 20
-7.4765462239583327
 30
0.0
 10
30.130805121527775
 20
-7.4765462239583327
 30
0.0
 10
29.7718261718749986
 20
-7.4765462239583327
 30
0.0
 10
29.4803710937499979
 20
-7.7676567925347211
 30
0.0
 10
29.4803710937499979
 20
-8.1266357421874993
 30
0.0
 10
29.4803710937499979
 20
-8.4856146918402775
 30
0.0
 10
29.7718261718749986
 20
-8.7763807508680554
 30
0.0
 10
30.130805121527775
 20
-8.7763807508680554
 30
0.0
 10
30.48943956163194
 20
-8.7763807508680554
 30
0.0
 10
30.7805501302083293
 20
-8.4856146918402775
 30
0.0
 10
30.7805501302083293
 20
-8.1266357421874993
 30
0.0
  0
SPLINE
  5
196
100
AcDbEntity
  8
DR-100_FRONT_50P_
390
0
 62
     7
100
AcDbSpline
210
0.0
220
0.0
230
1.0
 70
     8
 71
     3
 72
    17
 73
    13
 74
     0
 42
0.00000001
 43
0.00000001
 40
0.0
 40
0.0
 40
0.0
 40
0.0
 40
1.0
 40
1.0
 40
1.0
 40
2.0
 40
2.0
 40
2.0
 40
3.0
 40
3.0
 40
3.0
 40
4.0
 40
4.0
 40
4.0
 40
4.0
 10
21.2803548177083321
 20
-6.1515624999999998
 30
0.0
 10
21.2803548177083321
 20
-5.6544352213541664
 30
0.0
 10
20.8776231553819436
 20
-5.251703559027777
 30
0.0
 10
20.3804958767361093
 20
-5.251703559027777
 30
0.0
 10
19.8831963433159693
 20
-5.251703559027777
 30
0.0
 10
19.4804646809895807
 20
-5.6544352213541664
 30
0.0
 10
19.4804646809895807
 20
-6.1515624999999998
 30
0.0
 10
19.4804646809895807
 20
-6.6486897786458323
 30
0.0
 10
19.8831963433159693
 20
-7.0514214409722218
 30
0.0
 10
20.3804958767361093
 20
-7.0514214409722218
 30
0.0
 10
20.8776231553819436
 20
-7.0514214409722218
 30
0.0
 10
21.2803548177083321
 20
-6.6486897786458323
 30
0.0
 10
21.2803548177083321
 20
-6.1515624999999998
 30
0.0
  0
SPLINE
  5
195
100
AcDbEntity
  8
DR-100_FRONT_50P_
390
0
 62
     7
100
AcDbSpline
210
0.0
220
0.0
230
1.0
 70
     8
 71
     3
 72
    17
 73
    13
 74
     0
 42
0.00000001
 43
0.00000001
 40
0.0
 40
0.0
 40
0.0
 40
0.0
 40
1.0
 40
1.0
 40
1.0
 40
2.0
 40
2.0
 40
2.0
 40
3.0
 40
3.0
 40
3.0
 40
4.0
 40
4.0
 40
4.0
 40
4.0
 10
21.4305609809027757
 20
-6.1515624999999998
 30
0.0
 10
21.4305609809027757
 20
-5.571408420138888
 30
0.0
 10
20.9603054470486079
 20
-5.1014973958333325
 30
0.0
 10
20.3804958767361093
 20
-5.1014973958333325
 30
0.0
 10
19.800514051649305
 20
-5.1014973958333325
 30
0.0
 10
19.3306030273437486
 20
-5.571408420138888
 30
0.0
 10
19.3306030273437486
 20
-6.1515624999999998
 30
0.0
 10
19.3306030273437486
 20
-6.7313720703124993
 30
0.0
 10
19.800514051649305
 20
-7.2012830946180548
 30
0.0
 10
20.3804958767361093
 20
-7.2012830946180548
 30
0.0
 10
20.9603054470486079
 20
-7.2012830946180548
 30
0.0
 10
21.4305609809027757
 20
-6.7313720703124993
 30
0.0
 10
21.4305609809027757
 20
-6.1515624999999998
 30
0.0
  0
SPLINE
  5
194
100
AcDbEntity
  8
DR-100_FRONT_50P_
390
0
 62
     7
100
AcDbSpline
210
0.0
220
0.0
230
1.0
 70
     8
 71
     3
 72
    17
 73
    13
 74
     0
 42
0.00000001
 43
0.00000001
 40
0.0
 40
0.0
 40
0.0
 40
0.0
 40
1.0
 40
1.0
 40
1.0
 40
2.0
 40
2.0
 40
2.0
 40
3.0
 40
3.0
 40
3.0
 40
4.0
 40
4.0
 40
4.0
 40
4.0
 10
21.6555257161458314
 20
-6.1515624999999998
 30
0.0
 10
21.6555257161458314
 20
-5.447384982638888
 30
0.0
 10
21.0846733940972193
 20
-4.8765326605902777
 30
0.0
 10
20.3804958767361093
 20
-4.8765326605902777
 30
0.0
 10
19.676490614149305
 20
-4.8765326605902777
 30
0.0
 10
19.1056382921006929
 20
-5.447384982638888
 30
0.0
 10
19.1056382921006929
 20
-6.1515624999999998
 30
0.0
 10
19.1056382921006929
 20
-6.8557400173611107
 30
0.0
 10
19.676490614149305
 20
-7.426592339409722
 30
0.0
 10
20.3804958767361093
 20
-7.426592339409722
 30
0.0
 10
21.0846733940972193
 20
-7.426592339409722
 30
0.0
 10
21.6555257161458314
 20
-6.8557400173611107
 30
0.0
 10
21.6555257161458314
 20
-6.1515624999999998
 30
0.0
  0
SPLINE
  5
193
100
AcDbEntity
  8
DR-100_FRONT_50P_
390
0
 62
     7
100
AcDbSpline
210
0.0
220
0.0
230
1.0
 70
     8
 71
     3
 72
    17
 73
    13
 74
     0
 42
0.00000001
 43
0.00000001
 40
0.0
 40
0.0
 40
0.0
 40
0.0
 40
1.0
 40
1.0
 40
1.0
 40
2.0
 40
2.0
 40
2.0
 40
3.0
 40
3.0
 40
3.0
 40
4.0
 40
4.0
 40
4.0
 40
4.0
 10
21.7554334852430529
 20
-6.1515624999999998
 30
0.0
 10
21.7554334852430529
 20
-5.3922634548611104
 30
0.0
 10
21.1397949218749979
 20
-4.7766248914930554
 30
0.0
 10
20.3804958767361093
 20
-4.7766248914930554
 30
0.0
 10
19.621024576822915
 20
-4.7766248914930554
 30
0.0
 10
19.00538601345486
 20
-5.3922634548611104
 30
0.0
 10
19.00538601345486
 20
-6.1515624999999998
 30
0.0
 10
19.00538601345486
 20
-6.9108615451388884
 30
0.0
 10
19.621024576822915
 20
-7.5265001085069434
 30
0.0
 10
20.3804958767361093
 20
-7.5265001085069434
 30
0.0
 10
21.1397949218749979
 20
-7.5265001085069434
 30
0.0
 10
21.7554334852430529
 20
-6.9108615451388884
 30
0.0
 10
21.7554334852430529
 20
-6.1515624999999998
 30
0.0
  0
SPLINE
  5
192
100
AcDbEntity
  8
DR-100_FRONT_50P_
390
0
 62
     7
100
AcDbSpline
210
0.0
220
0.0
230
1.0
 70
     8
 71
     3
 72
    17
 73
    13
 74
     0
 42
0.00000001
 43
0.00000001
 40
0.0
 40
0.0
 40
0.0
 40
0.0
 40
1.0
 40
1.0
 40
1.0
 40
2.0
 40
2.0
 40
2.0
 40
3.0
 40
3.0
 40
3.0
 40
4.0
 40
4.0
 40
4.0
 40
4.0
 10
18.9304551866319422
 20
-6.1515624999999998
 30
0.0
 10
18.9304551866319422
 20
-6.9515136718749995
 30
0.0
 10
19.5786499023437486
 20
-7.6005696614583327
 30
0.0
 10
20.3791178385416636
 20
-7.6012586805555546
 30
0.0
 10
21.179069010416665
 20
-7.6026367187499995
 30
0.0
 10
21.8288140190972193
 20
-6.9549587673611102
 30
0.0
 10
21.830192057291665
 20
-6.1550075954861105
 30
0.0
 10
21.8319146050347186
 20
-5.3547119140624995
 30
0.0
 10
21.1852701822916636
 20
-4.7042778862847214
 30
0.0
 10
20.3853190104166657
 20
-4.7015218098958327
 30
0.0
 10
19.5851955837673586
 20
-4.6987657335069439
 30
0.0
 10
18.9340725368923586
 20
-5.344721137152777
 30
0.0
 10
18.9304551866319422
 20
-6.1446723090277775
 30
0.0
  0
SPLINE
  5
191
100
AcDbEntity
  8
DR-100_FRONT_50P_
390
0
 62
     7
100
AcDbSpline
210
0.0
220
0.0
230
1.0
 70
     8
 71
     3
 72
     8
 73
     4
 74
     0
 42
0.00000001
 43
0.00000001
 40
0.0
 40
0.0
 40
0.0
 40
0.0
 40
1.0
 40
1.0
 40
1.0
 40
1.0
 10
21.8891031901041657
 20
-3.1601860894097218
 30
0.0
 10
20.939979383680555
 20
-2.6816623263888886
 30
0.0
 10
19.8204956054687464
 20
-2.6816623263888886
 30
0.0
 10
18.8717163085937472
 20
-3.1605305989583332
 30
0.0
  0
SPLINE
  5
190
100
AcDbEntity
  8
DR-100_FRONT_50P_
390
0
 62
     7
100
AcDbSpline
210
0.0
220
0.0
230
1.0
 70
     8
 71
     3
 72
     8
 73
     4
 74
     0
 42
0.00000001
 43
0.00000001
 40
0.0
 40
0.0
 40
0.0
 40
0.0
 40
1.0
 40
1.0
 40
1.0
 40
1.0
 10
21.9566270616319414
 20
-3.0265163845486107
 30
0.0
 10
20.9654730902777757
 20
-2.5266330295138886
 30
0.0
 10
19.7953464084201372
 20
-2.5266330295138886
 30
0.0
 10
18.8041924370659714
 20
-3.0265163845486107
 30
0.0
  0
SPLINE
  5
18F
100
AcDbEntity
  8
DR-100_FRONT_50P_
390
0
 62
     7
100
AcDbSpline
210
0.0
220
0.0
230
1.0
 70
     8
 71
     3
 72
     8
 73
     4
 74
     0
 42
0.00000001
 43
0.00000001
 40
0.0
 40
0.0
 40
0.0
 40
0.0
 40
1.0
 40
1.0
 40
1.0
 40
1.0
 10
40.48228352864583
 20
-11.5514051649305554
 30
0.0
 10
40.4877956814236057
 20
-11.4511528862847207
 30
0.0
 10
40.4877956814236057
 20
-11.3512451171874993
 30
0.0
 10
40.48228352864583
 20
-11.2513373480902761
 30
0.0
  0
SPLINE
  5
18E
100
AcDbEntity
  8
DR-100_FRONT_50P_
390
0
 62
     7
100
AcDbSpline
210
0.0
220
0.0
230
1.0
 70
     8
 71
     3
 72
     8
 73
     4
 74
     0
 42
0.00000001
 43
0.00000001
 40
0.0
 40
0.0
 40
0.0
 40
0.0
 40
1.0
 40
1.0
 40
1.0
 40
1.0
 10
40.51570095486111
 20
-11.1514295789930546
 30
0.0
 10
40.5081217447916657
 20
-11.0677137586805543
 30
0.0
 10
40.4970974392361072
 20
-10.9839979383680539
 30
0.0
 10
40.48228352864583
 20
-10.9016601562499993
 30
0.0
  0
SPLINE
  5
18D
100
AcDbEntity
  8
DR-100_FRONT_50P_
390
0
 62
     7
100
AcDbSpline
210
0.0
220
0.0
230
1.0
 70
     8
 71
     3
 72
     8
 73
     4
 74
     0
 42
0.00000001
 43
0.00000001
 40
0.0
 40
0.0
 40
0.0
 40
0.0
 40
1.0
 40
1.0
 40
1.0
 40
1.0
 10
40.48228352864583
 20
-11.9010823567708321
 30
0.0
 10
40.4970974392361072
 20
-11.8187445746527775
 30
0.0
 10
40.5081217447916657
 20
-11.7350287543402771
 30
0.0
 10
40.51570095486111
 20
-11.6516574435763882
 30
0.0
  0
SPLINE
  5
18C
100
AcDbEntity
  8
DR-100_FRONT_50P_
390
0
 62
     7
100
AcDbSpline
210
0.0
220
0.0
230
1.0
 70
     8
 71
     3
 72
    11
 73
     7
 74
     0
 42
0.00000001
 43
0.00000001
 40
0.0
 40
0.0
 40
0.0
 40
0.0
 40
1.0
 40
1.0
 40
1.0
 40
2.0
 40
2.0
 40
2.0
 40
2.0
 10
40.2304470486111043
 20
-12.9018825954861107
 30
0.0
 10
40.2704101562499943
 20
-12.9018825954861107
 30
0.0
 10
40.3086507161458272
 20
-12.885001627604165
 30
0.0
 10
40.3369004991319429
 20
-12.8567518446180546
 30
0.0
 10
40.36480577256944
 20
-12.8285020616319425
 30
0.0
 10
40.3806532118055515
 20
-12.7902615017361097
 30
0.0
 10
40.3806532118055515
 20
-12.7502983940972214
 30
0.0
  0
SPLINE
  5
18B
100
AcDbEntity
  8
DR-100_FRONT_50P_
390
0
 62
     7
100
AcDbSpline
210
0.0
220
0.0
230
1.0
 70
     8
 71
     3
 72
     8
 73
     4
 74
     0
 42
0.00000001
 43
0.00000001
 40
0.0
 40
0.0
 40
0.0
 40
0.0
 40
1.0
 40
1.0
 40
1.0
 40
1.0
 10
39.6675184461805515
 20
-13.5933132595486104
 30
0.0
 10
39.74227701822916
 20
-13.4493082682291654
 30
0.0
 10
39.7808620876736043
 20
-13.2901448567708318
 30
0.0
 10
39.7805175781249929
 20
-13.1289143880208314
 30
0.0
  0
SPLINE
  5
18A
100
AcDbEntity
  8
DR-100_FRONT_50P_
390
0
 62
     7
100
AcDbSpline
210
0.0
220
0.0
230
1.0
 70
     8
 71
     3
 72
    17
 73
    13
 74
     0
 42
0.00000001
 43
0.00000001
 40
0.0
 40
0.0
 40
0.0
 40
0.0
 40
1.0
 40
1.0
 40
1.0
 40
2.0
 40
2.0
 40
2.0
 40
3.0
 40
3.0
 40
3.0
 40
4.0
 40
4.0
 40
4.0
 40
4.0
 10
32.8055772569444386
 20
-10.1509738498263875
 30
0.0
 10
32.8055772569444386
 20
-9.7930284288194436
 30
0.0
 10
32.5141221788194414
 20
-9.5012288411458332
 30
0.0
 10
32.1551432291666615
 20
-9.5012288411458332
 30
0.0
 10
31.796164279513885
 20
-9.5012288411458332
 30
0.0
 10
31.5053982204861072
 20
-9.7930284288194436
 30
0.0
 10
31.5053982204861072
 20
-10.1509738498263875
 30
0.0
 10
31.5053982204861072
 20
-10.5102973090277771
 30
0.0
 10
31.796164279513885
 20
-10.8017523871527761
 30
0.0
 10
32.1551432291666615
 20
-10.8017523871527761
 30
0.0
 10
32.5141221788194414
 20
-10.8017523871527761
 30
0.0
 10
32.8055772569444386
 20
-10.5102973090277771
 30
0.0
 10
32.8055772569444386
 20
-10.1509738498263875
 30
0.0
  0
SPLINE
  5
189
100
AcDbEntity
  8
DR-100_FRONT_50P_
390
0
 62
     7
100
AcDbSpline
210
0.0
220
0.0
230
1.0
 70
     8
 71
     3
 72
     8
 73
     4
 74
     0
 42
0.00000001
 43
0.00000001
 40
0.0
 40
0.0
 40
0.0
 40
0.0
 40
1.0
 40
1.0
 40
1.0
 40
1.0
 10
32.5699327256944429
 20
-17.901405164930555
 30
0.0
 10
35.55476345486111
 20
-17.901405164930555
 30
0.0
 10
38.2905137803819429
 20
-16.2405246310763864
 30
0.0
 10
39.6675184461805515
 20
-13.5933132595486104
 30
0.0
  0
SPLINE
  5
188
100
AcDbEntity
  8
DR-100_FRONT_50P_
390
0
 62
     7
100
AcDbSpline
210
0.0
220
0.0
230
1.0
 70
     8
 71
     3
 72
     8
 73
     4
 74
     0
 42
0.00000001
 43
0.00000001
 40
0.0
 40
0.0
 40
0.0
 40
0.0
 40
1.0
 40
1.0
 40
1.0
 40
1.0
 10
37.4447428385416643
 20
-16.24465874565972
 30
0.0
 10
37.5436170789930515
 20
-16.1692111545138886
 30
0.0
 10
37.6404242621527771
 20
-16.0913519965277771
 30
0.0
 10
37.73585340711805
 20
-16.0107367621527779
 30
0.0
  0
SPLINE
  5
187
100
AcDbEntity
  8
DR-100_FRONT_50P_
390
0
 62
     7
100
AcDbSpline
210
0.0
220
0.0
230
1.0
 70
     8
 71
     3
 72
     8
 73
     4
 74
     0
 42
0.00000001
 43
0.00000001
 40
0.0
 40
0.0
 40
0.0
 40
0.0
 40
1.0
 40
1.0
 40
1.0
 40
1.0
 10
35.0052707248263886
 20
-17.5217556423611107
 30
0.0
 10
35.3449571397569429
 20
-17.4132351345486107
 30
0.0
 10
35.6770643446180529
 20
-17.2819769965277779
 30
0.0
 10
35.9998697916666615
 20
-17.1286702473958314
 30
0.0
  0
SPLINE
  5
186
100
AcDbEntity
  8
DR-100_FRONT_50P_
390
0
 62
     7
100
AcDbSpline
210
0.0
220
0.0
230
1.0
 70
     8
 71
     3
 72
     8
 73
     4
 74
     0
 42
0.00000001
 43
0.00000001
 40
0.0
 40
0.0
 40
0.0
 40
0.0
 40
1.0
 40
1.0
 40
1.0
 40
1.0
 10
32.5699327256944429
 20
-17.9513590494791657
 30
0.0
 10
33.0350206163194429
 20
-17.9513590494791657
 30
0.0
 10
33.4980414496527743
 20
-17.9113959418402757
 30
0.0
 10
33.95555013020833
 20
-17.8318142361111107
 30
0.0
  0
SPLINE
  5
185
100
AcDbEntity
  8
DR-100_FRONT_50P_
390
0
 62
     7
100
AcDbSpline
210
0.0
220
0.0
230
1.0
 70
     8
 71
     3
 72
     8
 73
     4
 74
     0
 42
0.00000001
 43
0.00000001
 40
0.0
 40
0.0
 40
0.0
 40
0.0
 40
1.0
 40
1.0
 40
1.0
 40
1.0
 10
32.5699327256944429
 20
-18.0512668185763872
 30
0.0
 10
33.3357774522569414
 20
-18.0512668185763872
 30
0.0
 10
34.0978325737847214
 20
-17.9437798394097214
 30
0.0
 10
34.8330159505208314
 20
-17.730872938368055
 30
0.0
  0
SPLINE
  5
184
100
AcDbEntity
  8
DR-100_FRONT_50P_
390
0
 62
     7
100
AcDbSpline
210
0.0
220
0.0
230
1.0
 70
     8
 71
     3
 72
     8
 73
     4
 74
     0
 42
0.00000001
 43
0.00000001
 40
0.0
 40
0.0
 40
0.0
 40
0.0
 40
1.0
 40
1.0
 40
1.0
 40
1.0
 10
34.8330159505208314
 20
-17.730872938368055
 30
0.0
 10
34.8757351345486057
 20
-17.7188151041666657
 30
0.0
 10
34.90536295572916
 20
-17.6791965060763872
 30
0.0
 10
34.90536295572916
 20
-17.6347547743055557
 30
0.0
  0
SPLINE
  5
183
100
AcDbEntity
  8
DR-100_FRONT_50P_
390
0
 62
     7
100
AcDbSpline
210
0.0
220
0.0
230
1.0
 70
     8
 71
     3
 72
    11
 73
     7
 74
     0
 42
0.00000001
 43
0.00000001
 40
0.0
 40
0.0
 40
0.0
 40
0.0
 40
1.0
 40
1.0
 40
1.0
 40
2.0
 40
2.0
 40
2.0
 40
2.0
 10
40.2304470486111043
 20
-16.2518934461805529
 30
0.0
 10
40.2704101562499943
 20
-16.2518934461805529
 30
0.0
 10
40.3086507161458272
 20
-16.2353569878472221
 30
0.0
 10
40.3369004991319429
 20
-16.2067626953124986
 30
0.0
 10
40.36480577256944
 20
-16.1785129123263864
 30
0.0
 10
40.3806532118055515
 20
-16.1402723524305536
 30
0.0
 10
40.3806532118055515
 20
-16.1003092447916636
 30
0.0
  0
SPLINE
  5
182
100
AcDbEntity
  8
DR-100_FRONT_50P_
390
0
 62
     7
100
AcDbSpline
210
0.0
220
0.0
230
1.0
 70
     8
 71
     3
 72
     8
 73
     4
 74
     0
 42
0.00000001
 43
0.00000001
 40
0.0
 40
0.0
 40
0.0
 40
0.0
 40
1.0
 40
1.0
 40
1.0
 40
1.0
 10
38.0390218098958286
 20
-12.9018825954861107
 30
0.0
 10
36.8718234592013872
 20
-12.9018825954861107
 30
0.0
 10
35.7631917317708314
 20
-13.4107231987847211
 30
0.0
 10
35.0035481770833314
 20
-14.2971462673611089
 30
0.0
  0
SPLINE
  5
181
100
AcDbEntity
  8
DR-100_FRONT_50P_
390
0
 62
     7
100
AcDbSpline
210
0.0
220
0.0
230
1.0
 70
     8
 71
     3
 72
     8
 73
     4
 74
     0
 42
0.00000001
 43
0.00000001
 40
0.0
 40
0.0
 40
0.0
 40
0.0
 40
1.0
 40
1.0
 40
1.0
 40
1.0
 10
38.0390218098958286
 20
-12.7516764322916654
 30
0.0
 10
36.8280707465277715
 20
-12.7516764322916654
 30
0.0
 10
35.6780978732638872
 20
-13.2798095703124996
 30
0.0
 10
34.8891710069444443
 20
-14.1989610460069429
 30
0.0
  0
SPLINE
  5
180
100
AcDbEntity
  8
DR-100_FRONT_50P_
390
0
 62
     7
100
AcDbSpline
210
0.0
220
0.0
230
1.0
 70
     8
 71
     3
 72
    17
 73
    13
 74
     0
 42
0.00000001
 43
0.00000001
 40
0.0
 40
0.0
 40
0.0
 40
0.0
 40
1.0
 40
1.0
 40
1.0
 40
2.0
 40
2.0
 40
2.0
 40
3.0
 40
3.0
 40
3.0
 40
4.0
 40
4.0
 40
4.0
 40
4.0
 10
28.7551784939236086
 20
-10.1509738498263875
 30
0.0
 10
28.7551784939236086
 20
-9.7930284288194436
 30
0.0
 10
28.4644124348958307
 20
-9.5012288411458332
 30
0.0
 10
28.1050889756944429
 20
-9.5012288411458332
 30
0.0
 10
27.7467990451388857
 20
-9.5012288411458332
 30
0.0
 10
27.455343967013885
 20
-9.7930284288194436
 30
0.0
 10
27.455343967013885
 20
-10.1509738498263875
 30
0.0
 10
27.455343967013885
 20
-10.5102973090277771
 30
0.0
 10
27.7467990451388857
 20
-10.8017523871527761
 30
0.0
 10
28.1050889756944429
 20
-10.8017523871527761
 30
0.0
 10
28.4644124348958307
 20
-10.8017523871527761
 30
0.0
 10
28.7551784939236086
 20
-10.5102973090277771
 30
0.0
 10
28.7551784939236086
 20
-10.1509738498263875
 30
0.0
  0
SPLINE
  5
17F
100
AcDbEntity
  8
DR-100_FRONT_50P_
390
0
 62
     7
100
AcDbSpline
210
0.0
220
0.0
230
1.0
 70
     8
 71
     3
 72
    17
 73
    13
 74
     0
 42
0.00000001
 43
0.00000001
 40
0.0
 40
0.0
 40
0.0
 40
0.0
 40
1.0
 40
1.0
 40
1.0
 40
2.0
 40
2.0
 40
2.0
 40
3.0
 40
3.0
 40
3.0
 40
4.0
 40
4.0
 40
4.0
 40
4.0
 10
34.0802625868055529
 20
-10.1509738498263875
 30
0.0
 10
34.0802625868055529
 20
-7.9698838975694439
 30
0.0
 10
32.3118950737847186
 20
-6.2015163845486105
 30
0.0
 10
30.130805121527775
 20
-6.2015163845486105
 30
0.0
 10
27.9486816406249972
 20
-6.2015163845486105
 30
0.0
 10
26.1803141276041629
 20
-7.9698838975694439
 30
0.0
 10
26.1803141276041629
 20
-10.1509738498263875
 30
0.0
 10
26.1803141276041629
 20
-12.3330973307291654
 30
0.0
 10
27.9486816406249972
 20
-14.1014648437499979
 30
0.0
 10
30.130805121527775
 20
-14.1014648437499979
 30
0.0
 10
32.3118950737847186
 20
-14.1014648437499979
 30
0.0
 10
34.0802625868055529
 20
-12.3330973307291654
 30
0.0
 10
34.0802625868055529
 20
-10.1509738498263875
 30
0.0
  0
SPLINE
  5
17E
100
AcDbEntity
  8
DR-100_FRONT_50P_
390
0
 62
     7
100
AcDbSpline
210
0.0
220
0.0
230
1.0
 70
     8
 71
     3
 72
    17
 73
    13
 74
     0
 42
0.00000001
 43
0.00000001
 40
0.0
 40
0.0
 40
0.0
 40
0.0
 40
1.0
 40
1.0
 40
1.0
 40
2.0
 40
2.0
 40
2.0
 40
3.0
 40
3.0
 40
3.0
 40
4.0
 40
4.0
 40
4.0
 40
4.0
 10
34.1805148654513857
 20
-10.1509738498263875
 30
0.0
 10
34.1805148654513857
 20
-7.9147623697916663
 30
0.0
 10
32.3670166015624972
 20
-6.1012641059027768
 30
0.0
 10
30.130805121527775
 20
-6.1012641059027768
 30
0.0
 10
27.8935601128472186
 20
-6.1012641059027768
 30
0.0
 10
26.08006184895833
 20
-7.9147623697916663
 30
0.0
 10
26.08006184895833
 20
-10.1509738498263875
 30
0.0
 10
26.08006184895833
 20
-12.3882188585069439
 30
0.0
 10
27.8935601128472186
 20
-14.2013726128472211
 30
0.0
 10
30.130805121527775
 20
-14.2013726128472211
 30
0.0
 10
32.3670166015624972
 20
-14.2013726128472211
 30
0.0
 10
34.1805148654513857
 20
-12.3882188585069439
 30
0.0
 10
34.1805148654513857
 20
-10.1509738498263875
 30
0.0
  0
SPLINE
  5
17D
100
AcDbEntity
  8
DR-100_FRONT_50P_
390
0
 62
     7
100
AcDbSpline
210
0.0
220
0.0
230
1.0
 70
     8
 71
     3
 72
    17
 73
    13
 74
     0
 42
0.00000001
 43
0.00000001
 40
0.0
 40
0.0
 40
0.0
 40
0.0
 40
1.0
 40
1.0
 40
1.0
 40
2.0
 40
2.0
 40
2.0
 40
3.0
 40
3.0
 40
3.0
 40
4.0
 40
4.0
 40
4.0
 40
4.0
 10
35.0803738064236086
 20
-10.1509738498263875
 30
0.0
 10
35.0803738064236086
 20
-7.4176350911458329
 30
0.0
 10
32.86379937065972
 20
-5.2014051649305548
 30
0.0
 10
30.130805121527775
 20
-5.2014051649305548
 30
0.0
 10
27.3967773437499957
 20
-5.2014051649305548
 30
0.0
 10
25.1802029079861072
 20
-7.4176350911458329
 30
0.0
 10
25.1802029079861072
 20
-10.1509738498263875
 30
0.0
 10
25.1802029079861072
 20
-12.885001627604165
 30
0.0
 10
27.3967773437499957
 20
-15.1015760633680536
 30
0.0
 10
30.130805121527775
 20
-15.1015760633680536
 30
0.0
 10
32.86379937065972
 20
-15.1015760633680536
 30
0.0
 10
35.0803738064236086
 20
-12.885001627604165
 30
0.0
 10
35.0803738064236086
 20
-10.1509738498263875
 30
0.0
  0
SPLINE
  5
17C
100
AcDbEntity
  8
DR-100_FRONT_50P_
390
0
 62
     7
100
AcDbSpline
210
0.0
220
0.0
230
1.0
 70
     8
 71
     3
 72
    17
 73
    13
 74
     0
 42
0.00000001
 43
0.00000001
 40
0.0
 40
0.0
 40
0.0
 40
0.0
 40
1.0
 40
1.0
 40
1.0
 40
2.0
 40
2.0
 40
2.0
 40
3.0
 40
3.0
 40
3.0
 40
4.0
 40
4.0
 40
4.0
 40
4.0
 10
35.18028157552083
 20
-10.1509738498263875
 30
0.0
 10
35.18028157552083
 20
-7.3625135633680552
 30
0.0
 10
32.91926540798611
 20
-5.1014973958333325
 30
0.0
 10
30.130805121527775
 20
-5.1014973958333325
 30
0.0
 10
27.3413113064236093
 20
-5.1014973958333325
 30
0.0
 10
25.0802951388888857
 20
-7.3625135633680552
 30
0.0
 10
25.0802951388888857
 20
-10.1509738498263875
 30
0.0
 10
25.0802951388888857
 20
-12.940467664930555
 30
0.0
 10
27.3413113064236093
 20
-15.2014838324652768
 30
0.0
 10
30.130805121527775
 20
-15.2014838324652768
 30
0.0
 10
32.91926540798611
 20
-15.2014838324652768
 30
0.0
 10
35.18028157552083
 20
-12.940467664930555
 30
0.0
 10
35.18028157552083
 20
-10.1509738498263875
 30
0.0
  0
SPLINE
  5
17B
100
AcDbEntity
  8
DR-100_FRONT_50P_
390
0
 62
     7
100
AcDbSpline
210
0.0
220
0.0
230
1.0
 70
     8
 71
     3
 72
    17
 73
    13
 74
     0
 42
0.00000001
 43
0.00000001
 40
0.0
 40
0.0
 40
0.0
 40
0.0
 40
1.0
 40
1.0
 40
1.0
 40
2.0
 40
2.0
 40
2.0
 40
3.0
 40
3.0
 40
3.0
 40
4.0
 40
4.0
 40
4.0
 40
4.0
 10
35.53030327690972
 20
-10.1509738498263875
 30
0.0
 10
35.53030327690972
 20
-7.1692437065972214
 30
0.0
 10
33.1128797743055543
 20
-4.7514756944444443
 30
0.0
 10
30.130805121527775
 20
-4.7514756944444443
 30
0.0
 10
27.1480414496527764
 20
-4.7514756944444443
 30
0.0
 10
24.7306179470486072
 20
-7.1692437065972214
 30
0.0
 10
24.7306179470486072
 20
-10.1509738498263875
 30
0.0
 10
24.7306179470486072
 20
-13.1340820312499993
 30
0.0
 10
27.1480414496527764
 20
-15.5518500434027764
 30
0.0
 10
30.130805121527775
 20
-15.5518500434027764
 30
0.0
 10
33.1128797743055543
 20
-15.5518500434027764
 30
0.0
 10
35.53030327690972
 20
-13.1340820312499993
 30
0.0
 10
35.53030327690972
 20
-10.1509738498263875
 30
0.0
  0
SPLINE
  5
17A
100
AcDbEntity
  8
DR-100_FRONT_50P_
390
0
 62
     7
100
AcDbSpline
210
0.0
220
0.0
230
1.0
 70
     8
 71
     3
 72
    17
 73
    13
 74
     0
 42
0.00000001
 43
0.00000001
 40
0.0
 40
0.0
 40
0.0
 40
0.0
 40
1.0
 40
1.0
 40
1.0
 40
2.0
 40
2.0
 40
2.0
 40
3.0
 40
3.0
 40
3.0
 40
4.0
 40
4.0
 40
4.0
 40
4.0
 10
35.6302110460069414
 20
-10.1509738498263875
 30
0.0
 10
35.6302110460069414
 20
-7.1137776692708323
 30
0.0
 10
33.1676567925347214
 20
-4.651567925347222
 30
0.0
 10
30.130805121527775
 20
-4.651567925347222
 30
0.0
 10
27.0925754123263864
 20
-4.651567925347222
 30
0.0
 10
24.6303656684027743
 20
-7.1137776692708323
 30
0.0
 10
24.6303656684027743
 20
-10.1509738498263875
 30
0.0
 10
24.6303656684027743
 20
-13.1888590494791647
 30
0.0
 10
27.0925754123263864
 20
-15.6514133029513882
 30
0.0
 10
30.130805121527775
 20
-15.6514133029513882
 30
0.0
 10
33.1676567925347214
 20
-15.6514133029513882
 30
0.0
 10
35.6302110460069414
 20
-13.1888590494791647
 30
0.0
 10
35.6302110460069414
 20
-10.1509738498263875
 30
0.0
  0
SPLINE
  5
179
100
AcDbEntity
  8
DR-100_FRONT_50P_
390
0
 62
     7
100
AcDbSpline
210
0.0
220
0.0
230
1.0
 70
     8
 71
     3
 72
     8
 73
     4
 74
     0
 42
0.00000001
 43
0.00000001
 40
0.0
 40
0.0
 40
0.0
 40
0.0
 40
1.0
 40
1.0
 40
1.0
 40
1.0
 10
29.88069118923611
 20
-16.5009738498263872
 30
0.0
 10
31.8054660373263864
 20
-16.5009738498263872
 30
0.0
 10
33.6351562499999943
 20
-15.6607150607638879
 30
0.0
 10
34.8891710069444443
 20
-14.1989610460069429
 30
0.0
  0
SPLINE
  5
178
100
AcDbEntity
  8
DR-100_FRONT_50P_
390
0
 62
     7
100
AcDbSpline
210
0.0
220
0.0
230
1.0
 70
     8
 71
     3
 72
     8
 73
     4
 74
     0
 42
0.00000001
 43
0.00000001
 40
0.0
 40
0.0
 40
0.0
 40
0.0
 40
1.0
 40
1.0
 40
1.0
 40
1.0
 10
29.88069118923611
 20
-16.6515245225694422
 30
0.0
 10
31.8495632595486065
 20
-16.6515245225694422
 30
0.0
 10
33.72059461805555
 20
-15.7916286892361093
 30
0.0
 10
35.0035481770833314
 20
-14.2971462673611089
 30
0.0
  0
SPLINE
  5
177
100
AcDbEntity
  8
DR-100_FRONT_50P_
390
0
 62
     7
100
AcDbSpline
210
0.0
220
0.0
230
1.0
 70
     8
 71
     3
 72
     8
 73
     4
 74
     0
 42
0.00000001
 43
0.00000001
 40
0.0
 40
0.0
 40
0.0
 40
0.0
 40
1.0
 40
1.0
 40
1.0
 40
1.0
 10
24.7309624565972186
 20
-0.3014458550347222
 30
0.0
 10
24.2334906684027764
 20
-0.2349555121527778
 30
0.0
 10
23.7322292751736086
 20
-0.2015380859375
 30
0.0
 10
23.2302788628472214
 20
-0.2015380859375
 30
0.0
  0
SPLINE
  5
176
100
AcDbEntity
  8
DR-100_FRONT_50P_
390
0
 62
     7
100
AcDbSpline
210
0.0
220
0.0
230
1.0
 70
     8
 71
     3
 72
    11
 73
     7
 74
     0
 42
0.00000001
 43
0.00000001
 40
0.0
 40
0.0
 40
0.0
 40
0.0
 40
1.0
 40
1.0
 40
1.0
 40
2.0
 40
2.0
 40
2.0
 40
2.0
 10
22.4051784939236107
 20
-18.1511745876736086
 30
0.0
 10
22.4317057291666657
 20
-18.1511745876736086
 30
0.0
 10
22.4578884548611093
 20
-18.1408393012152764
 30
0.0
 10
22.4761474609374972
 20
-18.1218912760416657
 30
0.0
 10
22.4950954861111079
 20
-18.102943250868055
 30
0.0
 10
22.5054307725694436
 20
-18.0777940538194422
 30
0.0
 10
22.5050862630208321
 20
-18.0509223090277757
 30
0.0
  0
SPLINE
  5
175
100
AcDbEntity
  8
DR-100_FRONT_50P_
390
0
 62
     7
100
AcDbSpline
210
0.0
220
0.0
230
1.0
 70
     8
 71
     3
 72
    11
 73
     7
 74
     0
 42
0.00000001
 43
0.00000001
 40
0.0
 40
0.0
 40
0.0
 40
0.0
 40
1.0
 40
1.0
 40
1.0
 40
2.0
 40
2.0
 40
2.0
 40
2.0
 10
29.88069118923611
 20
-18.0016574435763879
 30
0.0
 10
30.1163357204861093
 20
-18.3158501519097214
 30
0.0
 10
30.4866834852430522
 20
-18.5011962890624986
 30
0.0
 10
30.8804578993055543
 20
-18.5011962890624986
 30
0.0
 10
31.27354329427083
 20
-18.5011962890624986
 30
0.0
 10
31.6445800781249957
 20
-18.3158501519097214
 30
0.0
 10
31.8802246093749986
 20
-18.0016574435763879
 30
0.0
  0
SPLINE
  5
174
100
AcDbEntity
  8
DR-100_FRONT_50P_
390
0
 62
     7
100
AcDbSpline
210
0.0
220
0.0
230
1.0
 70
     8
 71
     3
 72
    11
 73
     7
 74
     0
 42
0.00000001
 43
0.00000001
 40
0.0
 40
0.0
 40
0.0
 40
0.0
 40
1.0
 40
1.0
 40
1.0
 40
2.0
 40
2.0
 40
2.0
 40
2.0
 10
0.5303724500868056
 20
-3.4013427734374999
 30
0.0
 10
0.4905815972222222
 20
-3.4013427734374999
 30
0.0
 10
0.4525132921006944
 20
-3.4171902126736109
 30
0.0
 10
0.4242635091145833
 20
-3.4454399956597217
 30
0.0
 10
0.3961859809027777
 20
-3.4736897786458329
 30
0.0
 10
0.3803385416666666
 20
-3.5115858289930553
 30
0.0
 10
0.3803385416666666
 20
-3.5515489366319439
 30
0.0
  0
SPLINE
  5
173
100
AcDbEntity
  8
DR-100_FRONT_50P_
390
0
 62
     7
100
AcDbSpline
210
0.0
220
0.0
230
1.0
 70
     8
 71
     3
 72
     8
 73
     4
 74
     0
 42
0.00000001
 43
0.00000001
 40
0.0
 40
0.0
 40
0.0
 40
0.0
 40
1.0
 40
1.0
 40
1.0
 40
1.0
 10
5.6087877061631941
 20
-0.3183268229166666
 30
0.0
 10
5.5598673502604159
 20
-0.3255615234374999
 30
0.0
 10
5.5176649305555552
 20
-0.3562228732638889
 30
0.0
 10
5.4957885742187491
 20
-0.4006646050347222
 30
0.0
  0
SPLINE
  5
172
100
AcDbEntity
  8
DR-100_FRONT_50P_
390
0
 62
     7
100
AcDbSpline
210
0.0
220
0.0
230
1.0
 70
     8
 71
     3
 72
     8
 73
     4
 74
     0
 42
0.00000001
 43
0.00000001
 40
0.0
 40
0.0
 40
0.0
 40
0.0
 40
1.0
 40
1.0
 40
1.0
 40
1.0
 10
13.6088161892361104
 20
-0.3183268229166666
 30
0.0
 10
13.5598958333333321
 20
-0.3255615234374999
 30
0.0
 10
13.5176934136284714
 20
-0.3562228732638889
 30
0.0
 10
13.4959893120659711
 20
-0.4006646050347222
 30
0.0
  0
SPLINE
  5
171
100
AcDbEntity
  8
DR-100_FRONT_50P_
390
0
 62
     7
100
AcDbSpline
210
0.0
220
0.0
230
1.0
 70
     8
 71
     3
 72
    11
 73
     7
 74
     0
 42
0.00000001
 43
0.00000001
 40
0.0
 40
0.0
 40
0.0
 40
0.0
 40
1.0
 40
1.0
 40
1.0
 40
2.0
 40
2.0
 40
2.0
 40
2.0
 10
9.730155436197915
 20
-0.3513997395833333
 30
0.0
 10
9.730155436197915
 20
-0.3117811414930555
 30
0.0
 10
9.714652506510415
 20
-0.2735405815972222
 30
0.0
 10
9.6864027235243046
 20
-0.2452907986111111
 30
0.0
 10
9.6584974500868039
 20
-0.2173855251736111
 30
0.0
 10
9.6200846354166654
 20
-0.2015380859375
 30
0.0
 10
9.5802937825520829
 20
-0.2015380859375
 30
0.0
  0
SPLINE
  5
170
100
AcDbEntity
  8
DR-100_FRONT_50P_
390
0
 62
     7
100
AcDbSpline
210
0.0
220
0.0
230
1.0
 70
     8
 71
     3
 72
    11
 73
     7
 74
     0
 42
0.00000001
 43
0.00000001
 40
0.0
 40
0.0
 40
0.0
 40
0.0
 40
1.0
 40
1.0
 40
1.0
 40
2.0
 40
2.0
 40
2.0
 40
2.0
 10
5.8804334852430546
 20
-0.2015380859375
 30
0.0
 10
5.8406426323784713
 20
-0.2015380859375
 30
0.0
 10
5.8024020724826384
 20
-0.2173855251736111
 30
0.0
 10
5.7743245442708329
 20
-0.2456353081597222
 30
0.0
 10
5.7462470160590273
 20
-0.2735405815972222
 30
0.0
 10
5.7303995768229159
 20
-0.3117811414930555
 30
0.0
 10
5.7303995768229159
 20
-0.3513997395833333
 30
0.0
  0
SPLINE
  5
16F
100
AcDbEntity
  8
DR-100_FRONT_50P_
390
0
 62
     7
100
AcDbSpline
210
0.0
220
0.0
230
1.0
 70
     8
 71
     3
 72
    11
 73
     7
 74
     0
 42
0.00000001
 43
0.00000001
 40
0.0
 40
0.0
 40
0.0
 40
0.0
 40
1.0
 40
1.0
 40
1.0
 40
2.0
 40
2.0
 40
2.0
 40
2.0
 10
13.8804619683159718
 20
-0.2015380859375
 30
0.0
 10
13.8404988606770818
 20
-0.2015380859375
 30
0.0
 10
13.8024305555555546
 20
-0.2173855251736111
 30
0.0
 10
13.7743530273437482
 20
-0.2456353081597222
 30
0.0
 10
13.7461032443576379
 20
-0.2735405815972222
 30
0.0
 10
13.7306003146701379
 20
-0.3117811414930555
 30
0.0
 10
13.7306003146701379
 20
-0.3513997395833333
 30
0.0
  0
SPLINE
  5
16E
100
AcDbEntity
  8
DR-100_FRONT_50P_
390
0
 62
     7
100
AcDbSpline
210
0.0
220
0.0
230
1.0
 70
     8
 71
     3
 72
    17
 73
    13
 74
     0
 42
0.00000001
 43
0.00000001
 40
0.0
 40
0.0
 40
0.0
 40
0.0
 40
1.0
 40
1.0
 40
1.0
 40
2.0
 40
2.0
 40
2.0
 40
3.0
 40
3.0
 40
3.0
 40
4.0
 40
4.0
 40
4.0
 40
4.0
 10
11.280448404947915
 20
-8.1266357421874993
 30
0.0
 10
11.280448404947915
 20
-7.7676567925347211
 30
0.0
 10
10.9895100911458332
 20
-7.4765462239583327
 30
0.0
 10
10.6303588867187493
 20
-7.4765462239583327
 30
0.0
 10
10.2713799370659711
 20
-7.4765462239583327
 30
0.0
 10
9.9802693684895818
 20
-7.7676567925347211
 30
0.0
 10
9.9802693684895818
 20
-8.1266357421874993
 30
0.0
 10
9.9802693684895818
 20
-8.4856146918402775
 30
0.0
 10
10.2713799370659711
 20
-8.7763807508680554
 30
0.0
 10
10.6303588867187493
 20
-8.7763807508680554
 30
0.0
 10
10.9895100911458332
 20
-8.7763807508680554
 30
0.0
 10
11.280448404947915
 20
-8.4856146918402775
 30
0.0
 10
11.280448404947915
 20
-8.1266357421874993
 30
0.0
  0
SPLINE
  5
16D
100
AcDbEntity
  8
DR-100_FRONT_50P_
390
0
 62
     7
100
AcDbSpline
210
0.0
220
0.0
230
1.0
 70
     8
 71
     3
 72
    11
 73
     7
 74
     0
 42
0.00000001
 43
0.00000001
 40
0.0
 40
0.0
 40
0.0
 40
0.0
 40
1.0
 40
1.0
 40
1.0
 40
2.0
 40
2.0
 40
2.0
 40
2.0
 10
3.7301771375868054
 20
-0.4013536241319444
 30
0.0
 10
3.0011949327256944
 20
-0.4013536241319444
 30
0.0
 10
2.3014960394965276
 20
-0.6910861545138888
 30
0.0
 10
1.7857652452256942
 20
-1.206816948784722
 30
0.0
 10
1.2702067057291666
 20
-1.7228922526041666
 30
0.0
 10
0.9803019205729165
 20
-2.4222466362847221
 30
0.0
 10
0.9803019205729165
 20
-3.1515733506944441
 30
0.0
  0
SPLINE
  5
16C
100
AcDbEntity
  8
DR-100_FRONT_50P_
390
0
 62
     7
100
AcDbSpline
210
0.0
220
0.0
230
1.0
 70
     8
 71
     3
 72
     8
 73
     4
 74
     0
 42
0.00000001
 43
0.00000001
 40
0.0
 40
0.0
 40
0.0
 40
0.0
 40
1.0
 40
1.0
 40
1.0
 40
1.0
 10
0.2783637152777778
 20
-4.7514756944444443
 30
0.0
 10
0.2730238172743055
 20
-4.8513834635416666
 30
0.0
 10
0.2730238172743055
 20
-4.9516357421874995
 30
0.0
 10
0.2783637152777778
 20
-5.0515435112847218
 30
0.0
  0
SPLINE
  5
16B
100
AcDbEntity
  8
DR-100_FRONT_50P_
390
0
 62
     7
100
AcDbSpline
210
0.0
220
0.0
230
1.0
 70
     8
 71
     3
 72
     8
 73
     4
 74
     0
 42
0.00000001
 43
0.00000001
 40
0.0
 40
0.0
 40
0.0
 40
0.0
 40
1.0
 40
1.0
 40
1.0
 40
1.0
 10
0.2451185438368055
 20
-5.1514512803819441
 30
0.0
 10
0.2525254991319444
 20
-5.235511610243055
 30
0.0
 10
0.2637220594618055
 20
-5.3188829210069439
 30
0.0
 10
0.2783637152777778
 20
-5.4015652126736109
 30
0.0
  0
SPLINE
  5
16A
100
AcDbEntity
  8
DR-100_FRONT_50P_
390
0
 62
     7
100
AcDbSpline
210
0.0
220
0.0
230
1.0
 70
     8
 71
     3
 72
     8
 73
     4
 74
     0
 42
0.00000001
 43
0.00000001
 40
0.0
 40
0.0
 40
0.0
 40
0.0
 40
1.0
 40
1.0
 40
1.0
 40
1.0
 10
0.2783637152777778
 20
-4.4014539930555552
 30
0.0
 10
0.2637220594618055
 20
-4.4841362847222221
 30
0.0
 10
0.2525254991319444
 20
-4.5678521050347216
 30
0.0
 10
0.2451185438368055
 20
-4.651567925347222
 30
0.0
  0
SPLINE
  5
169
100
AcDbEntity
  8
DR-100_FRONT_50P_
390
0
 62
     7
100
AcDbSpline
210
0.0
220
0.0
230
1.0
 70
     8
 71
     3
 72
     8
 73
     4
 74
     0
 42
0.00000001
 43
0.00000001
 40
0.0
 40
0.0
 40
0.0
 40
0.0
 40
1.0
 40
1.0
 40
1.0
 40
1.0
 10
17.22788899739583
 20
-3.4013427734374999
 30
0.0
 10
17.7754869249131922
 20
-3.4013427734374999
 30
0.0
 10
18.3153333875868043
 20
-3.2731852213541663
 30
0.0
 10
18.8041924370659714
 20
-3.0265163845486107
 30
0.0
  0
SPLINE
  5
168
100
AcDbEntity
  8
DR-100_FRONT_50P_
390
0
 62
     7
100
AcDbSpline
210
0.0
220
0.0
230
1.0
 70
     8
 71
     3
 72
     8
 73
     4
 74
     0
 42
0.00000001
 43
0.00000001
 40
0.0
 40
0.0
 40
0.0
 40
0.0
 40
1.0
 40
1.0
 40
1.0
 40
1.0
 10
17.22788899739583
 20
-3.5515489366319439
 30
0.0
 10
17.7989135742187479
 20
-3.5515489366319439
 30
0.0
 10
18.3618421766493043
 20
-3.4175347222222219
 30
0.0
 10
18.8717163085937472
 20
-3.1605305989583332
 30
0.0
  0
SPLINE
  5
167
100
AcDbEntity
  8
DR-100_FRONT_50P_
390
0
 62
     7
100
AcDbSpline
210
0.0
220
0.0
230
1.0
 70
     8
 71
     3
 72
     8
 73
     4
 74
     0
 42
0.00000001
 43
0.00000001
 40
0.0
 40
0.0
 40
0.0
 40
0.0
 40
1.0
 40
1.0
 40
1.0
 40
1.0
 10
13.7381795247395821
 20
-0.3004123263888889
 30
0.0
 10
13.6947713216145814
 20
-0.3062689887152777
 30
0.0
 10
13.6517076280381939
 20
-0.3121256510416666
 30
0.0
 10
13.6088161892361104
 20
-0.3186713324652777
 30
0.0
  0
SPLINE
  5
166
100
AcDbEntity
  8
DR-100_FRONT_50P_
390
0
 62
     7
100
AcDbSpline
210
0.0
220
0.0
230
1.0
 70
     8
 71
     3
 72
    17
 73
    13
 74
     0
 42
0.00000001
 43
0.00000001
 40
0.0
 40
0.0
 40
0.0
 40
0.0
 40
1.0
 40
1.0
 40
1.0
 40
2.0
 40
2.0
 40
2.0
 40
3.0
 40
3.0
 40
3.0
 40
4.0
 40
4.0
 40
4.0
 40
4.0
 10
13.3053032769097204
 20
-10.1509738498263875
 30
0.0
 10
13.3053032769097204
 20
-9.7930284288194436
 30
0.0
 10
13.0143649631076386
 20
-9.5012288411458332
 30
0.0
 10
12.6553860134548604
 20
-9.5012288411458332
 30
0.0
 10
12.2964070638020821
 20
-9.5012288411458332
 30
0.0
 10
12.0052964952256929
 20
-9.7930284288194436
 30
0.0
 10
12.0052964952256929
 20
-10.1509738498263875
 30
0.0
 10
12.0052964952256929
 20
-10.5102973090277771
 30
0.0
 10
12.2964070638020821
 20
-10.8017523871527761
 30
0.0
 10
12.6553860134548604
 20
-10.8017523871527761
 30
0.0
 10
13.0143649631076386
 20
-10.8017523871527761
 30
0.0
 10
13.3053032769097204
 20
-10.5102973090277771
 30
0.0
 10
13.3053032769097204
 20
-10.1509738498263875
 30
0.0
  0
SPLINE
  5
165
100
AcDbEntity
  8
DR-100_FRONT_50P_
390
0
 62
     7
100
AcDbSpline
210
0.0
220
0.0
230
1.0
 70
     8
 71
     3
 72
    17
 73
    13
 74
     0
 42
0.00000001
 43
0.00000001
 40
0.0
 40
0.0
 40
0.0
 40
0.0
 40
1.0
 40
1.0
 40
1.0
 40
2.0
 40
2.0
 40
2.0
 40
3.0
 40
3.0
 40
3.0
 40
4.0
 40
4.0
 40
4.0
 40
4.0
 10
14.5803331163194425
 20
-10.1509738498263875
 30
0.0
 10
14.5803331163194425
 20
-7.9698838975694439
 30
0.0
 10
12.8117933485243043
 20
-6.2015163845486105
 30
0.0
 10
10.6303588867187493
 20
-6.2015163845486105
 30
0.0
 10
8.4489244249131943
 20
-6.2015163845486105
 30
0.0
 10
6.6803846571180552
 20
-7.9698838975694439
 30
0.0
 10
6.6803846571180552
 20
-10.1509738498263875
 30
0.0
 10
6.6803846571180552
 20
-12.3330973307291654
 30
0.0
 10
8.4489244249131943
 20
-14.1014648437499979
 30
0.0
 10
10.6303588867187493
 20
-14.1014648437499979
 30
0.0
 10
12.8117933485243043
 20
-14.1014648437499979
 30
0.0
 10
14.5803331163194425
 20
-12.3330973307291654
 30
0.0
 10
14.5803331163194425
 20
-10.1509738498263875
 30
0.0
  0
SPLINE
  5
164
100
AcDbEntity
  8
DR-100_FRONT_50P_
390
0
 62
     7
100
AcDbSpline
210
0.0
220
0.0
230
1.0
 70
     8
 71
     3
 72
    17
 73
    13
 74
     0
 42
0.00000001
 43
0.00000001
 40
0.0
 40
0.0
 40
0.0
 40
0.0
 40
1.0
 40
1.0
 40
1.0
 40
2.0
 40
2.0
 40
2.0
 40
3.0
 40
3.0
 40
3.0
 40
4.0
 40
4.0
 40
4.0
 40
4.0
 10
14.6804131401909714
 20
-10.1509738498263875
 30
0.0
 10
14.6804131401909714
 20
-7.9147623697916663
 30
0.0
 10
12.8672593858506925
 20
-6.1012641059027768
 30
0.0
 10
10.6303588867187493
 20
-6.1012641059027768
 30
0.0
 10
8.39363064236111
 20
-6.1012641059027768
 30
0.0
 10
6.5803046332465271
 20
-7.9147623697916663
 30
0.0
 10
6.5803046332465271
 20
-10.1509738498263875
 30
0.0
 10
6.5803046332465271
 20
-12.3882188585069439
 30
0.0
 10
8.39363064236111
 20
-14.2013726128472211
 30
0.0
 10
10.6303588867187493
 20
-14.2013726128472211
 30
0.0
 10
12.8672593858506925
 20
-14.2013726128472211
 30
0.0
 10
14.6804131401909714
 20
-12.3882188585069439
 30
0.0
 10
14.6804131401909714
 20
-10.1509738498263875
 30
0.0
  0
SPLINE
  5
163
100
AcDbEntity
  8
DR-100_FRONT_50P_
390
0
 62
     7
100
AcDbSpline
210
0.0
220
0.0
230
1.0
 70
     8
 71
     3
 72
    17
 73
    13
 74
     0
 42
0.00000001
 43
0.00000001
 40
0.0
 40
0.0
 40
0.0
 40
0.0
 40
1.0
 40
1.0
 40
1.0
 40
2.0
 40
2.0
 40
2.0
 40
3.0
 40
3.0
 40
3.0
 40
4.0
 40
4.0
 40
4.0
 40
4.0
 10
15.5802720811631925
 20
-10.1509738498263875
 30
0.0
 10
15.5802720811631925
 20
-7.4176350911458329
 30
0.0
 10
13.3640421549479154
 20
-5.2014051649305548
 30
0.0
 10
10.6303588867187493
 20
-5.2014051649305548
 30
0.0
 10
7.8965033637152775
 20
-5.2014051649305548
 30
0.0
 10
5.6804456922743052
 20
-7.4176350911458329
 30
0.0
 10
5.6804456922743052
 20
-10.1509738498263875
 30
0.0
 10
5.6804456922743052
 20
-12.885001627604165
 30
0.0
 10
7.8965033637152775
 20
-15.1015760633680536
 30
0.0
 10
10.6303588867187493
 20
-15.1015760633680536
 30
0.0
 10
13.3640421549479154
 20
-15.1015760633680536
 30
0.0
 10
15.5802720811631925
 20
-12.885001627604165
 30
0.0
 10
15.5802720811631925
 20
-10.1509738498263875
 30
0.0
  0
SPLINE
  5
162
100
AcDbEntity
  8
DR-100_FRONT_50P_
390
0
 62
     7
100
AcDbSpline
210
0.0
220
0.0
230
1.0
 70
     8
 71
     3
 72
    17
 73
    13
 74
     0
 42
0.00000001
 43
0.00000001
 40
0.0
 40
0.0
 40
0.0
 40
0.0
 40
1.0
 40
1.0
 40
1.0
 40
2.0
 40
2.0
 40
2.0
 40
3.0
 40
3.0
 40
3.0
 40
4.0
 40
4.0
 40
4.0
 40
4.0
 10
15.6805243598090271
 20
-10.1509738498263875
 30
0.0
 10
15.6805243598090271
 20
-7.3625135633680552
 30
0.0
 10
13.4195081922743036
 20
-5.1014973958333325
 30
0.0
 10
10.6303588867187493
 20
-5.1014973958333325
 30
0.0
 10
7.8413818359374989
 20
-5.1014973958333325
 30
0.0
 10
5.5805379231770829
 20
-7.3625135633680552
 30
0.0
 10
5.5805379231770829
 20
-10.1509738498263875
 30
0.0
 10
5.5805379231770829
 20
-12.940467664930555
 30
0.0
 10
7.8413818359374989
 20
-15.2014838324652768
 30
0.0
 10
10.6303588867187493
 20
-15.2014838324652768
 30
0.0
 10
13.4195081922743036
 20
-15.2014838324652768
 30
0.0
 10
15.6805243598090271
 20
-12.940467664930555
 30
0.0
 10
15.6805243598090271
 20
-10.1509738498263875
 30
0.0
  0
SPLINE
  5
161
100
AcDbEntity
  8
DR-100_FRONT_50P_
390
0
 62
     7
100
AcDbSpline
210
0.0
220
0.0
230
1.0
 70
     8
 71
     3
 72
    17
 73
    13
 74
     0
 42
0.00000001
 43
0.00000001
 40
0.0
 40
0.0
 40
0.0
 40
0.0
 40
1.0
 40
1.0
 40
1.0
 40
2.0
 40
2.0
 40
2.0
 40
3.0
 40
3.0
 40
3.0
 40
4.0
 40
4.0
 40
4.0
 40
4.0
 10
16.0305460611979136
 20
-10.1509738498263875
 30
0.0
 10
16.0305460611979136
 20
-7.1692437065972214
 30
0.0
 10
13.6127780490451382
 20
-4.7514756944444443
 30
0.0
 10
10.6303588867187493
 20
-4.7514756944444443
 30
0.0
 10
7.6479397243923604
 20
-4.7514756944444443
 30
0.0
 10
5.2305162217881938
 20
-7.1692437065972214
 30
0.0
 10
5.2305162217881938
 20
-10.1509738498263875
 30
0.0
 10
5.2305162217881938
 20
-13.1340820312499993
 30
0.0
 10
7.6479397243923604
 20
-15.5518500434027764
 30
0.0
 10
10.6303588867187493
 20
-15.5518500434027764
 30
0.0
 10
13.6127780490451382
 20
-15.5518500434027764
 30
0.0
 10
16.0305460611979136
 20
-13.1340820312499993
 30
0.0
 10
16.0305460611979136
 20
-10.1509738498263875
 30
0.0
  0
SPLINE
  5
160
100
AcDbEntity
  8
DR-100_FRONT_50P_
390
0
 62
     7
100
AcDbSpline
210
0.0
220
0.0
230
1.0
 70
     8
 71
     3
 72
    17
 73
    13
 74
     0
 42
0.00000001
 43
0.00000001
 40
0.0
 40
0.0
 40
0.0
 40
0.0
 40
1.0
 40
1.0
 40
1.0
 40
2.0
 40
2.0
 40
2.0
 40
3.0
 40
3.0
 40
3.0
 40
4.0
 40
4.0
 40
4.0
 40
4.0
 10
16.1304538302951386
 20
-10.1509738498263875
 30
0.0
 10
16.1304538302951386
 20
-7.1137776692708323
 30
0.0
 10
13.6680718315972207
 20
-4.651567925347222
 30
0.0
 10
10.6303588867187493
 20
-4.651567925347222
 30
0.0
 10
7.5928181966145827
 20
-4.651567925347222
 30
0.0
 10
5.1304361979166666
 20
-7.1137776692708323
 30
0.0
 10
5.1304361979166666
 20
-10.1509738498263875
 30
0.0
 10
5.1304361979166666
 20
-13.1888590494791647
 30
0.0
 10
7.5928181966145827
 20
-15.6514133029513882
 30
0.0
 10
10.6303588867187493
 20
-15.6514133029513882
 30
0.0
 10
13.6680718315972207
 20
-15.6514133029513882
 30
0.0
 10
16.1304538302951386
 20
-13.1888590494791647
 30
0.0
 10
16.1304538302951386
 20
-10.1509738498263875
 30
0.0
  0
SPLINE
  5
15F
100
AcDbEntity
  8
DR-100_FRONT_50P_
390
0
 62
     7
100
AcDbSpline
210
0.0
220
0.0
230
1.0
 70
     8
 71
     3
 72
     8
 73
     4
 74
     0
 42
0.00000001
 43
0.00000001
 40
0.0
 40
0.0
 40
0.0
 40
0.0
 40
1.0
 40
1.0
 40
1.0
 40
1.0
 10
5.8713039822048607
 20
-14.1989610460069429
 30
0.0
 10
7.1253187391493045
 20
-15.6607150607638879
 30
0.0
 10
8.9546644422743054
 20
-16.5009738498263872
 30
0.0
 10
10.8803005642361104
 20
-16.5009738498263872
 30
0.0
  0
SPLINE
  5
15E
100
AcDbEntity
  8
DR-100_FRONT_50P_
390
0
 62
     7
100
AcDbSpline
210
0.0
220
0.0
230
1.0
 70
     8
 71
     3
 72
     8
 73
     4
 74
     0
 42
0.00000001
 43
0.00000001
 40
0.0
 40
0.0
 40
0.0
 40
0.0
 40
1.0
 40
1.0
 40
1.0
 40
1.0
 10
5.7576158311631938
 20
-14.2971462673611089
 30
0.0
 10
7.0398803710937496
 20
-15.7916286892361093
 30
0.0
 10
8.9109117296006932
 20
-16.6515245225694422
 30
0.0
 10
10.8803005642361104
 20
-16.6515245225694422
 30
0.0
  0
SPLINE
  5
15D
100
AcDbEntity
  8
DR-100_FRONT_50P_
390
0
 62
     7
100
AcDbSpline
210
0.0
220
0.0
230
1.0
 70
     8
 71
     3
 72
     8
 73
     4
 74
     0
 42
0.00000001
 43
0.00000001
 40
0.0
 40
0.0
 40
0.0
 40
0.0
 40
1.0
 40
1.0
 40
1.0
 40
1.0
 10
18.2553887261284693
 20
-18.0512668185763872
 30
0.0
 10
18.2553887261284693
 20
-18.1067328559027771
 30
0.0
 10
18.3001749674479157
 20
-18.1511745876736086
 30
0.0
 10
18.3552964952256943
 20
-18.1511745876736086
 30
0.0
  0
SPLINE
  5
15C
100
AcDbEntity
  8
DR-100_FRONT_50P_
390
0
 62
     7
100
AcDbSpline
210
0.0
220
0.0
230
1.0
 70
     8
 71
     3
 72
    11
 73
     7
 74
     0
 42
0.00000001
 43
0.00000001
 40
0.0
 40
0.0
 40
0.0
 40
0.0
 40
1.0
 40
1.0
 40
1.0
 40
2.0
 40
2.0
 40
2.0
 40
2.0
 10
8.8802503797743046
 20
-18.0016574435763879
 30
0.0
 10
9.1164116753472211
 20
-18.3158501519097214
 30
0.0
 10
9.4869316948784714
 20
-18.5011962890624986
 30
0.0
 10
9.8803615993923604
 20
-18.5011962890624986
 30
0.0
 10
10.2737915039062493
 20
-18.5011962890624986
 30
0.0
 10
10.6444837782118054
 20
-18.3158501519097214
 30
0.0
 10
10.8803005642361104
 20
-18.0016574435763879
 30
0.0
  0
SPLINE
  5
15B
100
AcDbEntity
  8
DR-100_FRONT_50P_
390
0
 62
     7
100
AcDbSpline
210
0.0
220
0.0
230
1.0
 70
     8
 71
     3
 72
    17
 73
    13
 74
     0
 42
0.00000001
 43
0.00000001
 40
0.0
 40
0.0
 40
0.0
 40
0.0
 40
1.0
 40
1.0
 40
1.0
 40
2.0
 40
2.0
 40
2.0
 40
3.0
 40
3.0
 40
3.0
 40
4.0
 40
4.0
 40
4.0
 40
4.0
 10
9.2554212782118039
 20
-10.1509738498263875
 30
0.0
 10
9.2554212782118039
 20
-9.7930284288194436
 30
0.0
 10
8.9644829644097221
 20
-9.5012288411458332
 30
0.0
 10
8.6053317599826382
 20
-9.5012288411458332
 30
0.0
 10
8.24635281032986
 20
-9.5012288411458332
 30
0.0
 10
7.9552422417534716
 20
-9.7930284288194436
 30
0.0
 10
7.9552422417534716
 20
-10.1509738498263875
 30
0.0
 10
7.9552422417534716
 20
-10.5102973090277771
 30
0.0
 10
8.24635281032986
 20
-10.8017523871527761
 30
0.0
 10
8.6053317599826382
 20
-10.8017523871527761
 30
0.0
 10
8.9644829644097221
 20
-10.8017523871527761
 30
0.0
 10
9.2554212782118039
 20
-10.5102973090277771
 30
0.0
 10
9.2554212782118039
 20
-10.1509738498263875
 30
0.0
  0
SPLINE
  5
15A
100
AcDbEntity
  8
DR-100_FRONT_50P_
390
0
 62
     7
100
AcDbSpline
210
0.0
220
0.0
230
1.0
 70
     8
 71
     3
 72
     8
 73
     4
 74
     0
 42
0.00000001
 43
0.00000001
 40
0.0
 40
0.0
 40
0.0
 40
0.0
 40
1.0
 40
1.0
 40
1.0
 40
1.0
 10
1.093301052517361
 20
-13.5933132595486104
 30
0.0
 10
2.4703057183159718
 20
-16.2405246310763864
 30
0.0
 10
5.2060560438368046
 20
-17.901405164930555
 30
0.0
 10
8.1905422634548604
 20
-17.901405164930555
 30
0.0
  0
SPLINE
  5
159
100
AcDbEntity
  8
DR-100_FRONT_50P_
390
0
 62
     7
100
AcDbSpline
210
0.0
220
0.0
230
1.0
 70
     8
 71
     3
 72
     8
 73
     4
 74
     0
 42
0.00000001
 43
0.00000001
 40
0.0
 40
0.0
 40
0.0
 40
0.0
 40
1.0
 40
1.0
 40
1.0
 40
1.0
 10
4.7611219618055554
 20
-17.1297037760416657
 30
0.0
 10
4.8706759982638888
 20
-17.1810356987847221
 30
0.0
 10
4.9812635633680555
 20
-17.2309895833333329
 30
0.0
 10
5.0930569118923605
 20
-17.2778428819444443
 30
0.0
  0
SPLINE
  5
158
100
AcDbEntity
  8
DR-100_FRONT_50P_
390
0
 62
     7
100
AcDbSpline
210
0.0
220
0.0
230
1.0
 70
     8
 71
     3
 72
     8
 73
     4
 74
     0
 42
0.00000001
 43
0.00000001
 40
0.0
 40
0.0
 40
0.0
 40
0.0
 40
1.0
 40
1.0
 40
1.0
 40
1.0
 10
3.3160766601562499
 20
-16.24465874565972
 30
0.0
 10
3.589272732204861
 20
-16.4548095703124986
 30
0.0
 10
3.8759046766493053
 20
-16.6473904079861086
 30
0.0
 10
4.1739054361979164
 20
-16.8199896918402771
 30
0.0
  0
SPLINE
  5
157
100
AcDbEntity
  8
DR-100_FRONT_50P_
390
0
 62
     7
100
AcDbSpline
210
0.0
220
0.0
230
1.0
 70
     8
 71
     3
 72
     8
 73
     4
 74
     0
 42
0.00000001
 43
0.00000001
 40
0.0
 40
0.0
 40
0.0
 40
0.0
 40
1.0
 40
1.0
 40
1.0
 40
1.0
 10
1.093301052517361
 20
-13.5933132595486104
 30
0.0
 10
2.4703057183159718
 20
-16.2405246310763864
 30
0.0
 10
5.2060560438368046
 20
-17.901405164930555
 30
0.0
 10
8.1905422634548604
 20
-17.901405164930555
 30
0.0
  0
SPLINE
  5
156
100
AcDbEntity
  8
DR-100_FRONT_50P_
390
0
 62
     7
100
AcDbSpline
210
0.0
220
0.0
230
1.0
 70
     8
 71
     3
 72
     8
 73
     4
 74
     0
 42
0.00000001
 43
0.00000001
 40
0.0
 40
0.0
 40
0.0
 40
0.0
 40
1.0
 40
1.0
 40
1.0
 40
1.0
 10
3.3160766601562499
 20
-16.24465874565972
 30
0.0
 10
3.589272732204861
 20
-16.4548095703124986
 30
0.0
 10
3.8759046766493053
 20
-16.6473904079861086
 30
0.0
 10
4.1739054361979164
 20
-16.8199896918402771
 30
0.0
  0
SPLINE
  5
155
100
AcDbEntity
  8
DR-100_FRONT_50P_
390
0
 62
     7
100
AcDbSpline
210
0.0
220
0.0
230
1.0
 70
     8
 71
     3
 72
     8
 73
     4
 74
     0
 42
0.00000001
 43
0.00000001
 40
0.0
 40
0.0
 40
0.0
 40
0.0
 40
1.0
 40
1.0
 40
1.0
 40
1.0
 10
6.8052693684895829
 20
-17.8318142361111107
 30
0.0
 10
7.2627780490451386
 20
-17.9113959418402757
 30
0.0
 10
7.726315646701388
 20
-17.9513590494791657
 30
0.0
 10
8.1905422634548604
 20
-17.9513590494791657
 30
0.0
  0
SPLINE
  5
154
100
AcDbEntity
  8
DR-100_FRONT_50P_
390
0
 62
     7
100
AcDbSpline
210
0.0
220
0.0
230
1.0
 70
     8
 71
     3
 72
     8
 73
     4
 74
     0
 42
0.00000001
 43
0.00000001
 40
0.0
 40
0.0
 40
0.0
 40
0.0
 40
1.0
 40
1.0
 40
1.0
 40
1.0
 10
5.9274590386284718
 20
-17.730872938368055
 30
0.0
 10
6.6629869249131941
 20
-17.9437798394097214
 30
0.0
 10
7.4250420464409714
 20
-18.0512668185763872
 30
0.0
 10
8.1905422634548604
 20
-18.0512668185763872
 30
0.0
  0
SPLINE
  5
153
100
AcDbEntity
  8
DR-100_FRONT_50P_
390
0
 62
     7
100
AcDbSpline
210
0.0
220
0.0
230
1.0
 70
     8
 71
     3
 72
     8
 73
     4
 74
     0
 42
0.00000001
 43
0.00000001
 40
0.0
 40
0.0
 40
0.0
 40
0.0
 40
1.0
 40
1.0
 40
1.0
 40
1.0
 10
5.7379787868923602
 20
-0.3004123263888889
 30
0.0
 10
5.6949150933159718
 20
-0.3062689887152777
 30
0.0
 10
5.6518513997395825
 20
-0.3121256510416666
 30
0.0
 10
5.6087877061631941
 20
-0.3186713324652777
 30
0.0
  0
SPLINE
  5
152
100
AcDbEntity
  8
DR-100_FRONT_50P_
390
0
 62
     7
100
AcDbSpline
210
0.0
220
0.0
230
1.0
 70
     8
 71
     3
 72
     8
 73
     4
 74
     0
 42
0.00000001
 43
0.00000001
 40
0.0
 40
0.0
 40
0.0
 40
0.0
 40
1.0
 40
1.0
 40
1.0
 40
1.0
 10
0.3787882486979166
 20
-9.9108506944444432
 30
0.0
 10
0.3198771158854166
 20
-9.9318657769097207
 30
0.0
 10
0.2802585177951389
 20
-9.9887098524305546
 30
0.0
 10
0.2802585177951389
 20
-10.0510660807291661
 30
0.0
  0
SPLINE
  5
151
100
AcDbEntity
  8
DR-100_FRONT_50P_
390
0
 62
     7
100
AcDbSpline
210
0.0
220
0.0
230
1.0
 70
     8
 71
     3
 72
     8
 73
     4
 74
     0
 42
0.00000001
 43
0.00000001
 40
0.0
 40
0.0
 40
0.0
 40
0.0
 40
1.0
 40
1.0
 40
1.0
 40
1.0
 10
0.2783637152777778
 20
-11.2513373480902761
 30
0.0
 10
0.2730238172743055
 20
-11.3512451171874993
 30
0.0
 10
0.2730238172743055
 20
-11.4511528862847207
 30
0.0
 10
0.2783637152777778
 20
-11.5514051649305554
 30
0.0
  0
SPLINE
  5
150
100
AcDbEntity
  8
DR-100_FRONT_50P_
390
0
 62
     7
100
AcDbSpline
210
0.0
220
0.0
230
1.0
 70
     8
 71
     3
 72
     8
 73
     4
 74
     0
 42
0.00000001
 43
0.00000001
 40
0.0
 40
0.0
 40
0.0
 40
0.0
 40
1.0
 40
1.0
 40
1.0
 40
1.0
 10
0.2451185438368055
 20
-11.6516574435763882
 30
0.0
 10
0.2525254991319444
 20
-11.7350287543402771
 30
0.0
 10
0.2637220594618055
 20
-11.8187445746527775
 30
0.0
 10
0.2783637152777778
 20
-11.9010823567708321
 30
0.0
  0
SPLINE
  5
14F
100
AcDbEntity
  8
DR-100_FRONT_50P_
390
0
 62
     7
100
AcDbSpline
210
0.0
220
0.0
230
1.0
 70
     8
 71
     3
 72
     8
 73
     4
 74
     0
 42
0.00000001
 43
0.00000001
 40
0.0
 40
0.0
 40
0.0
 40
0.0
 40
1.0
 40
1.0
 40
1.0
 40
1.0
 10
0.2783637152777778
 20
-10.9016601562499993
 30
0.0
 10
0.2637220594618055
 20
-10.9839979383680539
 30
0.0
 10
0.2525254991319444
 20
-11.0677137586805543
 30
0.0
 10
0.2451185438368055
 20
-11.1514295789930546
 30
0.0
  0
SPLINE
  5
14E
100
AcDbEntity
  8
DR-100_FRONT_50P_
390
0
 62
     7
100
AcDbSpline
210
0.0
220
0.0
230
1.0
 70
     8
 71
     3
 72
     8
 73
     4
 74
     0
 42
0.00000001
 43
0.00000001
 40
0.0
 40
0.0
 40
0.0
 40
0.0
 40
1.0
 40
1.0
 40
1.0
 40
1.0
 10
0.3805107964409722
 20
-12.7516764322916654
 30
0.0
 10
0.3805107964409722
 20
-12.8343587239583314
 30
0.0
 10
0.4475179036458333
 20
-12.9018825954861107
 30
0.0
 10
0.5303724500868056
 20
-12.9018825954861107
 30
0.0
  0
SPLINE
  5
14D
100
AcDbEntity
  8
DR-100_FRONT_50P_
390
0
 62
     7
100
AcDbSpline
210
0.0
220
0.0
230
1.0
 70
     8
 71
     3
 72
     8
 73
     4
 74
     0
 42
0.00000001
 43
0.00000001
 40
0.0
 40
0.0
 40
0.0
 40
0.0
 40
1.0
 40
1.0
 40
1.0
 40
1.0
 10
0.9803019205729165
 20
-13.1316704644097211
 30
0.0
 10
0.9803019205729165
 20
-13.2922119140624986
 30
0.0
 10
1.0190592447916667
 20
-13.4506863064236093
 30
0.0
 10
1.093301052517361
 20
-13.5933132595486104
 30
0.0
  0
SPLINE
  5
14C
100
AcDbEntity
  8
DR-100_FRONT_50P_
390
0
 62
     7
100
AcDbSpline
210
0.0
220
0.0
230
1.0
 70
     8
 71
     3
 72
     8
 73
     4
 74
     0
 42
0.00000001
 43
0.00000001
 40
0.0
 40
0.0
 40
0.0
 40
0.0
 40
1.0
 40
1.0
 40
1.0
 40
1.0
 10
5.8554565429687493
 20
-17.6350992838541636
 30
0.0
 10
5.8554565429687493
 20
-17.6791965060763872
 30
0.0
 10
5.8849121093749996
 20
-17.7188151041666657
 30
0.0
 10
5.9274590386284718
 20
-17.730872938368055
 30
0.0
  0
SPLINE
  5
14B
100
AcDbEntity
  8
DR-100_FRONT_50P_
390
0
 62
     7
100
AcDbSpline
210
0.0
220
0.0
230
1.0
 70
     8
 71
     3
 72
     8
 73
     4
 74
     0
 42
0.00000001
 43
0.00000001
 40
0.0
 40
0.0
 40
0.0
 40
0.0
 40
1.0
 40
1.0
 40
1.0
 40
1.0
 10
0.3805107964409722
 20
-15.2510932074652761
 30
0.0
 10
0.3805107964409722
 20
-15.3348090277777764
 30
0.0
 10
0.4475179036458333
 20
-15.4012993706597214
 30
0.0
 10
0.5303724500868056
 20
-15.4012993706597214
 30
0.0
  0
SPLINE
  5
14A
100
AcDbEntity
  8
DR-100_FRONT_50P_
390
0
 62
     7
100
AcDbSpline
210
0.0
220
0.0
230
1.0
 70
     8
 71
     3
 72
     8
 73
     4
 74
     0
 42
0.00000001
 43
0.00000001
 40
0.0
 40
0.0
 40
0.0
 40
0.0
 40
1.0
 40
1.0
 40
1.0
 40
1.0
 10
5.7576158311631938
 20
-14.2971462673611089
 30
0.0
 10
4.9976277669270832
 20
-13.4107231987847211
 30
0.0
 10
3.8888237847222218
 20
-12.9018825954861107
 30
0.0
 10
2.7217976888020829
 20
-12.9018825954861107
 30
0.0
  0
SPLINE
  5
149
100
AcDbEntity
  8
DR-100_FRONT_50P_
390
0
 62
     7
100
AcDbSpline
210
0.0
220
0.0
230
1.0
 70
     8
 71
     3
 72
     8
 73
     4
 74
     0
 42
0.00000001
 43
0.00000001
 40
0.0
 40
0.0
 40
0.0
 40
0.0
 40
1.0
 40
1.0
 40
1.0
 40
1.0
 10
5.8713039822048607
 20
-14.1989610460069429
 30
0.0
 10
5.0828938802083332
 20
-13.2798095703124996
 30
0.0
 10
3.932576497395833
 20
-12.7516764322916654
 30
0.0
 10
2.7217976888020829
 20
-12.7516764322916654
 30
0.0
  0
LINE
  5
148
100
AcDbEntity
  8
DR-100_FRONT_50P_
390
0
 62
     7
100
AcDbLine
 10
39.684055
 20
-1.169265
 30
0.0
 11
39.62411
 21
-1.035596
 31
0.0
  0
LINE
  5
147
100
AcDbEntity
  8
DR-100_FRONT_50P_
390
0
 62
     7
100
AcDbLine
 10
40.430607
 20
-4.15134
 30
0.0
 11
40.486418
 21
-4.401454
 31
0.0
  0
LINE
  5
146
100
AcDbEntity
  8
DR-100_FRONT_50P_
390
0
 62
     7
100
AcDbLine
 10
40.430607
 20
-10.651546
 30
0.0
 11
40.486418
 21
-10.90166
 31
0.0
  0
LINE
  5
145
100
AcDbEntity
  8
DR-100_FRONT_50P_
390
0
 62
     7
100
AcDbLine
 10
39.51869
 20
-1.694642
 30
0.0
 11
39.513178
 21
-1.681896
 31
0.0
  0
LINE
  5
144
100
AcDbEntity
  8
DR-100_FRONT_50P_
390
0
 62
     7
100
AcDbLine
 10
39.517312
 20
-1.691197
 30
0.0
 11
39.501809
 21
-1.658124
 31
0.0
  0
LINE
  5
143
100
AcDbEntity
  8
DR-100_FRONT_50P_
390
0
 62
     7
100
AcDbLine
 10
39.503187
 20
-1.660881
 30
0.0
 11
39.484928
 21
-1.621606
 31
0.0
  0
LINE
  5
142
100
AcDbEntity
  8
DR-100_FRONT_50P_
390
0
 62
     7
100
AcDbLine
 10
39.486995
 20
-1.625052
 30
0.0
 11
39.470803
 21
-1.592668
 31
0.0
  0
LINE
  5
141
100
AcDbEntity
  8
DR-100_FRONT_50P_
390
0
 62
     7
100
AcDbLine
 10
39.436008
 20
-1.526522
 30
0.0
 11
39.470803
 21
-1.593357
 31
0.0
  0
LINE
  5
140
100
AcDbEntity
  8
DR-100_FRONT_50P_
390
0
 62
     7
100
AcDbLine
 10
39.438075
 20
-1.529622
 30
0.0
 11
39.43084
 21
-1.51722
 31
0.0
  0
LINE
  5
13F
100
AcDbEntity
  8
DR-100_FRONT_50P_
390
0
 62
     7
100
AcDbLine
 10
39.420161
 20
-1.496894
 30
0.0
 11
39.402935
 21
-1.467955
 31
0.0
  0
LINE
  5
13E
100
AcDbEntity
  8
DR-100_FRONT_50P_
390
0
 62
     7
100
AcDbLine
 10
39.505943
 20
-1.666737
 30
0.0
 11
39.294415
 21
-1.300179
 31
0.0
  0
LINE
  5
13D
100
AcDbEntity
  8
DR-100_FRONT_50P_
390
0
 62
     7
100
AcDbLine
 10
39.398801
 20
-1.461065
 30
0.0
 11
39.411892
 21
-1.482769
 31
0.0
  0
LINE
  5
13C
100
AcDbEntity
  8
DR-100_FRONT_50P_
390
0
 62
     7
100
AcDbLine
 10
39.40328
 20
-1.468644
 30
0.0
 11
39.396734
 21
-1.456586
 31
0.0
  0
LINE
  5
13B
100
AcDbEntity
  8
DR-100_FRONT_50P_
390
0
 62
     7
100
AcDbLine
 10
39.408792
 20
-1.477946
 30
0.0
 11
39.386399
 21
-1.439016
 31
0.0
  0
LINE
  5
13A
100
AcDbEntity
  8
DR-100_FRONT_50P_
390
0
 62
     7
100
AcDbLine
 10
39.37503
 20
-1.421102
 30
0.0
 11
39.367795
 21
-1.409044
 31
0.0
  0
LINE
  5
139
100
AcDbEntity
  8
DR-100_FRONT_50P_
390
0
 62
     7
100
AcDbLine
 10
39.358838
 20
-1.395264
 30
0.0
 11
39.372618
 21
-1.417312
 31
0.0
  0
LINE
  5
138
100
AcDbEntity
  8
DR-100_FRONT_50P_
390
0
 62
     7
100
AcDbLine
 10
39.328521
 20
-1.349444
 30
0.0
 11
39.367795
 21
-1.409733
 31
0.0
  0
LINE
  5
137
100
AcDbEntity
  8
DR-100_FRONT_50P_
390
0
 62
     7
100
AcDbLine
 10
39.352981
 20
-1.386651
 30
0.0
 11
39.324042
 21
-1.342898
 31
0.0
  0
LINE
  5
136
100
AcDbEntity
  8
DR-100_FRONT_50P_
390
0
 62
     7
100
AcDbLine
 10
39.329555
 20
-1.351166
 30
0.0
 11
39.344368
 21
-1.373215
 31
0.0
  0
LINE
  5
135
100
AcDbEntity
  8
DR-100_FRONT_50P_
390
0
 62
     7
100
AcDbLine
 10
39.3361
 20
-1.360813
 30
0.0
 11
39.320253
 21
-1.336697
 31
0.0
  0
LINE
  5
134
100
AcDbEntity
  8
DR-100_FRONT_50P_
390
0
 62
     7
100
AcDbLine
 10
39.298549
 20
-1.30638
 30
0.0
 11
39.314741
 21
-1.329118
 31
0.0
  0
LINE
  5
133
100
AcDbEntity
  8
DR-100_FRONT_50P_
390
0
 62
     7
100
AcDbLine
 10
39.344368
 20
-1.384584
 30
0.0
 11
39.179693
 21
-1.156519
 31
0.0
  0
LINE
  5
132
100
AcDbEntity
  8
DR-100_FRONT_50P_
390
0
 62
     7
100
AcDbLine
 10
39.2734
 20
-1.271929
 30
0.0
 11
39.251351
 21
-1.24299
 31
0.0
  0
LINE
  5
131
100
AcDbEntity
  8
DR-100_FRONT_50P_
390
0
 62
     7
100
AcDbLine
 10
39.249973
 20
-1.240923
 30
0.0
 11
39.266509
 21
-1.262627
 31
0.0
  0
LINE
  5
130
100
AcDbEntity
  8
DR-100_FRONT_50P_
390
0
 62
     7
100
AcDbLine
 10
39.251351
 20
-1.24299
 30
0.0
 11
39.231025
 21
-1.217841
 31
0.0
  0
LINE
  5
12F
100
AcDbEntity
  8
DR-100_FRONT_50P_
390
0
 62
     7
100
AcDbLine
 10
39.232403
 20
-1.218875
 30
0.0
 11
39.200363
 21
-1.18029
 31
0.0
  0
LINE
  5
12E
100
AcDbEntity
  8
DR-100_FRONT_50P_
390
0
 62
     7
100
AcDbLine
 10
39.156266
 20
-1.129991
 30
0.0
 11
39.176248
 21
-1.15204
 31
0.0
  0
LINE
  5
12D
100
AcDbEntity
  8
DR-100_FRONT_50P_
390
0
 62
     7
100
AcDbLine
 10
39.294415
 20
-1.300179
 30
0.0
 11
38.995036
 21
-0.972206
 31
0.0
  0
LINE
  5
12C
100
AcDbEntity
  8
DR-100_FRONT_50P_
390
0
 62
     7
100
AcDbLine
 10
39.128016
 20
-1.099674
 30
0.0
 11
39.16798
 21
-1.142738
 31
0.0
  0
LINE
  5
12B
100
AcDbEntity
  8
DR-100_FRONT_50P_
390
0
 62
     7
100
AcDbLine
 10
39.149032
 20
-1.122412
 30
0.0
 11
39.128361
 21
-1.100019
 31
0.0
  0
LINE
  5
12A
100
AcDbEntity
  8
DR-100_FRONT_50P_
390
0
 62
     7
100
AcDbLine
 10
39.050846
 20
-1.023538
 30
0.0
 11
39.040167
 21
-1.013203
 31
0.0
  0
LINE
  5
129
100
AcDbEntity
  8
DR-100_FRONT_50P_
390
0
 62
     7
100
AcDbLine
 10
39.179348
 20
-1.155485
 30
0.0
 11
39.068416
 21
-1.042141
 31
0.0
  0
LINE
  5
128
100
AcDbEntity
  8
DR-100_FRONT_50P_
390
0
 62
     7
100
AcDbLine
 10
39.10769
 20
-1.078659
 30
0.0
 11
39.08702
 21
-1.057989
 31
0.0
  0
LINE
  5
127
100
AcDbEntity
  8
DR-100_FRONT_50P_
390
0
 62
     7
100
AcDbLine
 10
39.101834
 20
-1.072803
 30
0.0
 11
39.068416
 21
-1.03973
 31
0.0
  0
LINE
  5
126
100
AcDbEntity
  8
DR-100_FRONT_50P_
390
0
 62
     7
100
AcDbLine
 10
39.066694
 20
-1.038007
 30
0.0
 11
39.093221
 21
-1.06419
 31
0.0
  0
LINE
  5
125
100
AcDbEntity
  8
DR-100_FRONT_50P_
390
0
 62
     7
100
AcDbLine
 10
39.73642
 20
-13.660493
 30
0.0
 11
39.88077
 21
-13.372827
 31
0.0
  0
LINE
  5
124
100
AcDbEntity
  8
DR-100_FRONT_50P_
390
0
 62
     7
100
AcDbLine
 10
40.430607
 20
-12.151196
 30
0.0
 11
40.486418
 21
-11.901082
 31
0.0
  0
LINE
  5
123
100
AcDbEntity
  8
DR-100_FRONT_50P_
390
0
 62
     7
100
AcDbLine
 10
40.515701
 20
-11.651657
 30
0.0
 11
40.518802
 21
-11.601359
 31
0.0
  0
LINE
  5
122
100
AcDbEntity
  8
DR-100_FRONT_50P_
390
0
 62
     7
100
AcDbLine
 10
40.515701
 20
-5.151451
 30
0.0
 11
40.518802
 21
-5.101153
 31
0.0
  0
LINE
  5
121
100
AcDbEntity
  8
DR-100_FRONT_50P_
390
0
 62
     7
100
AcDbLine
 10
40.430607
 20
-10.651546
 30
0.0
 11
40.430607
 21
-12.151196
 31
0.0
  0
LINE
  5
120
100
AcDbEntity
  8
DR-100_FRONT_50P_
390
0
 62
     7
100
AcDbLine
 10
40.430607
 20
-8.426359
 30
0.0
 11
40.430607
 21
-8.876633
 31
0.0
  0
LINE
  5
11F
100
AcDbEntity
  8
DR-100_FRONT_50P_
390
0
 62
     7
100
AcDbLine
 10
40.430607
 20
-7.426592
 30
0.0
 11
40.430607
 21
-7.876522
 31
0.0
  0
LINE
  5
11E
100
AcDbEntity
  8
DR-100_FRONT_50P_
390
0
 62
     7
100
AcDbLine
 10
40.430607
 20
-4.15134
 30
0.0
 11
40.430607
 21
-5.651335
 31
0.0
  0
LINE
  5
11D
100
AcDbEntity
  8
DR-100_FRONT_50P_
390
0
 62
     7
100
AcDbLine
 10
40.380653
 20
-16.101687
 30
0.0
 11
40.380653
 21
-3.551549
 31
0.0
  0
LINE
  5
11C
100
AcDbEntity
  8
DR-100_FRONT_50P_
390
0
 62
     7
100
AcDbLine
 10
40.230447
 20
-16.251893
 30
0.0
 11
40.230447
 21
-12.901883
 31
0.0
  0
LINE
  5
11B
100
AcDbEntity
  8
DR-100_FRONT_50P_
390
0
 62
     7
100
AcDbLine
 10
39.88077
 20
-13.673928
 30
0.0
 11
39.88077
 21
-12.901883
 31
0.0
  0
LINE
  5
11A
100
AcDbEntity
  8
DR-100_FRONT_50P_
390
0
 62
     7
100
AcDbLine
 10
39.780518
 20
-3.103687
 30
0.0
 11
39.780518
 21
-1.095885
 31
0.0
  0
LINE
  5
119
100
AcDbEntity
  8
DR-100_FRONT_50P_
390
0
 62
     7
100
AcDbLine
 10
39.780518
 20
-3.401343
 30
0.0
 11
39.780518
 21
-3.151573
 31
0.0
  0
LINE
  5
118
100
AcDbEntity
  8
DR-100_FRONT_50P_
390
0
 62
     7
100
AcDbLine
 10
39.780518
 20
-12.901883
 30
0.0
 11
39.780518
 21
-13.13167
 31
0.0
  0
LINE
  5
117
100
AcDbEntity
  8
DR-100_FRONT_50P_
390
0
 62
     7
100
AcDbLine
 10
39.324042
 20
-14.669906
 30
0.0
 11
39.324042
 21
-14.360192
 31
0.0
  0
LINE
  5
116
100
AcDbEntity
  8
DR-100_FRONT_50P_
390
0
 62
     7
100
AcDbLine
 10
39.777072
 20
-2.960026
 30
0.0
 11
39.77535
 21
-2.926953
 31
0.0
  0
LINE
  5
115
100
AcDbEntity
  8
DR-100_FRONT_50P_
390
0
 62
     7
100
AcDbLine
 10
39.77156
 20
-2.843582
 30
0.0
 11
39.776383
 21
-2.960371
 31
0.0
  0
LINE
  5
114
100
AcDbEntity
  8
DR-100_FRONT_50P_
390
0
 62
     7
100
AcDbLine
 10
39.772249
 20
-2.860807
 30
0.0
 11
39.776039
 21
-2.930743
 31
0.0
  0
LINE
  5
113
100
AcDbEntity
  8
DR-100_FRONT_50P_
390
0
 62
     7
100
AcDbLine
 10
40.518802
 20
-4.702211
 30
0.0
 11
40.515701
 21
-4.651568
 31
0.0
  0
LINE
  5
112
100
AcDbEntity
  8
DR-100_FRONT_50P_
390
0
 62
     7
100
AcDbLine
 10
40.518802
 20
-11.201728
 30
0.0
 11
40.515701
 21
-11.15143
 31
0.0
  0
LINE
  5
111
100
AcDbEntity
  8
DR-100_FRONT_50P_
390
0
 62
     7
100
AcDbLine
 10
39.071517
 20
-1.042486
 30
0.0
 11
39.062215
 21
-1.033529
 31
0.0
  0
LINE
  5
110
100
AcDbEntity
  8
DR-100_FRONT_50P_
390
0
 62
     7
100
AcDbLine
 10
39.035688
 20
-1.008379
 30
0.0
 11
39.085986
 21
-1.056611
 31
0.0
  0
LINE
  5
10F
100
AcDbEntity
  8
DR-100_FRONT_50P_
390
0
 62
     7
100
AcDbLine
 10
39.052913
 20
-1.024571
 30
0.0
 11
39.040167
 21
-1.012514
 31
0.0
  0
LINE
  5
10E
100
AcDbEntity
  8
DR-100_FRONT_50P_
390
0
 62
     7
100
AcDbLine
 10
39.040167
 20
-1.012514
 30
0.0
 11
39.023975
 21
-0.998044
 31
0.0
  0
LINE
  5
10D
100
AcDbEntity
  8
DR-100_FRONT_50P_
390
0
 62
     7
100
AcDbLine
 10
39.055669
 20
-1.027327
 30
0.0
 11
38.984356
 21
-0.963593
 31
0.0
  0
LINE
  5
10C
100
AcDbEntity
  8
DR-100_FRONT_50P_
390
0
 62
     7
100
AcDbLine
 10
39.040167
 20
-1.013203
 30
0.0
 11
38.975054
 21
-0.95498
 31
0.0
  0
LINE
  5
10B
100
AcDbEntity
  8
DR-100_FRONT_50P_
390
0
 62
     7
100
AcDbLine
 10
39.007783
 20
-0.983575
 30
0.0
 11
38.989868
 21
-0.967727
 31
0.0
  0
LINE
  5
10A
100
AcDbEntity
  8
DR-100_FRONT_50P_
390
0
 62
     7
100
AcDbLine
 10
39.001926
 20
-0.978407
 30
0.0
 11
38.969542
 21
-0.950157
 31
0.0
  0
LINE
  5
109
100
AcDbEntity
  8
DR-100_FRONT_50P_
390
0
 62
     7
100
AcDbLine
 10
38.984356
 20
-0.963593
 30
0.0
 11
38.93578
 21
-0.922941
 31
0.0
  0
LINE
  5
108
100
AcDbEntity
  8
DR-100_FRONT_50P_
390
0
 62
     7
100
AcDbLine
 10
38.925789
 20
-0.915362
 30
0.0
 11
38.951972
 21
-0.936032
 31
0.0
  0
LINE
  5
107
100
AcDbEntity
  8
DR-100_FRONT_50P_
390
0
 62
     7
100
AcDbLine
 10
38.899262
 20
-0.894347
 30
0.0
 11
38.937158
 21
-0.924319
 31
0.0
  0
LINE
  5
106
100
AcDbEntity
  8
DR-100_FRONT_50P_
390
0
 62
     7
100
AcDbLine
 10
38.925445
 20
-0.914673
 30
0.0
 11
38.899951
 21
-0.894691
 31
0.0
  0
LINE
  5
105
100
AcDbEntity
  8
DR-100_FRONT_50P_
390
0
 62
     7
100
AcDbLine
 10
38.866534
 20
-0.870231
 30
0.0
 11
38.906152
 21
-0.899859
 31
0.0
  0
LINE
  5
104
100
AcDbEntity
  8
DR-100_FRONT_50P_
390
0
 62
     7
100
AcDbLine
 10
38.882726
 20
-0.881944
 30
0.0
 11
38.848964
 21
-0.85714
 31
0.0
  0
LINE
  5
103
100
AcDbEntity
  8
DR-100_FRONT_50P_
390
0
 62
     7
100
AcDbLine
 10
38.842074
 20
-0.852661
 30
0.0
 11
38.875491
 21
-0.876432
 31
0.0
  0
LINE
  5
102
100
AcDbEntity
  8
DR-100_FRONT_50P_
390
0
 62
     7
100
AcDbLine
 10
38.847586
 20
-0.856451
 30
0.0
 11
38.817958
 21
-0.83578
 31
0.0
  0
LINE
  5
101
100
AcDbEntity
  8
DR-100_FRONT_50P_
390
0
 62
     7
100
AcDbLine
 10
38.838284
 20
-0.849905
 30
0.0
 11
38.816235
 21
-0.834402
 31
0.0
  0
LINE
  5
100
100
AcDbEntity
  8
DR-100_FRONT_50P_
390
0
 62
     7
100
AcDbLine
 10
38.825537
 20
-0.840948
 30
0.0
 11
38.803833
 21
-0.826478
 31
0.0
  0
LINE
  5
FF
100
AcDbEntity
  8
DR-100_FRONT_50P_
390
0
 62
     7
100
AcDbLine
 10
38.995036
 20
-0.972206
 30
0.0
 11
38.760769
 21
-0.813043
 31
0.0
  0
LINE
  5
FE
100
AcDbEntity
  8
DR-100_FRONT_50P_
390
0
 62
     7
100
AcDbLine
 10
38.792809
 20
-0.818555
 30
0.0
 11
38.828982
 21
-0.843359
 31
0.0
  0
LINE
  5
FD
100
AcDbEntity
  8
DR-100_FRONT_50P_
390
0
 62
     7
100
AcDbLine
 10
38.765248
 20
-0.800985
 30
0.0
 11
38.794531
 21
-0.820277
 31
0.0
  0
LINE
  5
FC
100
AcDbEntity
  8
DR-100_FRONT_50P_
390
0
 62
     7
100
AcDbLine
 10
38.781784
 20
-0.811664
 30
0.0
 11
38.764903
 21
-0.800296
 31
0.0
  0
LINE
  5
FB
100
AcDbEntity
  8
DR-100_FRONT_50P_
390
0
 62
     7
100
AcDbLine
 10
40.430607
 20
-5.651335
 30
0.0
 11
40.486418
 21
-5.401565
 31
0.0
  0
LINE
  5
FA
100
AcDbEntity
  8
DR-100_FRONT_50P_
390
0
 62
     7
100
AcDbLine
 10
38.039022
 20
-12.901883
 30
0.0
 11
38.039022
 21
-12.751676
 31
0.0
  0
LINE
  5
F9
100
AcDbEntity
  8
DR-100_FRONT_50P_
390
0
 62
     7
100
AcDbLine
 10
37.846441
 20
-16.00178
 30
0.0
 11
37.846441
 21
-16.251893
 31
0.0
  0
LINE
  5
F8
100
AcDbEntity
  8
DR-100_FRONT_50P_
390
0
 62
     7
100
AcDbLine
 10
38.797287
 20
-0.821655
 30
0.0
 11
38.742166
 21
-0.78686
 31
0.0
  0
LINE
  5
F7
100
AcDbEntity
  8
DR-100_FRONT_50P_
390
0
 62
     7
100
AcDbLine
 10
38.741821
 20
-0.786171
 30
0.0
 11
38.774205
 21
-0.806841
 31
0.0
  0
LINE
  5
F6
100
AcDbEntity
  8
DR-100_FRONT_50P_
390
0
 62
     7
100
AcDbLine
 10
38.652249
 20
-0.733461
 30
0.0
 11
38.641569
 21
-0.727604
 31
0.0
  0
LINE
  5
F5
100
AcDbEntity
  8
DR-100_FRONT_50P_
390
0
 62
     7
100
AcDbLine
 10
38.641569
 20
-0.727604
 30
0.0
 11
38.630545
 21
-0.721748
 31
0.0
  0
LINE
  5
F4
100
AcDbEntity
  8
DR-100_FRONT_50P_
390
0
 62
     7
100
AcDbLine
 10
38.630545
 20
-0.721748
 30
0.0
 11
38.619865
 21
-0.715891
 31
0.0
  0
LINE
  5
F3
100
AcDbEntity
  8
DR-100_FRONT_50P_
390
0
 62
     7
100
AcDbLine
 10
38.619865
 20
-0.715891
 30
0.0
 11
38.609185
 21
-0.710379
 31
0.0
  0
LINE
  5
F2
100
AcDbEntity
  8
DR-100_FRONT_50P_
390
0
 62
     7
100
AcDbLine
 10
38.598161
 20
-0.704867
 30
0.0
 11
38.596094
 21
-0.703833
 31
0.0
  0
LINE
  5
F1
100
AcDbEntity
  8
DR-100_FRONT_50P_
390
0
 62
     7
100
AcDbLine
 10
38.609185
 20
-0.710379
 30
0.0
 11
38.591271
 21
-0.701077
 31
0.0
  0
LINE
  5
F0
100
AcDbEntity
  8
DR-100_FRONT_50P_
390
0
 62
     7
100
AcDbLine
 10
38.603673
 20
-0.707623
 30
0.0
 11
38.578179
 21
-0.694531
 31
0.0
  0
LINE
  5
EF
100
AcDbEntity
  8
DR-100_FRONT_50P_
390
0
 62
     7
100
AcDbLine
 10
38.566466
 20
-0.688675
 30
0.0
 11
38.589893
 21
-0.700388
 31
0.0
  0
LINE
  5
EE
100
AcDbEntity
  8
DR-100_FRONT_50P_
390
0
 62
     7
100
AcDbLine
 10
38.576112
 20
-0.693498
 30
0.0
 11
38.554753
 21
-0.682818
 31
0.0
  0
LINE
  5
ED
100
AcDbEntity
  8
DR-100_FRONT_50P_
390
0
 62
     7
100
AcDbLine
 10
38.596094
 20
-0.703833
 30
0.0
 11
38.502043
 21
-0.658013
 31
0.0
  0
LINE
  5
EC
100
AcDbEntity
  8
DR-100_FRONT_50P_
390
0
 62
     7
100
AcDbLine
 10
38.525814
 20
-0.669038
 30
0.0
 11
38.544417
 21
-0.67765
 31
0.0
  0
LINE
  5
EB
100
AcDbEntity
  8
DR-100_FRONT_50P_
390
0
 62
     7
100
AcDbLine
 10
38.537183
 20
-0.67455
 30
0.0
 11
38.508244
 21
-0.661114
 31
0.0
  0
LINE
  5
EA
100
AcDbEntity
  8
DR-100_FRONT_50P_
390
0
 62
     7
100
AcDbLine
 10
38.41247
 20
-0.619428
 30
0.0
 11
38.587826
 21
-0.701421
 31
0.0
  0
LINE
  5
E9
100
AcDbEntity
  8
DR-100_FRONT_50P_
390
0
 62
     7
100
AcDbLine
 10
38.400412
 20
-0.614605
 30
0.0
 11
38.603673
 21
-0.707623
 31
0.0
  0
LINE
  5
E8
100
AcDbEntity
  8
DR-100_FRONT_50P_
390
0
 62
     7
100
AcDbLine
 10
38.534427
 20
-0.673172
 30
0.0
 11
38.470003
 21
-0.643888
 31
0.0
  0
LINE
  5
E7
100
AcDbEntity
  8
DR-100_FRONT_50P_
390
0
 62
     7
100
AcDbLine
 10
38.508244
 20
-0.661114
 30
0.0
 11
38.465525
 21
-0.641821
 31
0.0
  0
LINE
  5
E6
100
AcDbEntity
  8
DR-100_FRONT_50P_
390
0
 62
     7
100
AcDbLine
 10
38.59885
 20
-0.718991
 30
0.0
 11
38.381464
 21
-0.622184
 31
0.0
  0
LINE
  5
E5
100
AcDbEntity
  8
DR-100_FRONT_50P_
390
0
 62
     7
100
AcDbLine
 10
38.465869
 20
-0.642166
 30
0.0
 11
38.484817
 21
-0.650434
 31
0.0
  0
LINE
  5
E4
100
AcDbEntity
  8
DR-100_FRONT_50P_
390
0
 62
     7
100
AcDbLine
 10
38.477238
 20
-0.646989
 30
0.0
 11
38.456912
 21
-0.638032
 31
0.0
  0
LINE
  5
E3
100
AcDbEntity
  8
DR-100_FRONT_50P_
390
0
 62
     7
100
AcDbLine
 10
38.446232
 20
-0.633209
 30
0.0
 11
38.468281
 21
-0.643199
 31
0.0
  0
LINE
  5
E2
100
AcDbEntity
  8
DR-100_FRONT_50P_
390
0
 62
     7
100
AcDbLine
 10
38.459323
 20
-0.639065
 30
0.0
 11
38.435552
 21
-0.62873
 31
0.0
  0
LINE
  5
E1
100
AcDbEntity
  8
DR-100_FRONT_50P_
390
0
 62
     7
100
AcDbLine
 10
38.596094
 20
-0.703833
 30
0.0
 11
38.384909
 21
-0.613916
 31
0.0
  0
LINE
  5
E0
100
AcDbEntity
  8
DR-100_FRONT_50P_
390
0
 62
     7
100
AcDbLine
 10
38.5141
 20
-0.663525
 30
0.0
 11
38.386976
 21
-0.609437
 31
0.0
  0
LINE
  5
DF
100
AcDbEntity
  8
DR-100_FRONT_50P_
390
0
 62
     7
100
AcDbLine
 10
38.437275
 20
-0.629763
 30
0.0
 11
38.410748
 21
-0.618739
 31
0.0
  0
LINE
  5
DE
100
AcDbEntity
  8
DR-100_FRONT_50P_
390
0
 62
     7
100
AcDbLine
 10
38.403168
 20
-0.615639
 30
0.0
 11
38.425562
 21
-0.62494
 31
0.0
  0
LINE
  5
DD
100
AcDbEntity
  8
DR-100_FRONT_50P_
390
0
 62
     7
100
AcDbLine
 10
38.413848
 20
-0.620117
 30
0.0
 11
38.387665
 21
-0.609437
 31
0.0
  0
LINE
  5
DC
100
AcDbEntity
  8
DR-100_FRONT_50P_
390
0
 62
     7
100
AcDbLine
 10
38.524091
 20
-0.676617
 30
0.0
 11
38.466558
 21
-0.653879
 31
0.0
  0
LINE
  5
DB
100
AcDbEntity
  8
DR-100_FRONT_50P_
390
0
 62
     7
100
AcDbLine
 10
38.396623
 20
-0.613227
 30
0.0
 11
38.378708
 21
-0.605992
 31
0.0
  0
LINE
  5
DA
100
AcDbEntity
  8
DR-100_FRONT_50P_
390
0
 62
     7
100
AcDbLine
 10
38.400412
 20
-0.614605
 30
0.0
 11
38.399034
 21
-0.613916
 31
0.0
  0
LINE
  5
D9
100
AcDbEntity
  8
DR-100_FRONT_50P_
390
0
 62
     7
100
AcDbLine
 10
38.39869
 20
-0.613916
 30
0.0
 11
38.386976
 21
-0.609437
 31
0.0
  0
LINE
  5
D8
100
AcDbEntity
  8
DR-100_FRONT_50P_
390
0
 62
     7
100
AcDbLine
 10
34.905363
 20
-17.541393
 30
0.0
 11
34.905363
 21
-17.635099
 31
0.0
  0
LINE
  5
D7
100
AcDbEntity
  8
DR-100_FRONT_50P_
390
0
 62
     7
100
AcDbLine
 10
34.605295
 20
-0.22462
 30
0.0
 11
34.605295
 21
-0.201538
 31
0.0
  0
LINE
  5
D6
100
AcDbEntity
  8
DR-100_FRONT_50P_
390
0
 62
     7
100
AcDbLine
 10
33.95555
 20
-17.765668
 30
0.0
 11
33.95555
 21
-17.831814
 31
0.0
  0
LINE
  5
D5
100
AcDbEntity
  8
DR-100_FRONT_50P_
390
0
 62
     7
100
AcDbLine
 10
33.972776
 20
-17.930344
 30
0.0
 11
33.95555
 21
-17.831814
 31
0.0
  0
LINE
  5
D4
100
AcDbEntity
  8
DR-100_FRONT_50P_
390
0
 62
     7
100
AcDbLine
 10
32.955094
 20
-0.401354
 30
0.0
 11
32.955094
 21
-0.201538
 31
0.0
  0
LINE
  5
D3
100
AcDbEntity
  8
DR-100_FRONT_50P_
390
0
 62
     7
100
AcDbLine
 10
32.569933
 20
-18.051267
 30
0.0
 11
32.569933
 21
-17.951359
 31
0.0
  0
LINE
  5
D2
100
AcDbEntity
  8
DR-100_FRONT_50P_
390
0
 62
     7
100
AcDbLine
 10
31.880225
 20
-17.901405
 30
0.0
 11
31.880225
 21
-18.001657
 31
0.0
  0
LINE
  5
D1
100
AcDbEntity
  8
DR-100_FRONT_50P_
390
0
 62
     7
100
AcDbLine
 10
37.576345
 20
-0.422713
 30
0.0
 11
37.588748
 21
-0.424091
 31
0.0
  0
LINE
  5
D0
100
AcDbEntity
  8
DR-100_FRONT_50P_
390
0
 62
     7
100
AcDbLine
 10
37.574967
 20
-0.423402
 30
0.0
 11
37.491252
 21
-0.415479
 31
0.0
  0
LINE
  5
CF
100
AcDbEntity
  8
DR-100_FRONT_50P_
390
0
 62
     7
100
AcDbLine
 10
37.543962
 20
-0.419613
 30
0.0
 11
37.518812
 21
-0.417546
 31
0.0
  0
LINE
  5
CE
100
AcDbEntity
  8
DR-100_FRONT_50P_
390
0
 62
     7
100
AcDbLine
 10
37.523291
 20
-0.41789
 30
0.0
 11
37.490907
 21
-0.415134
 31
0.0
  0
LINE
  5
CD
100
AcDbEntity
  8
DR-100_FRONT_50P_
390
0
 62
     7
100
AcDbLine
 10
37.473337
 20
-0.413756
 30
0.0
 11
37.527081
 21
-0.418235
 31
0.0
  0
LINE
  5
CC
100
AcDbEntity
  8
DR-100_FRONT_50P_
390
0
 62
     7
100
AcDbLine
 10
37.473337
 20
-0.413756
 30
0.0
 11
37.455423
 21
-0.412378
 31
0.0
  0
LINE
  5
CB
100
AcDbEntity
  8
DR-100_FRONT_50P_
390
0
 62
     7
100
AcDbLine
 10
37.455423
 20
-0.412378
 30
0.0
 11
37.427517
 21
-0.410655
 31
0.0
  0
LINE
  5
CA
100
AcDbEntity
  8
DR-100_FRONT_50P_
390
0
 62
     7
100
AcDbLine
 10
37.427517
 20
-0.410655
 30
0.0
 11
37.406847
 21
-0.409277
 31
0.0
  0
LINE
  5
C9
100
AcDbEntity
  8
DR-100_FRONT_50P_
390
0
 62
     7
100
AcDbLine
 10
37.612863
 20
-0.429603
 30
0.0
 11
37.490563
 21
-0.422369
 31
0.0
  0
LINE
  5
C8
100
AcDbEntity
  8
DR-100_FRONT_50P_
390
0
 62
     7
100
AcDbLine
 10
35.129983
 20
-0.201538
 30
0.0
 11
36.118381
 21
-0.244946
 31
0.0
  0
LINE
  5
C7
100
AcDbEntity
  8
DR-100_FRONT_50P_
390
0
 62
     7
100
AcDbLine
 10
37.544651
 20
-0.419957
 30
0.0
 11
37.490907
 21
-0.417546
 31
0.0
  0
LINE
  5
C6
100
AcDbEntity
  8
DR-100_FRONT_50P_
390
0
 62
     7
100
AcDbLine
 10
33.104956
 20
-0.051332
 30
0.0
 11
34.455089
 21
-0.051332
 31
0.0
  0
LINE
  5
C5
100
AcDbEntity
  8
DR-100_FRONT_50P_
390
0
 62
     7
100
AcDbLine
 10
32.955094
 20
-0.201538
 30
0.0
 11
34.605295
 21
-0.201538
 31
0.0
  0
LINE
  5
C4
100
AcDbEntity
  8
DR-100_FRONT_50P_
390
0
 62
     7
100
AcDbLine
 10
13.880634
 20
-0.201538
 30
0.0
 11
20.579967
 21
-0.201538
 31
0.0
  0
LINE
  5
C3
100
AcDbEntity
  8
DR-100_FRONT_50P_
390
0
 62
     7
100
AcDbLine
 10
5.880433
 20
-0.201538
 30
0.0
 11
9.580294
 21
-0.201538
 31
0.0
  0
LINE
  5
C2
100
AcDbEntity
  8
DR-100_FRONT_50P_
390
0
 62
     7
100
AcDbLine
 10
36.118381
 20
-0.244946
 30
0.0
 11
34.142274
 21
-0.244946
 31
0.0
  0
LINE
  5
C1
100
AcDbEntity
  8
DR-100_FRONT_50P_
390
0
 62
     7
100
AcDbLine
 10
24.61693
 20
-0.301446
 30
0.0
 11
32.955094
 21
-0.301446
 31
0.0
  0
LINE
  5
C0
100
AcDbEntity
  8
DR-100_FRONT_50P_
390
0
 62
     7
100
AcDbLine
 10
20.720527
 20
-0.301446
 30
0.0
 11
21.608672
 21
-0.301446
 31
0.0
  0
LINE
  5
BF
100
AcDbEntity
  8
DR-100_FRONT_50P_
390
0
 62
     7
100
AcDbLine
 10
9.720509
 20
-0.301446
 30
0.0
 11
13.730256
 21
-0.301446
 31
0.0
  0
LINE
  5
BE
100
AcDbEntity
  8
DR-100_FRONT_50P_
390
0
 62
     7
100
AcDbLine
 10
5.63032
 20
-0.301446
 30
0.0
 11
5.740218
 21
-0.301446
 31
0.0
  0
LINE
  5
BD
100
AcDbEntity
  8
DR-100_FRONT_50P_
390
0
 62
     7
100
AcDbLine
 10
5.736945
 20
-0.318327
 30
0.0
 11
5.608788
 21
-0.318327
 31
0.0
  0
LINE
  5
BC
100
AcDbEntity
  8
DR-100_FRONT_50P_
390
0
 62
     7
100
AcDbLine
 10
13.736974
 20
-0.318327
 30
0.0
 11
13.608816
 21
-0.318327
 31
0.0
  0
LINE
  5
BB
100
AcDbEntity
  8
DR-100_FRONT_50P_
390
0
 62
     7
100
AcDbLine
 10
24.666195
 20
-0.318327
 30
0.0
 11
21.608672
 21
-0.318327
 31
0.0
  0
LINE
  5
BA
100
AcDbEntity
  8
DR-100_FRONT_50P_
390
0
 62
     7
100
AcDbLine
 10
13.730256
 20
-0.3514
 30
0.0
 11
20.730518
 21
-0.3514
 31
0.0
  0
LINE
  5
B9
100
AcDbEntity
  8
DR-100_FRONT_50P_
390
0
 62
     7
100
AcDbLine
 10
5.7304
 20
-0.3514
 30
0.0
 11
9.730155
 21
-0.3514
 31
0.0
  0
LINE
  5
B8
100
AcDbEntity
  8
DR-100_FRONT_50P_
390
0
 62
     7
100
AcDbLine
 10
36.255496
 20
-0.394463
 30
0.0
 11
34.005504
 21
-0.394463
 31
0.0
  0
LINE
  5
B7
100
AcDbEntity
  8
DR-100_FRONT_50P_
390
0
 62
     7
100
AcDbLine
 10
37.139507
 20
-0.401354
 30
0.0
 11
38.355282
 21
-0.401354
 31
0.0
  0
LINE
  5
B6
100
AcDbEntity
  8
DR-100_FRONT_50P_
390
0
 62
     7
100
AcDbLine
 10
37.13055
 20
-0.401354
 30
0.0
 11
3.730177
 21
-0.401354
 31
0.0
  0
LINE
  5
B5
100
AcDbEntity
  8
DR-100_FRONT_50P_
390
0
 62
     7
100
AcDbLine
 10
35.129983
 20
-0.201538
 30
0.0
 11
34.142274
 21
-0.244946
 31
0.0
  0
LINE
  5
B4
100
AcDbEntity
  8
DR-100_FRONT_50P_
390
0
 62
     7
100
AcDbLine
 10
21.608672
 20
-0.318327
 30
0.0
 11
23.230279
 21
-0.201538
 31
0.0
  0
LINE
  5
B3
100
AcDbEntity
  8
DR-100_FRONT_50P_
390
0
 62
     7
100
AcDbLine
 10
29.880691
 20
-16.651525
 30
0.0
 11
29.880691
 21
-16.500974
 31
0.0
  0
LINE
  5
B2
100
AcDbEntity
  8
DR-100_FRONT_50P_
390
0
 62
     7
100
AcDbLine
 10
29.880691
 20
-17.901405
 30
0.0
 11
29.880691
 21
-18.001657
 31
0.0
  0
LINE
  5
B1
100
AcDbEntity
  8
DR-100_FRONT_50P_
390
0
 62
     7
100
AcDbLine
 10
29.580279
 20
-0.301446
 30
0.0
 11
29.580279
 21
-0.401354
 31
0.0
  0
LINE
  5
B0
100
AcDbEntity
  8
DR-100_FRONT_50P_
390
0
 62
     7
100
AcDbLine
 10
26.580634
 20
-0.301446
 30
0.0
 11
26.580634
 21
-0.401354
 31
0.0
  0
LINE
  5
AF
100
AcDbEntity
  8
DR-100_FRONT_50P_
390
0
 62
     7
100
AcDbLine
 10
35.003548
 20
-14.297146
 30
0.0
 11
34.889171
 21
-14.198961
 31
0.0
  0
LINE
  5
AE
100
AcDbEntity
  8
DR-100_FRONT_50P_
390
0
 62
     7
100
AcDbLine
 10
23.532414
 20
-3.401343
 30
0.0
 11
40.230447
 21
-3.401343
 31
0.0
  0
LINE
  5
AD
100
AcDbEntity
  8
DR-100_FRONT_50P_
390
0
 62
     7
100
AcDbLine
 10
0.530372
 20
-3.401343
 30
0.0
 11
17.227889
 21
-3.401343
 31
0.0
  0
LINE
  5
AC
100
AcDbEntity
  8
DR-100_FRONT_50P_
390
0
 62
     7
100
AcDbLine
 10
23.532414
 20
-3.551549
 30
0.0
 11
40.380653
 21
-3.551549
 31
0.0
  0
LINE
  5
AB
100
AcDbEntity
  8
DR-100_FRONT_50P_
390
0
 62
     7
100
AcDbLine
 10
0.380511
 20
-3.551549
 30
0.0
 11
17.227889
 21
-3.551549
 31
0.0
  0
LINE
  5
AA
100
AcDbEntity
  8
DR-100_FRONT_50P_
390
0
 62
     7
100
AcDbLine
 10
40.380653
 20
-4.15134
 30
0.0
 11
40.430607
 21
-4.15134
 31
0.0
  0
LINE
  5
A9
100
AcDbEntity
  8
DR-100_FRONT_50P_
390
0
 62
     7
100
AcDbLine
 10
0.380511
 20
-4.15134
 30
0.0
 11
0.330385
 21
-4.15134
 31
0.0
  0
LINE
  5
A8
100
AcDbEntity
  8
DR-100_FRONT_50P_
390
0
 62
     7
100
AcDbLine
 10
40.482284
 20
-4.401454
 30
0.0
 11
40.486418
 21
-4.401454
 31
0.0
  0
LINE
  5
A7
100
AcDbEntity
  8
DR-100_FRONT_50P_
390
0
 62
     7
100
AcDbLine
 10
0.274402
 20
-4.401454
 30
0.0
 11
0.278364
 21
-4.401454
 31
0.0
  0
LINE
  5
A6
100
AcDbEntity
  8
DR-100_FRONT_50P_
390
0
 62
     7
100
AcDbLine
 10
0.259243
 20
-4.526511
 30
0.0
 11
0.230305
 21
-4.526511
 31
0.0
  0
LINE
  5
A5
100
AcDbEntity
  8
DR-100_FRONT_50P_
390
0
 62
     7
100
AcDbLine
 10
40.482284
 20
-4.751476
 30
0.0
 11
40.515701
 21
-4.751476
 31
0.0
  0
LINE
  5
A4
100
AcDbEntity
  8
DR-100_FRONT_50P_
390
0
 62
     7
100
AcDbLine
 10
0.245119
 20
-4.751476
 30
0.0
 11
0.278364
 21
-4.751476
 31
0.0
  0
LINE
  5
A3
100
AcDbEntity
  8
DR-100_FRONT_50P_
390
0
 62
     7
100
AcDbLine
 10
0.278364
 20
-5.051544
 30
0.0
 11
0.245119
 21
-5.051544
 31
0.0
  0
LINE
  5
A2
100
AcDbEntity
  8
DR-100_FRONT_50P_
390
0
 62
     7
100
AcDbLine
 10
40.515701
 20
-5.051544
 30
0.0
 11
40.482284
 21
-5.051544
 31
0.0
  0
LINE
  5
A1
100
AcDbEntity
  8
DR-100_FRONT_50P_
390
0
 62
     7
100
AcDbLine
 10
0.278364
 20
-5.401565
 30
0.0
 11
0.274402
 21
-5.401565
 31
0.0
  0
LINE
  5
A0
100
AcDbEntity
  8
DR-100_FRONT_50P_
390
0
 62
     7
100
AcDbLine
 10
40.486418
 20
-5.401565
 30
0.0
 11
40.482284
 21
-5.401565
 31
0.0
  0
LINE
  5
9F
100
AcDbEntity
  8
DR-100_FRONT_50P_
390
0
 62
     7
100
AcDbLine
 10
40.380653
 20
-5.651335
 30
0.0
 11
40.430607
 21
-5.651335
 31
0.0
  0
LINE
  5
9E
100
AcDbEntity
  8
DR-100_FRONT_50P_
390
0
 62
     7
100
AcDbLine
 10
0.380511
 20
-5.651335
 30
0.0
 11
0.330385
 21
-5.651335
 31
0.0
  0
LINE
  5
9D
100
AcDbEntity
  8
DR-100_FRONT_50P_
390
0
 62
     7
100
AcDbLine
 10
23.532414
 20
-3.401343
 30
0.0
 11
23.532414
 21
-3.551549
 31
0.0
  0
LINE
  5
9C
100
AcDbEntity
  8
DR-100_FRONT_50P_
390
0
 62
     7
100
AcDbLine
 10
18.804192
 20
-3.026516
 30
0.0
 11
18.871716
 21
-3.160186
 31
0.0
  0
LINE
  5
9B
100
AcDbEntity
  8
DR-100_FRONT_50P_
390
0
 62
     7
100
AcDbLine
 10
0.380511
 20
-7.276386
 30
0.0
 11
0.230305
 21
-7.276386
 31
0.0
  0
LINE
  5
9A
100
AcDbEntity
  8
DR-100_FRONT_50P_
390
0
 62
     7
100
AcDbLine
 10
20.953071
 20
-7.401443
 30
0.0
 11
21.113268
 21
-7.401443
 31
0.0
  0
LINE
  5
99
100
AcDbEntity
  8
DR-100_FRONT_50P_
390
0
 62
     7
100
AcDbLine
 10
19.647552
 20
-7.401443
 30
0.0
 11
19.807576
 21
-7.401443
 31
0.0
  0
LINE
  5
98
100
AcDbEntity
  8
DR-100_FRONT_50P_
390
0
 62
     7
100
AcDbLine
 10
40.380653
 20
-7.426592
 30
0.0
 11
40.430607
 21
-7.426592
 31
0.0
  0
LINE
  5
97
100
AcDbEntity
  8
DR-100_FRONT_50P_
390
0
 62
     7
100
AcDbLine
 10
40.380653
 20
-7.876522
 30
0.0
 11
40.430607
 21
-7.876522
 31
0.0
  0
LINE
  5
96
100
AcDbEntity
  8
DR-100_FRONT_50P_
390
0
 62
     7
100
AcDbLine
 10
40.380653
 20
-8.426359
 30
0.0
 11
40.430607
 21
-8.426359
 31
0.0
  0
LINE
  5
95
100
AcDbEntity
  8
DR-100_FRONT_50P_
390
0
 62
     7
100
AcDbLine
 10
40.380653
 20
-8.876633
 30
0.0
 11
40.430607
 21
-8.876633
 31
0.0
  0
LINE
  5
94
100
AcDbEntity
  8
DR-100_FRONT_50P_
390
0
 62
     7
100
AcDbLine
 10
20.730518
 20
-0.401354
 30
0.0
 11
20.730518
 21
-0.3514
 31
0.0
  0
LINE
  5
93
100
AcDbEntity
  8
DR-100_FRONT_50P_
390
0
 62
     7
100
AcDbLine
 10
40.380653
 20
-10.651546
 30
0.0
 11
40.430607
 21
-10.651546
 31
0.0
  0
LINE
  5
92
100
AcDbEntity
  8
DR-100_FRONT_50P_
390
0
 62
     7
100
AcDbLine
 10
0.380511
 20
-10.651546
 30
0.0
 11
0.330385
 21
-10.651546
 31
0.0
  0
LINE
  5
91
100
AcDbEntity
  8
DR-100_FRONT_50P_
390
0
 62
     7
100
AcDbLine
 10
21.956627
 20
-3.026516
 30
0.0
 11
21.889103
 21
-3.160186
 31
0.0
  0
LINE
  5
90
100
AcDbEntity
  8
DR-100_FRONT_50P_
390
0
 62
     7
100
AcDbLine
 10
40.482284
 20
-10.90166
 30
0.0
 11
40.486418
 21
-10.90166
 31
0.0
  0
LINE
  5
8F
100
AcDbEntity
  8
DR-100_FRONT_50P_
390
0
 62
     7
100
AcDbLine
 10
0.274402
 20
-10.90166
 30
0.0
 11
0.278364
 21
-10.90166
 31
0.0
  0
LINE
  5
8E
100
AcDbEntity
  8
DR-100_FRONT_50P_
390
0
 62
     7
100
AcDbLine
 10
40.482284
 20
-11.251337
 30
0.0
 11
40.515701
 21
-11.251337
 31
0.0
  0
LINE
  5
8D
100
AcDbEntity
  8
DR-100_FRONT_50P_
390
0
 62
     7
100
AcDbLine
 10
0.245119
 20
-11.251337
 30
0.0
 11
0.278364
 21
-11.251337
 31
0.0
  0
LINE
  5
8C
100
AcDbEntity
  8
DR-100_FRONT_50P_
390
0
 62
     7
100
AcDbLine
 10
0.278364
 20
-11.551405
 30
0.0
 11
0.245119
 21
-11.551405
 31
0.0
  0
LINE
  5
8B
100
AcDbEntity
  8
DR-100_FRONT_50P_
390
0
 62
     7
100
AcDbLine
 10
40.515701
 20
-11.551405
 30
0.0
 11
40.482284
 21
-11.551405
 31
0.0
  0
LINE
  5
8A
100
AcDbEntity
  8
DR-100_FRONT_50P_
390
0
 62
     7
100
AcDbLine
 10
0.278364
 20
-11.901082
 30
0.0
 11
0.274402
 21
-11.901082
 31
0.0
  0
LINE
  5
89
100
AcDbEntity
  8
DR-100_FRONT_50P_
390
0
 62
     7
100
AcDbLine
 10
40.486418
 20
-11.901082
 30
0.0
 11
40.482284
 21
-11.901082
 31
0.0
  0
LINE
  5
88
100
AcDbEntity
  8
DR-100_FRONT_50P_
390
0
 62
     7
100
AcDbLine
 10
40.380653
 20
-12.151196
 30
0.0
 11
40.430607
 21
-12.151196
 31
0.0
  0
LINE
  5
87
100
AcDbEntity
  8
DR-100_FRONT_50P_
390
0
 62
     7
100
AcDbLine
 10
0.380511
 20
-12.151196
 30
0.0
 11
0.330385
 21
-12.151196
 31
0.0
  0
LINE
  5
86
100
AcDbEntity
  8
DR-100_FRONT_50P_
390
0
 62
     7
100
AcDbLine
 10
18.730467
 20
-0.401354
 30
0.0
 11
18.730467
 21
-0.201538
 31
0.0
  0
LINE
  5
85
100
AcDbEntity
  8
DR-100_FRONT_50P_
390
0
 62
     7
100
AcDbLine
 10
17.227889
 20
-3.401343
 30
0.0
 11
17.227889
 21
-3.551549
 31
0.0
  0
LINE
  5
84
100
AcDbEntity
  8
DR-100_FRONT_50P_
390
0
 62
     7
100
AcDbLine
 10
2.721798
 20
-12.751676
 30
0.0
 11
0.380511
 21
-12.751676
 31
0.0
  0
LINE
  5
83
100
AcDbEntity
  8
DR-100_FRONT_50P_
390
0
 62
     7
100
AcDbLine
 10
40.380653
 20
-12.751676
 30
0.0
 11
38.039022
 21
-12.751676
 31
0.0
  0
LINE
  5
82
100
AcDbEntity
  8
DR-100_FRONT_50P_
390
0
 62
     7
100
AcDbLine
 10
2.721798
 20
-12.901883
 30
0.0
 11
0.530372
 21
-12.901883
 31
0.0
  0
LINE
  5
81
100
AcDbEntity
  8
DR-100_FRONT_50P_
390
0
 62
     7
100
AcDbLine
 10
40.230447
 20
-12.901883
 30
0.0
 11
38.039022
 21
-12.901883
 31
0.0
  0
LINE
  5
80
100
AcDbEntity
  8
DR-100_FRONT_50P_
390
0
 62
     7
100
AcDbLine
 10
1.157035
 20
-13.901649
 30
0.0
 11
1.281403
 21
-13.901649
 31
0.0
  0
LINE
  5
7F
100
AcDbEntity
  8
DR-100_FRONT_50P_
390
0
 62
     7
100
AcDbLine
 10
39.347125
 20
-14.32643
 30
0.0
 11
39.220345
 21
-14.32643
 31
0.0
  0
LINE
  5
7E
100
AcDbEntity
  8
DR-100_FRONT_50P_
390
0
 62
     7
100
AcDbLine
 10
15.730478
 20
-0.401354
 30
0.0
 11
15.730478
 21
-0.201538
 31
0.0
  0
LINE
  5
7D
100
AcDbEntity
  8
DR-100_FRONT_50P_
390
0
 62
     7
100
AcDbLine
 10
2.054138
 20
-15.151185
 30
0.0
 11
2.154046
 21
-15.151185
 31
0.0
  0
LINE
  5
7C
100
AcDbEntity
  8
DR-100_FRONT_50P_
390
0
 62
     7
100
AcDbLine
 10
2.172994
 20
-15.151185
 30
0.0
 11
2.054138
 21
-15.151185
 31
0.0
  0
LINE
  5
7B
100
AcDbEntity
  8
DR-100_FRONT_50P_
390
0
 62
     7
100
AcDbLine
 10
0.530372
 20
-15.401299
 30
0.0
 11
2.054138
 21
-15.401299
 31
0.0
  0
LINE
  5
7A
100
AcDbEntity
  8
DR-100_FRONT_50P_
390
0
 62
     7
100
AcDbLine
 10
2.385212
 20
-15.401299
 30
0.0
 11
2.054138
 21
-15.401299
 31
0.0
  0
LINE
  5
79
100
AcDbEntity
  8
DR-100_FRONT_50P_
390
0
 62
     7
100
AcDbLine
 10
37.731719
 20
-16.00178
 30
0.0
 11
37.848164
 21
-16.00178
 31
0.0
  0
LINE
  5
78
100
AcDbEntity
  8
DR-100_FRONT_50P_
390
0
 62
     7
100
AcDbLine
 10
37.848164
 20
-16.251893
 30
0.0
 11
40.230447
 21
-16.251893
 31
0.0
  0
LINE
  5
77
100
AcDbEntity
  8
DR-100_FRONT_50P_
390
0
 62
     7
100
AcDbLine
 10
5.757616
 20
-14.297146
 30
0.0
 11
5.871304
 21
-14.198961
 31
0.0
  0
LINE
  5
76
100
AcDbEntity
  8
DR-100_FRONT_50P_
390
0
 62
     7
100
AcDbLine
 10
13.730256
 20
-0.401354
 30
0.0
 11
13.730256
 21
-0.3514
 31
0.0
  0
LINE
  5
75
100
AcDbEntity
  8
DR-100_FRONT_50P_
390
0
 62
     7
100
AcDbLine
 10
29.880691
 20
-16.500974
 30
0.0
 11
10.880301
 21
-16.500974
 31
0.0
  0
LINE
  5
74
100
AcDbEntity
  8
DR-100_FRONT_50P_
390
0
 62
     7
100
AcDbLine
 10
29.880691
 20
-16.651525
 30
0.0
 11
10.880301
 21
-16.651525
 31
0.0
  0
LINE
  5
73
100
AcDbEntity
  8
DR-100_FRONT_50P_
390
0
 62
     7
100
AcDbLine
 10
32.569933
 20
-17.901405
 30
0.0
 11
8.190542
 21
-17.901405
 31
0.0
  0
LINE
  5
72
100
AcDbEntity
  8
DR-100_FRONT_50P_
390
0
 62
     7
100
AcDbLine
 10
8.88025
 20
-17.951359
 30
0.0
 11
8.190542
 21
-17.951359
 31
0.0
  0
LINE
  5
71
100
AcDbEntity
  8
DR-100_FRONT_50P_
390
0
 62
     7
100
AcDbLine
 10
29.880691
 20
-17.951359
 30
0.0
 11
10.880301
 21
-17.951359
 31
0.0
  0
LINE
  5
70
100
AcDbEntity
  8
DR-100_FRONT_50P_
390
0
 62
     7
100
AcDbLine
 10
32.569933
 20
-17.951359
 30
0.0
 11
31.880225
 21
-17.951359
 31
0.0
  0
LINE
  5
6F
100
AcDbEntity
  8
DR-100_FRONT_50P_
390
0
 62
     7
100
AcDbLine
 10
29.880691
 20
-18.001657
 30
0.0
 11
31.880225
 21
-18.001657
 31
0.0
  0
LINE
  5
6E
100
AcDbEntity
  8
DR-100_FRONT_50P_
390
0
 62
     7
100
AcDbLine
 10
8.88025
 20
-18.001657
 30
0.0
 11
10.880301
 21
-18.001657
 31
0.0
  0
LINE
  5
6D
100
AcDbEntity
  8
DR-100_FRONT_50P_
390
0
 62
     7
100
AcDbLine
 10
8.940195
 20
-18.051267
 30
0.0
 11
8.190542
 21
-18.051267
 31
0.0
  0
LINE
  5
6C
100
AcDbEntity
  8
DR-100_FRONT_50P_
390
0
 62
     7
100
AcDbLine
 10
29.940291
 20
-18.051267
 30
0.0
 11
10.820528
 21
-18.051267
 31
0.0
  0
LINE
  5
6B
100
AcDbEntity
  8
DR-100_FRONT_50P_
390
0
 62
     7
100
AcDbLine
 10
32.569933
 20
-18.051267
 30
0.0
 11
31.82028
 21
-18.051267
 31
0.0
  0
LINE
  5
6A
100
AcDbEntity
  8
DR-100_FRONT_50P_
390
0
 62
     7
100
AcDbLine
 10
22.405178
 20
-18.151175
 30
0.0
 11
18.355296
 21
-18.151175
 31
0.0
  0
LINE
  5
69
100
AcDbEntity
  8
DR-100_FRONT_50P_
390
0
 62
     7
100
AcDbLine
 10
10.880301
 20
-16.651525
 30
0.0
 11
10.880301
 21
-16.500974
 31
0.0
  0
LINE
  5
68
100
AcDbEntity
  8
DR-100_FRONT_50P_
390
0
 62
     7
100
AcDbLine
 10
10.880301
 20
-17.901405
 30
0.0
 11
10.880301
 21
-18.001657
 31
0.0
  0
LINE
  5
67
100
AcDbEntity
  8
DR-100_FRONT_50P_
390
0
 62
     7
100
AcDbLine
 10
9.730155
 20
-0.401354
 30
0.0
 11
9.730155
 21
-0.3514
 31
0.0
  0
LINE
  5
66
100
AcDbEntity
  8
DR-100_FRONT_50P_
390
0
 62
     7
100
AcDbLine
 10
5.886635
 20
-17.642678
 30
0.0
 11
5.855457
 21
-17.635099
 31
0.0
  0
LINE
  5
65
100
AcDbEntity
  8
DR-100_FRONT_50P_
390
0
 62
     7
100
AcDbLine
 10
5.979135
 20
-17.666105
 30
0.0
 11
5.886635
 21
-17.642678
 31
0.0
  0
LINE
  5
64
100
AcDbEntity
  8
DR-100_FRONT_50P_
390
0
 62
     7
100
AcDbLine
 10
6.128653
 20
-17.701245
 30
0.0
 11
5.979135
 21
-17.666105
 31
0.0
  0
LINE
  5
63
100
AcDbEntity
  8
DR-100_FRONT_50P_
390
0
 62
     7
100
AcDbLine
 10
6.326057
 20
-17.744998
 30
0.0
 11
6.128653
 21
-17.701245
 31
0.0
  0
LINE
  5
62
100
AcDbEntity
  8
DR-100_FRONT_50P_
390
0
 62
     7
100
AcDbLine
 10
34.781684
 20
-17.666105
 30
0.0
 11
34.632167
 21
-17.701245
 31
0.0
  0
LINE
  5
61
100
AcDbEntity
  8
DR-100_FRONT_50P_
390
0
 62
     7
100
AcDbLine
 10
6.788044
 20
-17.930344
 30
0.0
 11
6.805269
 21
-17.831814
 31
0.0
  0
LINE
  5
60
100
AcDbEntity
  8
DR-100_FRONT_50P_
390
0
 62
     7
100
AcDbLine
 10
8.88025
 20
-17.901405
 30
0.0
 11
8.88025
 21
-18.001657
 31
0.0
  0
LINE
  5
5F
100
AcDbEntity
  8
DR-100_FRONT_50P_
390
0
 62
     7
100
AcDbLine
 10
8.190542
 20
-18.051267
 30
0.0
 11
8.190542
 21
-17.951359
 31
0.0
  0
LINE
  5
5E
100
AcDbEntity
  8
DR-100_FRONT_50P_
390
0
 62
     7
100
AcDbLine
 10
0.130397
 20
-7.176478
 30
0.0
 11
0.230305
 21
-7.276386
 31
0.0
  0
LINE
  5
5D
100
AcDbEntity
  8
DR-100_FRONT_50P_
390
0
 62
     7
100
AcDbLine
 10
6.805269
 20
-17.765668
 30
0.0
 11
6.805269
 21
-17.831814
 31
0.0
  0
LINE
  5
5C
100
AcDbEntity
  8
DR-100_FRONT_50P_
390
0
 62
     7
100
AcDbLine
 10
5.855457
 20
-17.541393
 30
0.0
 11
5.855457
 21
-17.635099
 31
0.0
  0
LINE
  5
5B
100
AcDbEntity
  8
DR-100_FRONT_50P_
390
0
 62
     7
100
AcDbLine
 10
5.7304
 20
-0.401354
 30
0.0
 11
5.7304
 21
-0.3514
 31
0.0
  0
LINE
  5
5A
100
AcDbEntity
  8
DR-100_FRONT_50P_
390
0
 62
     7
100
AcDbLine
 10
5.63032
 20
-0.301446
 30
0.0
 11
5.63032
 21
-0.318327
 31
0.0
  0
LINE
  5
59
100
AcDbEntity
  8
DR-100_FRONT_50P_
390
0
 62
     7
100
AcDbLine
 10
0.130397
 20
-4.626419
 30
0.0
 11
0.230305
 21
-4.526511
 31
0.0
  0
LINE
  5
58
100
AcDbEntity
  8
DR-100_FRONT_50P_
390
0
 62
     7
100
AcDbLine
 10
2.721798
 20
-12.901883
 30
0.0
 11
2.721798
 21
-12.751676
 31
0.0
  0
LINE
  5
57
100
AcDbEntity
  8
DR-100_FRONT_50P_
390
0
 62
     7
100
AcDbLine
 10
0.330385
 20
-5.651335
 30
0.0
 11
0.274402
 21
-5.401565
 31
0.0
  0
LINE
  5
56
100
AcDbEntity
  8
DR-100_FRONT_50P_
390
0
 62
     7
100
AcDbLine
 10
0.880394
 20
-13.371449
 30
0.0
 11
0.961354
 21
-13.537158
 31
0.0
  0
LINE
  5
55
100
AcDbEntity
  8
DR-100_FRONT_50P_
390
0
 62
     7
100
AcDbLine
 10
1.157035
 20
-13.901649
 30
0.0
 11
1.167198
 21
-13.918875
 31
0.0
  0
LINE
  5
54
100
AcDbEntity
  8
DR-100_FRONT_50P_
390
0
 62
     7
100
AcDbLine
 10
0.330385
 20
-10.651546
 30
0.0
 11
0.274402
 21
-10.90166
 31
0.0
  0
LINE
  5
53
100
AcDbEntity
  8
DR-100_FRONT_50P_
390
0
 62
     7
100
AcDbLine
 10
0.245119
 20
-11.15143
 30
0.0
 11
0.242018
 21
-11.201728
 31
0.0
  0
LINE
  5
52
100
AcDbEntity
  8
DR-100_FRONT_50P_
390
0
 62
     7
100
AcDbLine
 10
0.230305
 20
-7.276386
 30
0.0
 11
0.230305
 21
-4.526511
 31
0.0
  0
LINE
  5
51
100
AcDbEntity
  8
DR-100_FRONT_50P_
390
0
 62
     7
100
AcDbLine
 10
2.054138
 20
-15.401299
 30
0.0
 11
2.054138
 21
-15.151185
 31
0.0
  0
LINE
  5
50
100
AcDbEntity
  8
DR-100_FRONT_50P_
390
0
 62
     7
100
AcDbLine
 10
1.167198
 20
-14.204129
 30
0.0
 11
1.167198
 21
-13.918875
 31
0.0
  0
LINE
  5
4F
100
AcDbEntity
  8
DR-100_FRONT_50P_
390
0
 62
     7
100
AcDbLine
 10
0.980302
 20
-13.13167
 30
0.0
 11
0.980302
 21
-12.901883
 31
0.0
  0
LINE
  5
4E
100
AcDbEntity
  8
DR-100_FRONT_50P_
390
0
 62
     7
100
AcDbLine
 10
0.980302
 20
-3.151573
 30
0.0
 11
0.980302
 21
-3.401343
 31
0.0
  0
LINE
  5
4D
100
AcDbEntity
  8
DR-100_FRONT_50P_
390
0
 62
     7
100
AcDbLine
 10
0.880394
 20
-13.654636
 30
0.0
 11
0.880394
 21
-12.901883
 31
0.0
  0
LINE
  5
4C
100
AcDbEntity
  8
DR-100_FRONT_50P_
390
0
 62
     7
100
AcDbLine
 10
0.530372
 20
-12.901883
 30
0.0
 11
0.530372
 21
-15.401299
 31
0.0
  0
LINE
  5
4B
100
AcDbEntity
  8
DR-100_FRONT_50P_
390
0
 62
     7
100
AcDbLine
 10
0.380511
 20
-3.551549
 30
0.0
 11
0.380511
 21
-15.251093
 31
0.0
  0
LINE
  5
4A
100
AcDbEntity
  8
DR-100_FRONT_50P_
390
0
 62
     7
100
AcDbLine
 10
0.330385
 20
-5.651335
 30
0.0
 11
0.330385
 21
-4.15134
 31
0.0
  0
LINE
  5
49
100
AcDbEntity
  8
DR-100_FRONT_50P_
390
0
 62
     7
100
AcDbLine
 10
0.330385
 20
-12.151196
 30
0.0
 11
0.330385
 21
-10.651546
 31
0.0
  0
LINE
  5
48
100
AcDbEntity
  8
DR-100_FRONT_50P_
390
0
 62
     7
100
AcDbLine
 10
0.280259
 20
-10.051066
 30
0.0
 11
0.280259
 21
-10.874788
 31
0.0
  0
LINE
  5
47
100
AcDbEntity
  8
DR-100_FRONT_50P_
390
0
 62
     7
100
AcDbLine
 10
0.242018
 20
-5.100808
 30
0.0
 11
0.245119
 21
-5.151451
 31
0.0
  0
LINE
  5
46
100
AcDbEntity
  8
DR-100_FRONT_50P_
390
0
 62
     7
100
AcDbLine
 10
0.330385
 20
-12.151196
 30
0.0
 11
0.274402
 21
-11.901082
 31
0.0
  0
LINE
  5
45
100
AcDbEntity
  8
DR-100_FRONT_50P_
390
0
 62
     7
100
AcDbLine
 10
0.330385
 20
-4.15134
 30
0.0
 11
0.274402
 21
-4.401454
 31
0.0
  0
LINE
  5
44
100
AcDbEntity
  8
DR-100_FRONT_50P_
390
0
 62
     7
100
AcDbLine
 10
0.245119
 20
-4.651568
 30
0.0
 11
0.242018
 21
-4.701522
 31
0.0
  0
LINE
  5
43
100
AcDbEntity
  8
DR-100_FRONT_50P_
390
0
 62
     7
100
AcDbLine
 10
0.130397
 20
-7.176478
 30
0.0
 11
0.130397
 21
-4.626763
 31
0.0
  0
LINE
  5
42
100
AcDbEntity
  8
DR-100_FRONT_50P_
390
0
 62
     7
100
AcDbLine
 10
0.242018
 20
-11.601015
 30
0.0
 11
0.245119
 21
-11.651657
 31
0.0
  0
HATCH
  5
40
100
AcDbEntity
  8
DR100_SILK081226
390
0
 62
     7
100
AcDbHatch
 10
0.0
 20
0.0
 30
0.0
210
0.0
220
0.0
230
1.0
  2
SOLID
 70
     1
 71
     0
 91
        2
 92
        1
 93
        1
 72
     4
 94
        3
 73
     0
 74
     0
 95
       23
 96
       19
 40
0.0
 40
0.0
 40
0.0
 40
0.0
 40
1.0
 40
1.0
 40
1.0
 40
2.0
 40
2.0
 40
2.0
 40
3.0
 40
3.0
 40
3.0
 40
4.0
 40
4.0
 40
4.0
 40
5.0
 40
5.0
 40
5.0
 40
6.0
 40
6.0
 40
6.0
 40
6.0
 10
34.70382486979166
 20
-5.2696180555555552
 10
34.70382486979166
 20
-5.2696180555555552
 10
34.9194878472222214
 20
-5.2696180555555552
 10
34.9194878472222214
 20
-5.2696180555555552
 10
34.9625515407986072
 20
-5.2703070746527771
 10
35.0014811197916629
 20
-5.2944227430555548
 10
35.0211181640625
 20
-5.3323187934027771
 10
35.04075520833333
 20
-5.3705593532986109
 10
35.0373101128472157
 20
-5.416379123263888
 10
35.0125054253472214
 20
-5.4515190972222216
 10
34.9873562282986086
 20
-5.4859700520833332
 10
34.94773763020833
 20
-5.5066406249999993
 10
34.9050184461805557
 20
-5.5073296440972221
 10
34.9050184461805557
 20
-5.5073296440972221
 10
34.70382486979166
 20
-5.5073296440972221
 10
34.70382486979166
 20
-5.5073296440972221
 10
34.70382486979166
 20
-5.5073296440972221
 10
34.70382486979166
 20
-5.2696180555555552
 10
34.70382486979166
 20
-5.2696180555555552
 97
        0
 92
       16
 93
        1
 72
     4
 94
        3
 73
     0
 74
     0
 95
       56
 96
       52
 40
0.0
 40
0.0
 40
0.0
 40
0.0
 40
1.0
 40
1.0
 40
1.0
 40
2.0
 40
2.0
 40
2.0
 40
3.0
 40
3.0
 40
3.0
 40
4.0
 40
4.0
 40
4.0
 40
5.0
 40
5.0
 40
5.0
 40
6.0
 40
6.0
 40
6.0
 40
7.0
 40
7.0
 40
7.0
 40
8.0
 40
8.0
 40
8.0
 40
9.0
 40
9.0
 40
9.0
 40
10.0
 40
10.0
 40
10.0
 40
11.0
 40
11.0
 40
11.0
 40
12.0
 40
12.0
 40
12.0
 40
13.0
 40
13.0
 40
13.0
 40
14.0
 40
14.0
 40
14.0
 40
15.0
 40
15.0
 40
15.0
 40
16.0
 40
16.0
 40
16.0
 40
17.0
 40
17.0
 40
17.0
 40
17.0
 10
34.5295030381944414
 20
-5.1314697265624991
 10
34.5295030381944414
 20
-5.1314697265624991
 10
34.5295030381944414
 20
-5.9813747829861104
 10
34.5295030381944414
 20
-5.9813747829861104
 10
34.5295030381944414
 20
-5.9813747829861104
 10
34.7041693793402715
 20
-5.9813747829861104
 10
34.7041693793402715
 20
-5.9813747829861104
 10
34.7041693793402715
 20
-5.9813747829861104
 10
34.7041693793402715
 20
-5.637898763020833
 10
34.7041693793402715
 20
-5.637898763020833
 10
34.7041693793402715
 20
-5.637898763020833
 10
34.8264702690972214
 20
-5.637898763020833
 10
34.8264702690972214
 20
-5.637898763020833
 10
34.8557535807291643
 20
-5.6382432725694436
 10
34.8850368923611072
 20
-5.6409993489583332
 10
34.9139756944444386
 20
-5.6465115017361107
 10
34.9594509548611114
 20
-5.6599473741319439
 10
34.9932128906249957
 20
-5.6978434244791663
 10
35.0014811197916629
 20
-5.7443522135416663
 10
35.0125054253472214
 20
-5.8005072699652773
 10
35.01870659722222
 20
-5.8576958550347218
 10
35.0200846354166657
 20
-5.9152289496527777
 10
35.0207736545138886
 20
-5.9379665798611105
 10
35.0269748263888872
 20
-5.9603597005208329
 10
35.0376546223958272
 20
-5.980341254340277
 10
35.0376546223958272
 20
-5.980341254340277
 10
35.2012966579861057
 20
-5.980341254340277
 10
35.2012966579861057
 20
-5.980341254340277
 10
35.1930284288194386
 20
-5.9603597005208329
 10
35.1871717664930515
 20
-5.9390001085069439
 10
35.1847601996527715
 20
-5.9172960069444436
 10
35.1847601996527715
 20
-5.9172960069444436
 10
35.1771809895833272
 20
-5.7881049262152775
 10
35.1771809895833272
 20
-5.7881049262152775
 10
35.1764919704861114
 20
-5.7588216145833329
 10
35.17373589409722
 20
-5.7298828124999996
 10
35.1682237413194443
 20
-5.701288519965277
 10
35.1568549262152743
 20
-5.6327311197916661
 10
35.1006998697916615
 20
-5.5800211588541657
 10
35.03179796006944
 20
-5.5734754774305548
 10
35.1268825954861086
 20
-5.5579725477430548
 10
35.1985405815972214
 20
-5.4790798611111109
 10
35.2054307725694429
 20
-5.3833062065972221
 10
35.2143880208333329
 20
-5.2630723741319443
 10
35.1289496527777771
 20
-5.1562744140624996
 10
35.0094048394097186
 20
-5.1387044270833329
 10
34.9718532986111086
 20
-5.1325032552083325
 10
34.9332682291666643
 20
-5.1304361979166666
 10
34.8950276692708314
 20
-5.1314697265624991
 10
34.8950276692708314
 20
-5.1314697265624991
 10
34.5295030381944414
 20
-5.1314697265624991
 10
34.5295030381944414
 20
-5.1314697265624991
 97
        0
 75
     2
 76
     1
 98
        1
 10
0.0
 20
0.0
  0
INSERT
  5
3C
100
AcDbEntity
  8
DR100_SILK081226
390
0
 62
     7
100
AcDbBlockReference
  2
AI9-BLK1
 10
5.867428
 20
-5.55625
 30
0.0
  0
HATCH
  5
3A
100
AcDbEntity
  8
DR100_SILK081226
390
0
 62
     7
100
AcDbHatch
 10
0.0
 20
0.0
 30
0.0
210
0.0
220
0.0
230
1.0
  2
SOLID
 70
     1
 71
     0
 91
        8
 92
       16
 93
        1
 72
     4
 94
        3
 73
     0
 74
     0
 95
       41
 96
       37
 40
0.0
 40
0.0
 40
0.0
 40
0.0
 40
1.0
 40
1.0
 40
1.0
 40
2.0
 40
2.0
 40
2.0
 40
3.0
 40
3.0
 40
3.0
 40
4.0
 40
4.0
 40
4.0
 40
5.0
 40
5.0
 40
5.0
 40
6.0
 40
6.0
 40
6.0
 40
7.0
 40
7.0
 40
7.0
 40
8.0
 40
8.0
 40
8.0
 40
9.0
 40
9.0
 40
9.0
 40
10.0
 40
10.0
 40
10.0
 40
11.0
 40
11.0
 40
11.0
 40
12.0
 40
12.0
 40
12.0
 40
12.0
 10
22.1598876953124986
 20
-8.6103271484374986
 10
22.1598876953124986
 20
-8.6103271484374986
 10
22.1598876953124986
 20
-9.4591986762152764
 10
22.1598876953124986
 20
-9.4591986762152764
 10
22.1598876953124986
 20
-9.4591986762152764
 10
22.7937852647569414
 20
-9.4591986762152764
 10
22.7937852647569414
 20
-9.4591986762152764
 10
22.7937852647569414
 20
-9.4591986762152764
 10
22.7937852647569414
 20
-9.3162272135416657
 10
22.7937852647569414
 20
-9.3162272135416657
 10
22.7937852647569414
 20
-9.3162272135416657
 10
22.3324869791666636
 20
-9.3162272135416657
 10
22.3324869791666636
 20
-9.3162272135416657
 10
22.3324869791666636
 20
-9.3162272135416657
 10
22.3324869791666636
 20
-9.0840277777777771
 10
22.3324869791666636
 20
-9.0840277777777771
 10
22.3324869791666636
 20
-9.0840277777777771
 10
22.7300509982638879
 20
-9.0840277777777771
 10
22.7300509982638879
 20
-9.0840277777777771
 10
22.7300509982638879
 20
-9.0840277777777771
 10
22.7300509982638879
 20
-8.9400227864583321
 10
22.7300509982638879
 20
-8.9400227864583321
 10
22.7300509982638879
 20
-8.9400227864583321
 10
22.3335205078124979
 20
-8.9400227864583321
 10
22.3335205078124979
 20
-8.9400227864583321
 10
22.3335205078124979
 20
-8.9400227864583321
 10
22.3335205078124979
 20
-8.754676649305555
 10
22.3335205078124979
 20
-8.754676649305555
 10
22.3335205078124979
 20
-8.754676649305555
 10
22.7872395833333314
 20
-8.754676649305555
 10
22.7872395833333314
 20
-8.754676649305555
 10
22.7872395833333314
 20
-8.754676649305555
 10
22.7872395833333314
 20
-8.6103271484374986
 10
22.7872395833333314
 20
-8.6103271484374986
 10
22.7872395833333314
 20
-8.6103271484374986
 10
22.1598876953124986
 20
-8.6103271484374986
 10
22.1598876953124986
 20
-8.6103271484374986
 97
        0
 92
       16
 93
        1
 72
     4
 94
        3
 73
     0
 74
     0
 95
       29
 96
       25
 40
0.0
 40
0.0
 40
0.0
 40
0.0
 40
1.0
 40
1.0
 40
1.0
 40
2.0
 40
2.0
 40
2.0
 40
3.0
 40
3.0
 40
3.0
 40
4.0
 40
4.0
 40
4.0
 40
5.0
 40
5.0
 40
5.0
 40
6.0
 40
6.0
 40
6.0
 40
7.0
 40
7.0
 40
7.0
 40
8.0
 40
8.0
 40
8.0
 40
8.0
 10
21.3402994791666636
 20
-8.6096381293402775
 10
21.3402994791666636
 20
-8.6096381293402775
 10
21.3402994791666636
 20
-8.7560546874999989
 10
21.3402994791666636
 20
-8.7560546874999989
 10
21.3402994791666636
 20
-8.7560546874999989
 10
21.6035047743055522
 20
-8.7560546874999989
 10
21.6035047743055522
 20
-8.7560546874999989
 10
21.6035047743055522
 20
-8.7560546874999989
 10
21.6035047743055522
 20
-9.4591986762152764
 10
21.6035047743055522
 20
-9.4591986762152764
 10
21.6035047743055522
 20
-9.4591986762152764
 10
21.777137586805555
 20
-9.4591986762152764
 10
21.777137586805555
 20
-9.4591986762152764
 10
21.777137586805555
 20
-9.4591986762152764
 10
21.777137586805555
 20
-8.7563991970486104
 10
21.777137586805555
 20
-8.7563991970486104
 10
21.777137586805555
 20
-8.7563991970486104
 10
22.0410319010416664
 20
-8.7563991970486104
 10
22.0410319010416664
 20
-8.7563991970486104
 10
22.0410319010416664
 20
-8.7563991970486104
 10
22.0410319010416664
 20
-8.6096381293402775
 10
22.0410319010416664
 20
-8.6096381293402775
 10
22.0410319010416664
 20
-8.6096381293402775
 10
21.3402994791666636
 20
-8.6096381293402775
 10
21.3402994791666636
 20
-8.6096381293402775
 97
        0
 92
        1
 93
        1
 72
     4
 94
        3
 73
     0
 74
     0
 95
       29
 96
       25
 40
0.0
 40
0.0
 40
0.0
 40
0.0
 40
1.0
 40
1.0
 40
1.0
 40
2.0
 40
2.0
 40
2.0
 40
3.0
 40
3.0
 40
3.0
 40
4.0
 40
4.0
 40
4.0
 40
5.0
 40
5.0
 40
5.0
 40
6.0
 40
6.0
 40
6.0
 40
7.0
 40
7.0
 40
7.0
 40
8.0
 40
8.0
 40
8.0
 40
8.0
 10
21.1287706163194429
 20
-9.1801459418402764
 10
21.117057291666665
 20
-9.2121853298611107
 10
21.0998318142361079
 20
-9.2425021701388879
 10
21.0781277126736093
 20
-9.2693739149305543
 10
21.0412651909722186
 20
-9.3165717230902771
 10
20.9847656249999979
 20
-9.3451660156249989
 10
20.9248209635416664
 20
-9.3475775824652771
 10
20.8648763020833314
 20
-9.3451660156249989
 10
20.8087212456597186
 20
-9.3165717230902771
 10
20.77151421440972
 20
-9.2693739149305543
 10
20.7498101128472214
 20
-9.2425021701388879
 10
20.7325846354166643
 20
-9.2121853298611107
 10
20.7208713107638864
 20
-9.1801459418402764
 10
20.6771185980902743
 20
-9.0547444661458325
 10
20.69399956597222
 20
-8.916251627604165
 10
20.767035590277775
 20
-8.8056640625
 10
20.8038981119791657
 20
-8.754676649305555
 10
20.8621202256944436
 20
-8.7233262803819436
 10
20.9248209635416664
 20
-8.7209147135416654
 10
20.9875217013888857
 20
-8.7233262803819436
 10
21.0457438151041636
 20
-8.754676649305555
 10
21.0826063368055543
 20
-8.8056640625
 10
21.1556423611111093
 20
-8.916251627604165
 10
21.1728678385416664
 20
-9.0547444661458325
 10
21.1287706163194429
 20
-9.1801459418402764
 97
        0
 92
       16
 93
        1
 72
     4
 94
        3
 73
     0
 74
     0
 95
       23
 96
       19
 40
0.0
 40
0.0
 40
0.0
 40
0.0
 40
1.0
 40
1.0
 40
1.0
 40
2.0
 40
2.0
 40
2.0
 40
3.0
 40
3.0
 40
3.0
 40
4.0
 40
4.0
 40
4.0
 40
5.0
 40
5.0
 40
5.0
 40
6.0
 40
6.0
 40
6.0
 40
6.0
 10
21.2421142578124993
 20
-9.3293185763888875
 10
21.3795735677083307
 20
-9.1171006944444439
 10
21.3482231987847193
 20
-8.8373589409722211
 10
21.1673556857638872
 20
-8.6609700520833321
 10
21.0991427951388886
 20
-8.6037814670138886
 10
21.0137044270833329
 20
-8.5717420789930543
 10
20.9248209635416664
 20
-8.5700195312499989
 10
20.8359374999999964
 20
-8.5717420789930543
 10
20.7504991319444443
 20
-8.6037814670138886
 10
20.6826307508680536
 20
-8.6609700520833321
 10
20.5017632378472214
 20
-8.8373589409722211
 10
20.4700683593749986
 20
-9.1171006944444439
 10
20.60752766927083
 20
-9.3293185763888875
 10
20.6809082031249964
 20
-9.4319824218749986
 10
20.7987304687499979
 20
-9.4936496310763872
 10
20.9248209635416664
 20
-9.4957166883680539
 10
21.0509114583333314
 20
-9.4936496310763872
 10
21.1687337239583329
 20
-9.4319824218749986
 10
21.2421142578124993
 20
-9.3293185763888875
 97
        0
 92
       16
 93
        1
 72
     4
 94
        3
 73
     0
 74
     0
 95
       44
 96
       40
 40
0.0
 40
0.0
 40
0.0
 40
0.0
 40
1.0
 40
1.0
 40
1.0
 40
2.0
 40
2.0
 40
2.0
 40
3.0
 40
3.0
 40
3.0
 40
4.0
 40
4.0
 40
4.0
 40
5.0
 40
5.0
 40
5.0
 40
6.0
 40
6.0
 40
6.0
 40
7.0
 40
7.0
 40
7.0
 40
8.0
 40
8.0
 40
8.0
 40
9.0
 40
9.0
 40
9.0
 40
10.0
 40
10.0
 40
10.0
 40
11.0
 40
11.0
 40
11.0
 40
12.0
 40
12.0
 40
12.0
 40
13.0
 40
13.0
 40
13.0
 40
13.0
 10
19.5286960177951379
 20
-8.6082600911458318
 10
19.5286960177951379
 20
-8.6082600911458318
 10
19.5286960177951379
 20
-9.4591986762152764
 10
19.5286960177951379
 20
-9.4591986762152764
 10
19.5286960177951379
 20
-9.4591986762152764
 10
19.6868259006076372
 20
-9.4591986762152764
 10
19.6868259006076372
 20
-9.4591986762152764
 10
19.6868259006076372
 20
-9.4591986762152764
 10
19.6868259006076372
 20
-8.8507948133680543
 10
19.6868259006076372
 20
-8.8507948133680543
 10
19.6868259006076372
 20
-8.8507948133680543
 10
19.8651095920138872
 20
-9.458854166666665
 10
19.8651095920138872
 20
-9.458854166666665
 10
19.8651095920138872
 20
-9.458854166666665
 10
20.0352973090277757
 20
-9.458854166666665
 10
20.0352973090277757
 20
-9.458854166666665
 10
20.0352973090277757
 20
-9.458854166666665
 10
20.2175428602430536
 20
-8.8497612847222218
 10
20.2175428602430536
 20
-8.8497612847222218
 10
20.2175428602430536
 20
-8.8497612847222218
 10
20.2175428602430536
 20
-9.4578206380208325
 10
20.2175428602430536
 20
-9.4578206380208325
 10
20.2175428602430536
 20
-9.4578206380208325
 10
20.3777398003472214
 20
-9.4578206380208325
 10
20.3777398003472214
 20
-9.4578206380208325
 10
20.3777398003472214
 20
-9.4578206380208325
 10
20.3777398003472214
 20
-8.6089491102430546
 10
20.3777398003472214
 20
-8.6089491102430546
 10
20.3777398003472214
 20
-8.6089491102430546
 10
20.1290039062499986
 20
-8.6089491102430546
 10
20.1290039062499986
 20
-8.6089491102430546
 10
20.1290039062499986
 20
-8.6089491102430546
 10
19.9534762912326364
 20
-9.2173529730902768
 10
19.9534762912326364
 20
-9.2173529730902768
 10
19.9534762912326364
 20
-9.2173529730902768
 10
19.7758816189236093
 20
-8.6082600911458318
 10
19.7758816189236093
 20
-8.6082600911458318
 10
19.7758816189236093
 20
-8.6082600911458318
 10
19.5286960177951379
 20
-8.6082600911458318
 10
19.5286960177951379
 20
-8.6082600911458318
 97
        0
 92
       16
 93
        1
 72
     4
 94
        3
 73
     0
 74
     0
 95
       41
 96
       37
 40
0.0
 40
0.0
 40
0.0
 40
0.0
 40
1.0
 40
1.0
 40
1.0
 40
2.0
 40
2.0
 40
2.0
 40
3.0
 40
3.0
 40
3.0
 40
4.0
 40
4.0
 40
4.0
 40
5.0
 40
5.0
 40
5.0
 40
6.0
 40
6.0
 40
6.0
 40
7.0
 40
7.0
 40
7.0
 40
8.0
 40
8.0
 40
8.0
 40
9.0
 40
9.0
 40
9.0
 40
10.0
 40
10.0
 40
10.0
 40
11.0
 40
11.0
 40
11.0
 40
12.0
 40
12.0
 40
12.0
 40
12.0
 10
18.7587171766493022
 20
-8.6103271484374986
 10
18.7587171766493022
 20
-8.6103271484374986
 10
18.7587171766493022
 20
-9.4591986762152764
 10
18.7587171766493022
 20
-9.4591986762152764
 10
18.7587171766493022
 20
-9.4591986762152764
 10
19.3926147460937486
 20
-9.4591986762152764
 10
19.3926147460937486
 20
-9.4591986762152764
 10
19.3926147460937486
 20
-9.4591986762152764
 10
19.3926147460937486
 20
-9.3162272135416657
 10
19.3926147460937486
 20
-9.3162272135416657
 10
19.3926147460937486
 20
-9.3162272135416657
 10
18.9313164605034707
 20
-9.3162272135416657
 10
18.9313164605034707
 20
-9.3162272135416657
 10
18.9313164605034707
 20
-9.3162272135416657
 10
18.9313164605034707
 20
-9.0840277777777771
 10
18.9313164605034707
 20
-9.0840277777777771
 10
18.9313164605034707
 20
-9.0840277777777771
 10
19.3292249891493029
 20
-9.0840277777777771
 10
19.3292249891493029
 20
-9.0840277777777771
 10
19.3292249891493029
 20
-9.0840277777777771
 10
19.3292249891493029
 20
-8.9400227864583321
 10
19.3292249891493029
 20
-8.9400227864583321
 10
19.3292249891493029
 20
-8.9400227864583321
 10
18.9325222439236107
 20
-8.9400227864583321
 10
18.9325222439236107
 20
-8.9400227864583321
 10
18.9325222439236107
 20
-8.9400227864583321
 10
18.9325222439236107
 20
-8.754676649305555
 10
18.9325222439236107
 20
-8.754676649305555
 10
18.9325222439236107
 20
-8.754676649305555
 10
19.3862413194444443
 20
-8.754676649305555
 10
19.3862413194444443
 20
-8.754676649305555
 10
19.3862413194444443
 20
-8.754676649305555
 10
19.3862413194444443
 20
-8.6103271484374986
 10
19.3862413194444443
 20
-8.6103271484374986
 10
19.3862413194444443
 20
-8.6103271484374986
 10
18.7587171766493022
 20
-8.6103271484374986
 10
18.7587171766493022
 20
-8.6103271484374986
 97
        0
 92
        1
 93
        1
 72
     4
 94
        3
 73
     0
 74
     0
 95
       23
 96
       19
 40
0.0
 40
0.0
 40
0.0
 40
0.0
 40
1.0
 40
1.0
 40
1.0
 40
2.0
 40
2.0
 40
2.0
 40
3.0
 40
3.0
 40
3.0
 40
4.0
 40
4.0
 40
4.0
 40
5.0
 40
5.0
 40
5.0
 40
6.0
 40
6.0
 40
6.0
 40
6.0
 10
18.1165513780381922
 20
-8.7477864583333318
 10
18.1165513780381922
 20
-8.7477864583333318
 10
18.3318698459201386
 20
-8.7477864583333318
 10
18.3318698459201386
 20
-8.7477864583333318
 10
18.3749335394965279
 20
-8.7481309678819432
 10
18.41386311848958
 20
-8.7722466362847218
 10
18.4335001627604136
 20
-8.8104871961805546
 10
18.4529649522569414
 20
-8.8487277560763875
 10
18.4496921115451364
 20
-8.8945475260416664
 10
18.4248874240451386
 20
-8.9293429904513886
 10
18.3997382269965257
 20
-8.9637939453124993
 10
18.3599473741319414
 20
-8.9844645182291654
 10
18.3172281901041636
 20
-8.9851535373263882
 10
18.3172281901041636
 20
-8.9851535373263882
 10
18.1165513780381922
 20
-8.9851535373263882
 10
18.1165513780381922
 20
-8.9851535373263882
 10
18.1165513780381922
 20
-8.9851535373263882
 10
18.1165513780381922
 20
-8.7477864583333318
 10
18.1165513780381922
 20
-8.7477864583333318
 97
        0
 92
       16
 93
        1
 72
     4
 94
        3
 73
     0
 74
     0
 95
       56
 96
       52
 40
0.0
 40
0.0
 40
0.0
 40
0.0
 40
1.0
 40
1.0
 40
1.0
 40
2.0
 40
2.0
 40
2.0
 40
3.0
 40
3.0
 40
3.0
 40
4.0
 40
4.0
 40
4.0
 40
5.0
 40
5.0
 40
5.0
 40
6.0
 40
6.0
 40
6.0
 40
7.0
 40
7.0
 40
7.0
 40
8.0
 40
8.0
 40
8.0
 40
9.0
 40
9.0
 40
9.0
 40
10.0
 40
10.0
 40
10.0
 40
11.0
 40
11.0
 40
11.0
 40
12.0
 40
12.0
 40
12.0
 40
13.0
 40
13.0
 40
13.0
 40
14.0
 40
14.0
 40
14.0
 40
15.0
 40
15.0
 40
15.0
 40
16.0
 40
16.0
 40
16.0
 40
17.0
 40
17.0
 40
17.0
 40
17.0
 10
17.9415405273437472
 20
-8.6096381293402775
 10
17.9415405273437472
 20
-8.6096381293402775
 10
17.9415405273437472
 20
-9.4591986762152764
 10
17.9415405273437472
 20
-9.4591986762152764
 10
17.9415405273437472
 20
-9.4591986762152764
 10
18.1165513780381922
 20
-9.4591986762152764
 10
18.1165513780381922
 20
-9.4591986762152764
 10
18.1165513780381922
 20
-9.4591986762152764
 10
18.1165513780381922
 20
-9.11572265625
 10
18.1165513780381922
 20
-9.11572265625
 10
18.1165513780381922
 20
-9.11572265625
 10
18.2386800130208329
 20
-9.11572265625
 10
18.2386800130208329
 20
-9.11572265625
 10
18.2681355794270814
 20
-9.1164116753472211
 10
18.2974188910590279
 20
-9.1191677517361107
 10
18.3263576931423593
 20
-9.1243353949652768
 10
18.3716606987847193
 20
-9.13777126736111
 10
18.4055948893229164
 20
-9.1756673177083332
 10
18.4140353732638857
 20
-9.2221761067708332
 10
18.42523193359375
 20
-9.2786756727430539
 10
18.4310885959201372
 20
-9.3358642578124993
 10
18.4322943793402771
 20
-9.3930528428819429
 10
18.4329833984375
 20
-9.4161349826388872
 10
18.4391845703124986
 20
-9.4381835937499989
 10
18.4500366210937479
 20
-9.4585096571180554
 10
18.4500366210937479
 20
-9.4585096571180554
 10
18.6136786566840264
 20
-9.4585096571180554
 10
18.6136786566840264
 20
-9.4585096571180554
 10
18.6050659179687479
 20
-9.4381835937499989
 10
18.5995537651909721
 20
-9.4171685112847214
 10
18.5971421983506922
 20
-9.3954644097222211
 10
18.5971421983506922
 20
-9.3954644097222211
 10
18.5893907335069422
 20
-9.2659288194444436
 10
18.5893907335069422
 20
-9.2659288194444436
 10
18.588873969184025
 20
-9.2366455078124989
 10
18.5857733832465257
 20
-9.2077067057291657
 10
18.5804334852430522
 20
-9.1794569227430554
 10
18.5692369249131914
 20
-9.1105550130208321
 10
18.5134263780381936
 20
-9.0581895616319432
 10
18.4441799587673607
 20
-9.0512993706597218
 10
18.53909233940972
 20
-9.0357964409722218
 10
18.6110948350694443
 20
-8.9572482638888875
 10
18.61781277126736
 20
-8.8611300998263882
 10
18.6265977647569443
 20
-8.7408962673611104
 10
18.5411593967013886
 20
-8.6340983072916657
 10
18.4217868381076357
 20
-8.6165283203124989
 10
18.38406304253472
 20
-8.61067165798611
 10
18.3458224826388872
 20
-8.6082600911458318
 10
18.3074096679687486
 20
-8.6096381293402775
 10
18.3074096679687486
 20
-8.6096381293402775
 10
17.9415405273437472
 20
-8.6096381293402775
 10
17.9415405273437472
 20
-8.6096381293402775
 97
        0
 75
     2
 76
     1
 98
        1
 10
0.0
 20
0.0
  0
HATCH
  5
39
100
AcDbEntity
  8
DR100_SILK081226
390
0
 62
     7
100
AcDbHatch
 10
0.0
 20
0.0
 30
0.0
210
0.0
220
0.0
230
1.0
  2
SOLID
 70
     1
 71
     0
 91
        9
 92
       16
 93
        1
 72
     4
 94
        3
 73
     0
 74
     0
 95
       35
 96
       31
 40
0.0
 40
0.0
 40
0.0
 40
0.0
 40
1.0
 40
1.0
 40
1.0
 40
2.0
 40
2.0
 40
2.0
 40
3.0
 40
3.0
 40
3.0
 40
4.0
 40
4.0
 40
4.0
 40
5.0
 40
5.0
 40
5.0
 40
6.0
 40
6.0
 40
6.0
 40
7.0
 40
7.0
 40
7.0
 40
8.0
 40
8.0
 40
8.0
 40
9.0
 40
9.0
 40
9.0
 40
10.0
 40
10.0
 40
10.0
 40
10.0
 10
22.9825764973958329
 20
-14.26924099392361
 10
22.9825764973958329
 20
-14.26924099392361
 10
22.9825764973958329
 20
-15.1188015407986089
 10
22.9825764973958329
 20
-15.1188015407986089
 10
22.9825764973958329
 20
-15.1188015407986089
 10
23.1537977430555522
 20
-15.1188015407986089
 10
23.1537977430555522
 20
-15.1188015407986089
 10
23.1537977430555522
 20
-15.1188015407986089
 10
23.1537977430555522
 20
-14.5417480468749982
 10
23.1537977430555522
 20
-14.5417480468749982
 10
23.1537977430555522
 20
-14.5417480468749982
 10
23.5086425781249986
 20
-15.1170789930555536
 10
23.5086425781249986
 20
-15.1170789930555536
 10
23.5086425781249986
 20
-15.1170789930555536
 10
23.6877875434027771
 20
-15.1170789930555536
 10
23.6877875434027771
 20
-15.1170789930555536
 10
23.6877875434027771
 20
-15.1170789930555536
 10
23.6877875434027771
 20
-14.26924099392361
 10
23.6877875434027771
 20
-14.26924099392361
 10
23.6877875434027771
 20
-14.26924099392361
 10
23.5162217881944429
 20
-14.26924099392361
 10
23.5162217881944429
 20
-14.26924099392361
 10
23.5162217881944429
 20
-14.26924099392361
 10
23.5162217881944429
 20
-14.8407823350694432
 10
23.5162217881944429
 20
-14.8407823350694432
 10
23.5162217881944429
 20
-14.8407823350694432
 10
23.1641330295138879
 20
-14.26924099392361
 10
23.1641330295138879
 20
-14.26924099392361
 10
23.1641330295138879
 20
-14.26924099392361
 10
22.9825764973958329
 20
-14.26924099392361
 10
22.9825764973958329
 20
-14.26924099392361
 97
        0
 92
       16
 93
        1
 72
     4
 94
        3
 73
     0
 74
     0
 95
       17
 96
       13
 40
0.0
 40
0.0
 40
0.0
 40
0.0
 40
1.0
 40
1.0
 40
1.0
 40
2.0
 40
2.0
 40
2.0
 40
3.0
 40
3.0
 40
3.0
 40
4.0
 40
4.0
 40
4.0
 40
4.0
 10
22.6359998914930536
 20
-14.2702745225694425
 10
22.6359998914930536
 20
-14.2702745225694425
 10
22.6359998914930536
 20
-15.1188015407986089
 10
22.6359998914930536
 20
-15.1188015407986089
 10
22.6359998914930536
 20
-15.1188015407986089
 10
22.8123887803819407
 20
-15.1188015407986089
 10
22.8123887803819407
 20
-15.1188015407986089
 10
22.8123887803819407
 20
-15.1188015407986089
 10
22.8123887803819407
 20
-14.2702745225694425
 10
22.8123887803819407
 20
-14.2702745225694425
 10
22.8123887803819407
 20
-14.2702745225694425
 10
22.6359998914930536
 20
-14.2702745225694425
 10
22.6359998914930536
 20
-14.2702745225694425
 97
        0
 92
       16
 93
        1
 72
     4
 94
        3
 73
     0
 74
     0
 95
       56
 96
       52
 40
0.0
 40
0.0
 40
0.0
 40
0.0
 40
1.0
 40
1.0
 40
1.0
 40
2.0
 40
2.0
 40
2.0
 40
3.0
 40
3.0
 40
3.0
 40
4.0
 40
4.0
 40
4.0
 40
5.0
 40
5.0
 40
5.0
 40
6.0
 40
6.0
 40
6.0
 40
7.0
 40
7.0
 40
7.0
 40
8.0
 40
8.0
 40
8.0
 40
9.0
 40
9.0
 40
9.0
 40
10.0
 40
10.0
 40
10.0
 40
11.0
 40
11.0
 40
11.0
 40
12.0
 40
12.0
 40
12.0
 40
13.0
 40
13.0
 40
13.0
 40
14.0
 40
14.0
 40
14.0
 40
15.0
 40
15.0
 40
15.0
 40
16.0
 40
16.0
 40
16.0
 40
17.0
 40
17.0
 40
17.0
 40
17.0
 10
22.0348307291666643
 20
-14.5341688368055539
 10
22.025184461805555
 20
-14.413245985243055
 10
21.9466362847222207
 20
-14.3085150824652771
 10
21.8329481336805529
 20
-14.2657958984374993
 10
21.7240831163194414
 20
-14.2230767144097214
 10
21.6024712456597214
 20
-14.2261773003472207
 10
21.4953287760416636
 20
-14.2744086371527761
 10
21.3974880642361107
 20
-14.3167833116319425
 10
21.32307400173611
 20
-14.3994656032986104
 10
21.2906901041666643
 20
-14.5014404296874986
 10
21.2534830729166657
 20
-14.6199517144097211
 10
21.2510715060763857
 20
-14.7470757378472204
 10
21.2844889322916657
 20
-14.8669650607638868
 10
21.3223849826388872
 20
-14.9965006510416661
 10
21.4236707899305543
 20
-15.09744194878472
 10
21.55320638020833
 20
-15.1349934895833318
 10
21.6372667100694436
 20
-15.1584201388888875
 10
21.72615017361111
 20
-15.1577311197916647
 10
21.8095214843749972
 20
-15.132926432291665
 10
21.9383680555555536
 20
-15.0957194010416647
 10
22.0303521050347193
 20
-14.9827202690972214
 10
22.0410319010416664
 20
-14.84939507378472
 10
22.0410319010416664
 20
-14.84939507378472
 10
21.8646430121527757
 20
-14.84939507378472
 10
21.8646430121527757
 20
-14.84939507378472
 10
21.8598198784722193
 20
-14.8845350477430536
 10
21.8453504774305536
 20
-14.9172634548611089
 10
21.8229573567708321
 20
-14.9441351996527771
 10
21.7812717013888886
 20
-14.986854383680555
 10
21.7233940972222186
 20
-15.0092475043402764
 10
21.66413845486111
 20
-15.0061469184027771
 10
21.6048828124999979
 20
-15.0030463324652761
 10
21.5497612847222193
 20
-14.9744520399305543
 10
21.5132432725694436
 20
-14.9279432508680543
 10
21.4815483940972207
 20
-14.8883246527777757
 10
21.4588107638888879
 20
-14.8418158637152757
 10
21.4477864583333329
 20
-14.7922064887152764
 10
21.4374511718749972
 20
-14.7398410373263875
 10
21.4340060763888864
 20
-14.6860975477430546
 10
21.4388292100694429
 20
-14.6326985677083314
 10
21.4436523437499993
 20
-14.574820963541665
 10
21.4643229166666636
 20
-14.5190104166666654
 10
21.4977403428819436
 20
-14.4718126085069425
 10
21.5428710937499979
 20
-14.4077338324652757
 10
21.6186631944444407
 20
-14.373282877604165
 10
21.6965223524305522
 20
-14.3815511067708321
 10
21.7805826822916657
 20
-14.3877522786458325
 10
21.8494845920138872
 20
-14.450797526041665
 10
21.86326497395833
 20
-14.5341688368055539
 10
21.86326497395833
 20
-14.5341688368055539
 10
22.0348307291666643
 20
-14.5341688368055539
 10
22.0348307291666643
 20
-14.5341688368055539
 97
        0
 92
       16
 93
        1
 72
     4
 94
        3
 73
     0
 74
     0
 95
       17
 96
       13
 40
0.0
 40
0.0
 40
0.0
 40
0.0
 40
1.0
 40
1.0
 40
1.0
 40
2.0
 40
2.0
 40
2.0
 40
3.0
 40
3.0
 40
3.0
 40
4.0
 40
4.0
 40
4.0
 40
4.0
 10
20.939979383680555
 20
-14.2702745225694425
 10
20.939979383680555
 20
-14.2702745225694425
 10
20.939979383680555
 20
-15.1188015407986089
 10
20.939979383680555
 20
-15.1188015407986089
 10
20.939979383680555
 20
-15.1188015407986089
 10
21.1163682725694422
 20
-15.1188015407986089
 10
21.1163682725694422
 20
-15.1188015407986089
 10
21.1163682725694422
 20
-15.1188015407986089
 10
21.1163682725694422
 20
-14.2702745225694425
 10
21.1163682725694422
 20
-14.2702745225694425
 10
21.1163682725694422
 20
-14.2702745225694425
 10
20.939979383680555
 20
-14.2702745225694425
 10
20.939979383680555
 20
-14.2702745225694425
 97
        0
 92
       16
 93
        1
 72
     4
 94
        3
 73
     0
 74
     0
 95
       44
 96
       40
 40
0.0
 40
0.0
 40
0.0
 40
0.0
 40
1.0
 40
1.0
 40
1.0
 40
2.0
 40
2.0
 40
2.0
 40
3.0
 40
3.0
 40
3.0
 40
4.0
 40
4.0
 40
4.0
 40
5.0
 40
5.0
 40
5.0
 40
6.0
 40
6.0
 40
6.0
 40
7.0
 40
7.0
 40
7.0
 40
8.0
 40
8.0
 40
8.0
 40
9.0
 40
9.0
 40
9.0
 40
10.0
 40
10.0
 40
10.0
 40
11.0
 40
11.0
 40
11.0
 40
12.0
 40
12.0
 40
12.0
 40
13.0
 40
13.0
 40
13.0
 40
13.0
 10
19.9207478841145829
 20
-14.2678629557291661
 10
19.9207478841145829
 20
-14.2678629557291661
 10
19.9207478841145829
 20
-15.1188015407986089
 10
19.9207478841145829
 20
-15.1188015407986089
 10
19.9207478841145829
 20
-15.1188015407986089
 10
20.0790500217013879
 20
-15.1188015407986089
 10
20.0790500217013879
 20
-15.1188015407986089
 10
20.0790500217013879
 20
-15.1188015407986089
 10
20.0790500217013879
 20
-14.5103976779513868
 10
20.0790500217013879
 20
-14.5103976779513868
 10
20.0790500217013879
 20
-14.5103976779513868
 10
20.2571614583333321
 20
-15.1181125217013879
 10
20.2571614583333321
 20
-15.1181125217013879
 10
20.2571614583333321
 20
-15.1181125217013879
 10
20.4273491753472207
 20
-15.1181125217013879
 10
20.4273491753472207
 20
-15.1181125217013879
 10
20.4273491753472207
 20
-15.1181125217013879
 10
20.60993923611111
 20
-14.5093641493055543
 10
20.60993923611111
 20
-14.5093641493055543
 10
20.60993923611111
 20
-14.5093641493055543
 10
20.60993923611111
 20
-15.117423502604165
 10
20.60993923611111
 20
-15.117423502604165
 10
20.60993923611111
 20
-15.117423502604165
 10
20.7701361762152743
 20
-15.117423502604165
 10
20.7701361762152743
 20
-15.117423502604165
 10
20.7701361762152743
 20
-15.117423502604165
 10
20.7701361762152743
 20
-14.2685519748263872
 10
20.7701361762152743
 20
-14.2685519748263872
 10
20.7701361762152743
 20
-14.2685519748263872
 10
20.5210557725694436
 20
-14.2685519748263872
 10
20.5210557725694436
 20
-14.2685519748263872
 10
20.5210557725694436
 20
-14.2685519748263872
 10
20.3457004123263872
 20
-14.8769558376736093
 10
20.3457004123263872
 20
-14.8769558376736093
 10
20.3457004123263872
 20
-14.8769558376736093
 10
20.1682779947916657
 20
-14.2678629557291661
 10
20.1682779947916657
 20
-14.2678629557291661
 10
20.1682779947916657
 20
-14.2678629557291661
 10
19.9207478841145829
 20
-14.2678629557291661
 10
19.9207478841145829
 20
-14.2678629557291661
 97
        0
 92
        1
 93
        1
 72
     4
 94
        3
 73
     0
 74
     0
 95
       23
 96
       19
 40
0.0
 40
0.0
 40
0.0
 40
0.0
 40
1.0
 40
1.0
 40
1.0
 40
2.0
 40
2.0
 40
2.0
 40
3.0
 40
3.0
 40
3.0
 40
4.0
 40
4.0
 40
4.0
 40
5.0
 40
5.0
 40
5.0
 40
6.0
 40
6.0
 40
6.0
 40
6.0
 10
18.8110826280381929
 20
-14.4070448133680546
 10
18.8110826280381929
 20
-14.4070448133680546
 10
19.0267456054687472
 20
-14.4070448133680546
 10
19.0267456054687472
 20
-14.4070448133680546
 10
19.069464789496525
 20
-14.4077338324652757
 10
19.1085666232638864
 20
-14.4318495008680543
 10
19.1280314127604143
 20
-14.4697455512152757
 10
19.1476684570312479
 20
-14.5079861111111104
 10
19.1443956163194429
 20
-14.5538058810763875
 10
19.1195909288194414
 20
-14.5889458550347211
 10
19.0944417317708321
 20
-14.6233968098958318
 10
19.0544786241319422
 20
-14.6440673828124979
 10
19.0117594401041643
 20
-14.6447564019097207
 10
19.0117594401041643
 20
-14.6447564019097207
 10
18.8110826280381929
 20
-14.6447564019097207
 10
18.8110826280381929
 20
-14.6447564019097207
 10
18.8110826280381929
 20
-14.6447564019097207
 10
18.8110826280381929
 20
-14.4070448133680546
 10
18.8110826280381929
 20
-14.4070448133680546
 97
        0
 92
       16
 93
        1
 72
     4
 94
        3
 73
     0
 74
     0
 95
       56
 96
       52
 40
0.0
 40
0.0
 40
0.0
 40
0.0
 40
1.0
 40
1.0
 40
1.0
 40
2.0
 40
2.0
 40
2.0
 40
3.0
 40
3.0
 40
3.0
 40
4.0
 40
4.0
 40
4.0
 40
5.0
 40
5.0
 40
5.0
 40
6.0
 40
6.0
 40
6.0
 40
7.0
 40
7.0
 40
7.0
 40
8.0
 40
8.0
 40
8.0
 40
9.0
 40
9.0
 40
9.0
 40
10.0
 40
10.0
 40
10.0
 40
11.0
 40
11.0
 40
11.0
 40
12.0
 40
12.0
 40
12.0
 40
13.0
 40
13.0
 40
13.0
 40
14.0
 40
14.0
 40
14.0
 40
15.0
 40
15.0
 40
15.0
 40
16.0
 40
16.0
 40
16.0
 40
17.0
 40
17.0
 40
17.0
 40
17.0
 10
18.6360717773437479
 20
-14.2688964843749986
 10
18.6360717773437479
 20
-14.2688964843749986
 10
18.6360717773437479
 20
-15.1188015407986089
 10
18.6360717773437479
 20
-15.1188015407986089
 10
18.6360717773437479
 20
-15.1188015407986089
 10
18.8112548828124986
 20
-15.1188015407986089
 10
18.8112548828124986
 20
-15.1188015407986089
 10
18.8112548828124986
 20
-15.1188015407986089
 10
18.8112548828124986
 20
-14.7753255208333325
 10
18.8112548828124986
 20
-14.7753255208333325
 10
18.8112548828124986
 20
-14.7753255208333325
 10
18.9333835177951357
 20
-14.7753255208333325
 10
18.9333835177951357
 20
-14.7753255208333325
 10
18.9628390842013879
 20
-14.7756700303819439
 10
18.9921223958333307
 20
-14.7784261067708318
 10
19.0210611979166657
 20
-14.7839382595486093
 10
19.0663642035590257
 20
-14.7973741319444425
 10
19.1002983940972193
 20
-14.8352701822916657
 10
19.1089111328124979
 20
-14.8817789713541657
 10
19.1197631835937472
 20
-14.9379340277777768
 10
19.1257921006944436
 20
-14.9954671223958318
 10
19.1268256293402743
 20
-15.0526557074652771
 10
19.1275146484374972
 20
-15.07539333767361
 10
19.1337158203124993
 20
-15.0977864583333314
 10
19.1447401258680543
 20
-15.1177680121527764
 10
19.1447401258680543
 20
-15.1177680121527764
 10
19.3085544162326386
 20
-15.1177680121527764
 10
19.3085544162326386
 20
-15.1177680121527764
 10
19.29994167751736
 20
-15.0977864583333314
 10
19.294257269965275
 20
-15.0764268663194425
 10
19.2918457031249986
 20
-15.0547227647569439
 10
19.2918457031249986
 20
-15.0547227647569439
 10
19.2840942382812486
 20
-14.9255316840277761
 10
19.2840942382812486
 20
-14.9255316840277761
 10
19.2834052191840257
 20
-14.8962483723958314
 10
19.2804768880208321
 20
-14.8673095703124982
 10
19.2749647352430529
 20
-14.8387152777777764
 10
19.2639404296874979
 20
-14.7701578776041647
 10
19.2079576280381943
 20
-14.7177924262152757
 10
19.1390557183159693
 20
-14.7109022352430543
 10
19.2339680989583321
 20
-14.6953993055555543
 10
19.3056260850694414
 20
-14.6165066189236104
 10
19.3123440212673607
 20
-14.5207329644097207
 10
19.3211290147569414
 20
-14.4004991319444429
 10
19.2358629014756914
 20
-14.2937011718749982
 10
19.1164903428819422
 20
-14.2761311848958314
 10
19.0785942925347207
 20
-14.2699300130208329
 10
19.0403537326388879
 20
-14.2678629557291661
 10
19.0022854275173607
 20
-14.2688964843749986
 10
19.0022854275173607
 20
-14.2688964843749986
 10
18.6360717773437479
 20
-14.2688964843749986
 10
18.6360717773437479
 20
-14.2688964843749986
 97
        0
 92
       16
 93
        1
 72
     4
 94
        3
 73
     0
 74
     0
 95
       23
 96
       19
 40
0.0
 40
0.0
 40
0.0
 40
0.0
 40
1.0
 40
1.0
 40
1.0
 40
2.0
 40
2.0
 40
2.0
 40
3.0
 40
3.0
 40
3.0
 40
4.0
 40
4.0
 40
4.0
 40
5.0
 40
5.0
 40
5.0
 40
6.0
 40
6.0
 40
6.0
 40
6.0
 10
17.9250040690104164
 20
-14.2685519748263872
 10
17.9250040690104164
 20
-14.2685519748263872
 10
17.9250040690104164
 20
-15.1188015407986089
 10
17.9250040690104164
 20
-15.1188015407986089
 10
17.9250040690104164
 20
-15.1188015407986089
 10
18.5172159830729157
 20
-15.1188015407986089
 10
18.5172159830729157
 20
-15.1188015407986089
 10
18.5172159830729157
 20
-15.1188015407986089
 10
18.5172159830729157
 20
-14.9751410590277771
 10
18.5172159830729157
 20
-14.9751410590277771
 10
18.5172159830729157
 20
-14.9751410590277771
 10
18.1012207031249979
 20
-14.9751410590277771
 10
18.1012207031249979
 20
-14.9751410590277771
 10
18.1012207031249979
 20
-14.9751410590277771
 10
18.1012207031249979
 20
-14.2685519748263872
 10
18.1012207031249979
 20
-14.2685519748263872
 10
18.1012207031249979
 20
-14.2685519748263872
 10
17.9250040690104164
 20
-14.2685519748263872
 10
17.9250040690104164
 20
-14.2685519748263872
 97
        0
 92
       16
 93
        1
 72
     4
 94
        3
 73
     0
 74
     0
 95
       41
 96
       37
 40
0.0
 40
0.0
 40
0.0
 40
0.0
 40
1.0
 40
1.0
 40
1.0
 40
2.0
 40
2.0
 40
2.0
 40
3.0
 40
3.0
 40
3.0
 40
4.0
 40
4.0
 40
4.0
 40
5.0
 40
5.0
 40
5.0
 40
6.0
 40
6.0
 40
6.0
 40
7.0
 40
7.0
 40
7.0
 40
8.0
 40
8.0
 40
8.0
 40
9.0
 40
9.0
 40
9.0
 40
10.0
 40
10.0
 40
10.0
 40
11.0
 40
11.0
 40
11.0
 40
12.0
 40
12.0
 40
12.0
 40
12.0
 10
17.0845730251736079
 20
-14.2709635416666654
 10
17.0845730251736079
 20
-14.2709635416666654
 10
17.3283135308159721
 20
-14.6709391276041661
 10
17.3283135308159721
 20
-14.6709391276041661
 10
17.3283135308159721
 20
-14.6709391276041661
 10
17.0477105034722207
 20
-15.1188015407986089
 10
17.0477105034722207
 20
-15.1188015407986089
 10
17.0477105034722207
 20
-15.1188015407986089
 10
17.24580349392361
 20
-15.1188015407986089
 10
17.24580349392361
 20
-15.1188015407986089
 10
17.24580349392361
 20
-15.1188015407986089
 10
17.427360026041665
 20
-14.8128770616319425
 10
17.427360026041665
 20
-14.8128770616319425
 10
17.427360026041665
 20
-14.8128770616319425
 10
17.6051269531249979
 20
-15.1188015407986089
 10
17.6051269531249979
 20
-15.1188015407986089
 10
17.6051269531249979
 20
-15.1188015407986089
 10
17.8018419053819414
 20
-15.1188015407986089
 10
17.8018419053819414
 20
-15.1188015407986089
 10
17.8018419053819414
 20
-15.1188015407986089
 10
17.5276123046874979
 20
-14.6709391276041661
 10
17.5276123046874979
 20
-14.6709391276041661
 10
17.5276123046874979
 20
-14.6709391276041661
 10
17.7763481987847207
 20
-14.2716525607638882
 10
17.7763481987847207
 20
-14.2716525607638882
 10
17.7763481987847207
 20
-14.2716525607638882
 10
17.5834228515624993
 20
-14.2716525607638882
 10
17.5834228515624993
 20
-14.2716525607638882
 10
17.5834228515624993
 20
-14.2716525607638882
 10
17.4299438476562472
 20
-14.5338243272569425
 10
17.4299438476562472
 20
-14.5338243272569425
 10
17.4299438476562472
 20
-14.5338243272569425
 10
17.2781873914930557
 20
-14.2709635416666654
 10
17.2781873914930557
 20
-14.2709635416666654
 10
17.2781873914930557
 20
-14.2709635416666654
 10
17.0845730251736079
 20
-14.2709635416666654
 10
17.0845730251736079
 20
-14.2709635416666654
 97
        0
 75
     2
 76
     1
 98
        1
 10
0.0
 20
0.0
  0
ELLIPSE
  5
37
100
AcDbEntity
  8
NO
390
0
 62
     7
100
AcDbEllipse
 10
8.929515
 20
-7.906839
 30
0.0
 11
0.0
 21
-0.2866319444444444
 31
0.0
210
0.0
220
0.0
230
1.0
 40
0.923077
 41
0.0
 42
6.2831853071795862
  0
HATCH
  5
36
100
AcDbEntity
  8
NO
390
0
 62
     7
100
AcDbHatch
 10
0.0
 20
0.0
 30
0.0
210
0.0
220
0.0
230
1.0
  2
SOLID
 70
     1
 71
     0
 91
        1
 92
        1
 93
        1
 72
     4
 94
        3
 73
     0
 74
     0
 95
       17
 96
       13
 40
0.0
 40
0.0
 40
0.0
 40
0.0
 40
1.0
 40
1.0
 40
1.0
 40
2.0
 40
2.0
 40
2.0
 40
3.0
 40
3.0
 40
3.0
 40
4.0
 40
4.0
 40
4.0
 40
4.0
 10
9.1940985785590268
 20
-7.9068386501736105
 10
9.1940985785590268
 20
-8.0653130425347221
 10
9.0755872938368043
 20
-8.1934705946180539
 10
8.9295152452256943
 20
-8.1934705946180539
 10
8.7834431966145825
 20
-8.1934705946180539
 10
8.66493191189236
 20
-8.0653130425347221
 10
8.66493191189236
 20
-7.9068386501736105
 10
8.66493191189236
 20
-7.7483642578124989
 10
8.7834431966145825
 20
-7.6202067057291663
 10
8.9295152452256943
 20
-7.6202067057291663
 10
9.0755872938368043
 20
-7.6202067057291663
 10
9.1940985785590268
 20
-7.7483642578124989
 10
9.1940985785590268
 20
-7.9068386501736105
 97
        0
 75
     2
 76
     1
 98
        1
 10
0.0
 20
0.0
  0
LINE
  5
35
100
AcDbEntity
  8
NO
390
0
 62
     7
100
AcDbLine
 10
8.929515
 20
-7.534424
 30
0.0
 11
8.929515
 21
8.963449
 31
0.0
  0
LINE
  5
34
100
AcDbEntity
  8
NO
390
0
 62
     7
100
AcDbLine
 10
8.929515
 20
-7.862741
 30
0.0
 11
8.929515
 21
10.025917
 31
0.0
  0
ELLIPSE
  5
33
100
AcDbEntity
  8
NO
390
0
 62
     7
100
AcDbEllipse
 10
31.859899
 20
-7.906839
 30
0.0
 11
0.0
 21
-0.2866319444444444
 31
0.0
210
0.0
220
0.0
230
1.0
 40
0.923077
 41
0.0
 42
6.2831853071795862
  0
HATCH
  5
32
100
AcDbEntity
  8
NO
390
0
 62
     7
100
AcDbHatch
 10
0.0
 20
0.0
 30
0.0
210
0.0
220
0.0
230
1.0
  2
SOLID
 70
     1
 71
     0
 91
        1
 92
        1
 93
        1
 72
     4
 94
        3
 73
     0
 74
     0
 95
       17
 96
       13
 40
0.0
 40
0.0
 40
0.0
 40
0.0
 40
1.0
 40
1.0
 40
1.0
 40
2.0
 40
2.0
 40
2.0
 40
3.0
 40
3.0
 40
3.0
 40
4.0
 40
4.0
 40
4.0
 40
4.0
 10
32.1244818793402729
 20
-7.9068386501736105
 10
32.1244818793402729
 20
-8.0653130425347221
 10
32.0063151041666671
 20
-8.1934705946180539
 10
31.8598985460069422
 20
-8.1934705946180539
 10
31.7138264973958321
 20
-8.1934705946180539
 10
31.5953152126736079
 20
-8.0653130425347221
 10
31.5953152126736079
 20
-7.9068386501736105
 10
31.5953152126736079
 20
-7.7483642578124989
 10
31.7138264973958321
 20
-7.6202067057291663
 10
31.8598985460069422
 20
-7.6202067057291663
 10
32.0063151041666671
 20
-7.6202067057291663
 10
32.1244818793402729
 20
-7.7483642578124989
 10
32.1244818793402729
 20
-7.9068386501736105
 97
        0
 75
     2
 76
     1
 98
        1
 10
0.0
 20
0.0
  0
LINE
  5
31
100
AcDbEntity
  8
NO
390
0
 62
     7
100
AcDbLine
 10
31.859899
 20
-7.534424
 30
0.0
 11
31.859899
 21
8.963449
 31
0.0
  0
LINE
  5
30
100
AcDbEntity
  8
NO
390
0
 62
     7
100
AcDbLine
 10
31.859899
 20
-7.862741
 30
0.0
 11
31.859899
 21
10.025917
 31
0.0
  0
ELLIPSE
  5
2F
100
AcDbEntity
  8
NO
390
0
 62
     7
100
AcDbEllipse
 10
20.394707
 20
-6.231144
 30
0.0
 11
-0.0000861273871528
 21
-0.2866319444444444
 31
0.0
210
0.0
220
0.0
230
1.0
 40
0.922776
 41
0.0
 42
6.2831853071795862
  0
HATCH
  5
2E
100
AcDbEntity
  8
NO
390
0
 62
     7
100
AcDbHatch
 10
0.0
 20
0.0
 30
0.0
210
0.0
220
0.0
230
1.0
  2
SOLID
 70
     1
 71
     0
 91
        1
 92
        1
 93
        1
 72
     4
 94
        3
 73
     0
 74
     0
 95
       17
 96
       13
 40
0.0
 40
0.0
 40
0.0
 40
0.0
 40
1.0
 40
1.0
 40
1.0
 40
2.0
 40
2.0
 40
2.0
 40
3.0
 40
3.0
 40
3.0
 40
4.0
 40
4.0
 40
4.0
 40
4.0
 10
20.6592041015624979
 20
-6.2311442057291657
 10
20.6592041015624979
 20
-6.3896185980902773
 10
20.5410373263888886
 20
-6.5177761501736109
 10
20.3946207682291636
 20
-6.5177761501736109
 10
20.2485487196180536
 20
-6.5177761501736109
 10
20.1302096896701386
 20
-6.3896185980902773
 10
20.1302096896701386
 20
-6.2311442057291657
 10
20.1302096896701386
 20
-6.072669813368055
 10
20.2485487196180536
 20
-5.9445122612847214
 10
20.3946207682291636
 20
-5.9445122612847214
 10
20.5410373263888886
 20
-5.9445122612847214
 10
20.6592041015624979
 20
-6.072669813368055
 10
20.6592041015624979
 20
-6.2311442057291657
 97
        0
 75
     2
 76
     1
 98
        1
 10
0.0
 20
0.0
  0
LINE
  5
2D
100
AcDbEntity
  8
NO
390
0
 62
     7
100
AcDbLine
 10
20.394621
 20
-5.88784
 30
0.0
 11
20.394621
 21
9.146039
 31
0.0
  0
LINE
  5
2C
100
AcDbEntity
  8
NO
390
0
 62
     7
100
AcDbLine
 10
20.394621
 20
-6.187047
 30
0.0
 11
20.394621
 21
10.114111
 31
0.0
  0
HATCH
  5
2B
100
AcDbEntity
  8
NO
390
0
 62
     7
100
AcDbHatch
 10
0.0
 20
0.0
 30
0.0
210
0.0
220
0.0
230
1.0
  2
SOLID
 70
     1
 71
     0
 91
        4
 92
        1
 93
        1
 72
     4
 94
        3
 73
     0
 74
     0
 95
       32
 96
       28
 40
0.0
 40
0.0
 40
0.0
 40
0.0
 40
1.0
 40
1.0
 40
1.0
 40
2.0
 40
2.0
 40
2.0
 40
3.0
 40
3.0
 40
3.0
 40
4.0
 40
4.0
 40
4.0
 40
5.0
 40
5.0
 40
5.0
 40
6.0
 40
6.0
 40
6.0
 40
7.0
 40
7.0
 40
7.0
 40
8.0
 40
8.0
 40
8.0
 40
9.0
 40
9.0
 40
9.0
 40
9.0
 10
9.6686604817708321
 20
10.8920138888888882
 10
9.6686604817708321
 20
10.8920138888888882
 10
9.6686604817708321
 20
12.7279052734374982
 10
9.6686604817708321
 20
12.7279052734374982
 10
9.6686604817708321
 20
12.7279052734374982
 10
9.1930650499131943
 20
12.7279052734374982
 10
9.1930650499131943
 20
12.7279052734374982
 10
9.1930650499131943
 20
12.7279052734374982
 10
9.1930650499131943
 20
12.994727918836805
 10
9.1930650499131943
 20
12.994727918836805
 10
9.1930650499131943
 20
12.994727918836805
 10
9.2287217881944432
 20
12.994727918836805
 10
9.2287217881944432
 20
12.994727918836805
 10
9.4464518229166661
 20
12.994727918836805
 10
9.7043172200520829
 20
13.05226101345486
 10
9.7665011935763886
 20
13.3723103841145825
 10
9.7665011935763886
 20
13.3723103841145825
 10
9.7665011935763886
 20
13.4212307400173607
 10
9.7665011935763886
 20
13.4212307400173607
 10
9.7665011935763886
 20
13.4212307400173607
 10
10.0331515842013879
 20
13.4212307400173607
 10
10.0331515842013879
 20
13.4212307400173607
 10
10.0331515842013879
 20
13.4212307400173607
 10
10.0331515842013879
 20
10.8920138888888882
 10
10.0331515842013879
 20
10.8920138888888882
 10
10.0331515842013879
 20
10.8920138888888882
 10
9.6686604817708321
 20
10.8920138888888882
 10
9.6686604817708321
 20
10.8920138888888882
 97
        0
 92
        1
 93
        1
 72
     4
 94
        3
 73
     0
 74
     0
 95
       59
 96
       55
 40
0.0
 40
0.0
 40
0.0
 40
0.0
 40
1.0
 40
1.0
 40
1.0
 40
2.0
 40
2.0
 40
2.0
 40
3.0
 40
3.0
 40
3.0
 40
4.0
 40
4.0
 40
4.0
 40
5.0
 40
5.0
 40
5.0
 40
6.0
 40
6.0
 40
6.0
 40
7.0
 40
7.0
 40
7.0
 40
8.0
 40
8.0
 40
8.0
 40
9.0
 40
9.0
 40
9.0
 40
10.0
 40
10.0
 40
10.0
 40
11.0
 40
11.0
 40
11.0
 40
12.0
 40
12.0
 40
12.0
 40
13.0
 40
13.0
 40
13.0
 40
14.0
 40
14.0
 40
14.0
 40
15.0
 40
15.0
 40
15.0
 40
16.0
 40
16.0
 40
16.0
 40
17.0
 40
17.0
 40
17.0
 40
18.0
 40
18.0
 40
18.0
 40
18.0
 10
8.2196533203124993
 20
10.84309353298611
 10
7.8064141167534711
 20
10.84309353298611
 10
7.5705973307291661
 20
11.0697808159722211
 10
7.5705973307291661
 20
11.5989474826388879
 10
7.5705973307291661
 20
11.5989474826388879
 10
7.9173461914062493
 20
11.5989474826388879
 10
7.9173461914062493
 20
11.5989474826388879
 10
7.9173461914062493
 20
11.3765665690104161
 10
7.979530164930555
 20
11.1276584201388875
 10
8.2284383138020818
 20
11.1276584201388875
 10
8.4551255967881929
 20
11.1276584201388875
 10
8.54865993923611
 20
11.3321248372395829
 10
8.54865993923611
 20
11.5810329861111097
 10
8.54865993923611
 20
11.8921251085069439
 10
8.4551255967881929
 20
12.0566284179687493
 10
8.1796902126736111
 20
12.0566284179687493
 10
8.1796902126736111
 20
12.0566284179687493
 10
8.0374077690972214
 20
12.0566284179687493
 10
8.0374077690972214
 20
12.0566284179687493
 10
8.0374077690972214
 20
12.0566284179687493
 10
8.0374077690972214
 20
12.3411933051215268
 10
8.0374077690972214
 20
12.3411933051215268
 10
8.0374077690972214
 20
12.3411933051215268
 10
8.1662543402777779
 20
12.3411933051215268
 10
8.1662543402777779
 20
12.3411933051215268
 10
8.4106838650173597
 20
12.3411933051215268
 10
8.4950887044270829
 20
12.5277452256944439
 10
8.4950887044270829
 20
12.7723470052083314
 10
8.4950887044270829
 20
12.9545925564236093
 10
8.4196411132812496
 20
13.1366658528645814
 10
8.2329169379340268
 20
13.1366658528645814
 10
8.0062296549479157
 20
13.1366658528645814
 10
7.94404568142361
 20
12.9232421874999996
 10
7.94404568142361
 20
12.6922485351562493
 10
7.94404568142361
 20
12.6922485351562493
 10
7.5974690755208325
 20
12.6922485351562493
 10
7.5974690755208325
 20
12.6922485351562493
 10
7.5974690755208325
 20
13.1678439670138872
 10
7.8150268554687496
 20
13.4212307400173607
 10
8.250831434461805
 20
13.4212307400173607
 10
8.5264390733506943
 20
13.4212307400173607
 10
8.8640584309895818
 20
13.2835991753472218
 10
8.8640584309895818
 20
12.7766533745659707
 10
8.8640584309895818
 20
12.5143093532986107
 10
8.7217759874131939
 20
12.2610948350694429
 10
8.4997395833333318
 20
12.2211317274305546
 10
8.4997395833333318
 20
12.2211317274305546
 10
8.4997395833333318
 20
12.2123467339409704
 10
8.4997395833333318
 20
12.2123467339409704
 10
8.7353841145833329
 20
12.1899536132812489
 10
8.91297878689236
 20
11.9811808268229161
 10
8.91297878689236
 20
11.6254747178819429
 10
8.91297878689236
 20
11.1276584201388875
 10
8.6909423828124996
 20
10.84309353298611
 10
8.2196533203124993
 20
10.84309353298611
 97
        0
 92
       16
 93
        1
 72
     4
 94
        3
 73
     0
 74
     0
 95
       17
 96
       13
 40
0.0
 40
0.0
 40
0.0
 40
0.0
 40
1.0
 40
1.0
 40
1.0
 40
2.0
 40
2.0
 40
2.0
 40
3.0
 40
3.0
 40
3.0
 40
4.0
 40
4.0
 40
4.0
 40
4.0
 10
8.9355441623263889
 20
14.0613294813368039
 10
7.8772108289930545
 20
14.0613294813368039
 10
7.0195543077256941
 20
13.2035007052951379
 10
7.0195543077256941
 20
12.1455118815104157
 10
7.0195543077256941
 20
11.0920016818576386
 10
7.8772108289930545
 20
10.2341729058159707
 10
8.9355441623263889
 20
10.2341729058159707
 10
9.9887098524305546
 20
10.2341729058159707
 10
10.8467108832465264
 20
11.0920016818576386
 10
10.8467108832465264
 20
12.1455118815104157
 10
10.8467108832465264
 20
13.2035007052951379
 10
9.9887098524305546
 20
14.0613294813368039
 10
8.9355441623263889
 20
14.0613294813368039
 97
        0
 92
        1
 93
        1
 72
     4
 94
        3
 73
     0
 74
     0
 95
       17
 96
       13
 40
0.0
 40
0.0
 40
0.0
 40
0.0
 40
1.0
 40
1.0
 40
1.0
 40
2.0
 40
2.0
 40
2.0
 40
3.0
 40
3.0
 40
3.0
 40
4.0
 40
4.0
 40
4.0
 40
4.0
 10
8.9355441623263889
 20
10.1051540798611104
 10
7.8064141167534711
 20
10.1051540798611104
 10
6.895014105902777
 20
11.0210327148437486
 10
6.895014105902777
 20
12.1455118815104157
 10
6.895014105902777
 20
13.2744696723090261
 10
7.8064141167534711
 20
14.1856974283854154
 10
8.9355441623263889
 20
14.1856974283854154
 10
10.0596788194444429
 20
14.1856974283854154
 10
10.9712510850694436
 20
13.2744696723090261
 10
10.9712510850694436
 20
12.1455118815104157
 10
10.9712510850694436
 20
11.0210327148437486
 10
10.0596788194444429
 20
10.1051540798611104
 10
8.9355441623263889
 20
10.1051540798611104
 97
        0
 75
     2
 76
     1
 98
        1
 10
0.0
 20
0.0
  0
HATCH
  5
2A
100
AcDbEntity
  8
NO
390
0
 62
     7
100
AcDbHatch
 10
0.0
 20
0.0
 30
0.0
210
0.0
220
0.0
230
1.0
  2
SOLID
 70
     1
 71
     0
 91
        4
 92
        1
 93
        1
 72
     4
 94
        3
 73
     0
 74
     0
 95
       35
 96
       31
 40
0.0
 40
0.0
 40
0.0
 40
0.0
 40
1.0
 40
1.0
 40
1.0
 40
2.0
 40
2.0
 40
2.0
 40
3.0
 40
3.0
 40
3.0
 40
4.0
 40
4.0
 40
4.0
 40
5.0
 40
5.0
 40
5.0
 40
6.0
 40
6.0
 40
6.0
 40
7.0
 40
7.0
 40
7.0
 40
8.0
 40
8.0
 40
8.0
 40
9.0
 40
9.0
 40
9.0
 40
10.0
 40
10.0
 40
10.0
 40
10.0
 10
20.459388563368055
 20
11.0263726128472204
 10
20.459388563368055
 20
12.1288031684027775
 10
21.4202256944444436
 20
12.10658230251736
 10
21.4202256944444436
 20
12.8932698567708321
 10
21.4202256944444436
 20
13.102042643229165
 10
21.3396104600694407
 20
13.2756754557291661
 10
21.1353162977430529
 20
13.2756754557291661
 10
20.860053168402775
 20
13.2756754557291661
 10
20.8149224175347207
 20
13.0043741861979161
 10
20.8149224175347207
 20
12.7465087890624993
 10
20.8149224175347207
 20
12.7465087890624993
 10
20.4686903211805529
 20
12.7465087890624993
 10
20.4686903211805529
 20
12.7465087890624993
 10
20.4686903211805529
 20
13.2534545898437486
 10
20.6554144965277757
 20
13.5645467122395829
 10
21.1442735460069429
 20
13.5645467122395829
 10
21.6110839843749964
 20
13.5645467122395829
 10
21.7888509114583329
 20
13.2577609592013879
 10
21.7888509114583329
 20
12.8844848632812496
 10
21.7888509114583329
 20
12.0443983289930543
 10
21.0467773437499979
 20
11.9908270941840271
 10
20.8731445312499986
 20
11.3686428493923604
 10
20.8731445312499986
 20
11.3686428493923604
 10
21.7978081597222193
 20
11.3686428493923604
 10
21.7978081597222193
 20
11.3686428493923604
 10
21.7978081597222193
 20
11.3686428493923604
 10
21.7978081597222193
 20
11.0263726128472204
 10
21.7978081597222193
 20
11.0263726128472204
 10
21.7978081597222193
 20
11.0263726128472204
 10
20.459388563368055
 20
11.0263726128472204
 10
20.459388563368055
 20
11.0263726128472204
 97
        0
 92
        1
 93
        1
 72
     4
 94
        3
 73
     0
 74
     0
 95
       59
 96
       55
 40
0.0
 40
0.0
 40
0.0
 40
0.0
 40
1.0
 40
1.0
 40
1.0
 40
2.0
 40
2.0
 40
2.0
 40
3.0
 40
3.0
 40
3.0
 40
4.0
 40
4.0
 40
4.0
 40
5.0
 40
5.0
 40
5.0
 40
6.0
 40
6.0
 40
6.0
 40
7.0
 40
7.0
 40
7.0
 40
8.0
 40
8.0
 40
8.0
 40
9.0
 40
9.0
 40
9.0
 40
10.0
 40
10.0
 40
10.0
 40
11.0
 40
11.0
 40
11.0
 40
12.0
 40
12.0
 40
12.0
 40
13.0
 40
13.0
 40
13.0
 40
14.0
 40
14.0
 40
14.0
 40
15.0
 40
15.0
 40
15.0
 40
16.0
 40
16.0
 40
16.0
 40
17.0
 40
17.0
 40
17.0
 40
18.0
 40
18.0
 40
18.0
 40
18.0
 10
19.5441989474826379
 20
10.9774522569444439
 10
19.1350938585069414
 20
10.9774522569444439
 10
18.8949707031249972
 20
11.1998331705729157
 10
18.8949707031249972
 20
11.7333062065972218
 10
18.8949707031249972
 20
11.7333062065972218
 10
19.2417195638020821
 20
11.7333062065972218
 10
19.2417195638020821
 20
11.7333062065972218
 10
19.2417195638020821
 20
11.5109252929687482
 10
19.3083821614583329
 20
11.2620171440972214
 10
19.5574625651041636
 20
11.2620171440972214
 10
19.7841498480902764
 20
11.2620171440972214
 10
19.8775119357638879
 20
11.466483561197915
 10
19.8775119357638879
 20
11.7196980794270829
 10
19.8775119357638879
 20
12.0307902018229154
 10
19.7794989691840257
 20
12.1909871419270814
 10
19.5040635850694422
 20
12.1909871419270814
 10
19.5040635850694422
 20
12.1909871419270814
 10
19.3617811414930543
 20
12.1909871419270814
 10
19.3617811414930543
 20
12.1909871419270814
 10
19.3617811414930543
 20
12.1909871419270814
 10
19.3617811414930543
 20
12.4798583984374982
 10
19.3617811414930543
 20
12.4798583984374982
 10
19.3617811414930543
 20
12.4798583984374982
 10
19.4952785915798579
 20
12.4798583984374982
 10
19.4952785915798579
 20
12.4798583984374982
 10
19.7395358615451357
 20
12.4798583984374982
 10
19.8241129557291664
 20
12.6621039496527761
 10
19.8241129557291664
 20
12.9110120985243046
 10
19.8241129557291664
 20
13.0934299045138882
 10
19.7486653645833314
 20
13.2756754557291661
 10
19.5574625651041636
 20
13.2756754557291661
 10
19.3352539062499993
 20
13.2756754557291661
 10
19.2685913085937486
 20
13.0620795355902768
 10
19.2685913085937486
 20
12.8309136284722207
 10
19.2685913085937486
 20
12.8309136284722207
 10
18.9216701931423579
 20
12.8309136284722207
 10
18.9216701931423579
 20
12.8309136284722207
 10
18.9216701931423579
 20
13.3065090603298604
 10
19.1438788519965257
 20
13.5645467122395829
 10
19.5796834309895829
 20
13.5645467122395829
 10
19.8509847005208329
 20
13.5645467122395829
 10
20.1929104275173579
 20
13.4222642686631932
 10
20.1929104275173579
 20
12.9153184678819439
 10
20.1929104275173579
 20
12.6533189561631936
 10
20.0508002387152757
 20
12.3997599283854161
 10
19.8284193250868022
 20
12.3597968207465261
 10
19.8284193250868022
 20
12.3597968207465261
 10
19.8284193250868022
 20
12.3465332031249986
 10
19.8284193250868022
 20
12.3465332031249986
 10
20.064063856336805
 20
12.3289632161458318
 10
20.2416585286458321
 20
12.1151950412326386
 10
20.2416585286458321
 20
11.7598334418402768
 10
20.2416585286458321
 20
11.2577107747395821
 10
20.0153157552083307
 20
10.9774522569444439
 10
19.5441989474826379
 20
10.9774522569444439
 97
        0
 92
       16
 93
        1
 72
     4
 94
        3
 73
     0
 74
     0
 95
       17
 96
       13
 40
0.0
 40
0.0
 40
0.0
 40
0.0
 40
1.0
 40
1.0
 40
1.0
 40
2.0
 40
2.0
 40
2.0
 40
3.0
 40
3.0
 40
3.0
 40
4.0
 40
4.0
 40
4.0
 40
4.0
 10
20.4152913411458314
 20
14.1467678493923597
 10
19.357474772135415
 20
14.1467678493923597
 10
18.4994737413194414
 20
13.2889390733506936
 10
18.4994737413194414
 20
12.2309502495659714
 10
18.4994737413194414
 20
11.1684828016493043
 10
19.357474772135415
 20
10.3108262803819439
 10
20.4152913411458314
 20
10.3108262803819439
 10
21.4774142795138872
 20
10.3108262803819439
 10
22.3359320746527743
 20
11.1684828016493043
 10
22.3359320746527743
 20
12.2309502495659714
 10
22.3359320746527743
 20
13.2889390733506936
 10
21.4774142795138872
 20
14.1467678493923597
 10
20.4152913411458314
 20
14.1467678493923597
 97
        0
 92
        1
 93
        1
 72
     4
 94
        3
 73
     0
 74
     0
 95
       17
 96
       13
 40
0.0
 40
0.0
 40
0.0
 40
0.0
 40
1.0
 40
1.0
 40
1.0
 40
2.0
 40
2.0
 40
2.0
 40
3.0
 40
3.0
 40
3.0
 40
4.0
 40
4.0
 40
4.0
 40
4.0
 10
20.4152913411458314
 20
10.1816351996527761
 10
19.2861612955729136
 20
10.1816351996527761
 10
18.3706271701388886
 20
11.0975138346354161
 10
18.3706271701388886
 20
12.2309502495659714
 10
18.3706271701388886
 20
13.3600802951388875
 10
19.2861612955729136
 20
14.2754421657986104
 10
20.4152913411458314
 20
14.2754421657986104
 10
21.5483832465277771
 20
14.2754421657986104
 10
22.4647786458333307
 20
13.3600802951388875
 10
22.4647786458333307
 20
12.2309502495659714
 10
22.4647786458333307
 20
11.0975138346354161
 10
21.5483832465277771
 20
10.1816351996527761
 10
20.4152913411458314
 20
10.1816351996527761
 97
        0
 75
     2
 76
     1
 98
        1
 10
0.0
 20
0.0
  0
HATCH
  5
29
100
AcDbEntity
  8
NO
390
0
 62
     7
100
AcDbHatch
 10
0.0
 20
0.0
 30
0.0
210
0.0
220
0.0
230
1.0
  2
SOLID
 70
     1
 71
     0
 91
        4
 92
        1
 93
        1
 72
     4
 94
        3
 73
     0
 74
     0
 95
       32
 96
       28
 40
0.0
 40
0.0
 40
0.0
 40
0.0
 40
1.0
 40
1.0
 40
1.0
 40
2.0
 40
2.0
 40
2.0
 40
3.0
 40
3.0
 40
3.0
 40
4.0
 40
4.0
 40
4.0
 40
5.0
 40
5.0
 40
5.0
 40
6.0
 40
6.0
 40
6.0
 40
7.0
 40
7.0
 40
7.0
 40
8.0
 40
8.0
 40
8.0
 40
9.0
 40
9.0
 40
9.0
 40
9.0
 10
32.4228271484374986
 20
10.9802083333333318
 10
32.4228271484374986
 20
10.9802083333333318
 10
32.4228271484374986
 20
12.8160997178819436
 10
32.4228271484374986
 20
12.8160997178819436
 10
32.4228271484374986
 20
12.8160997178819436
 10
31.9474039713541629
 20
12.8160997178819436
 10
31.9474039713541629
 20
12.8160997178819436
 10
31.9474039713541629
 20
12.8160997178819436
 10
31.9474039713541629
 20
13.0829223632812486
 10
31.9474039713541629
 20
13.0829223632812486
 10
31.9474039713541629
 20
13.0829223632812486
 10
31.9828884548611079
 20
13.0829223632812486
 10
31.9828884548611079
 20
13.0829223632812486
 10
32.2006184895833272
 20
13.0829223632812486
 10
32.45831163194444
 20
13.1404554578993036
 10
32.5210123697916629
 20
13.4605048285590261
 10
32.5210123697916629
 20
13.4605048285590261
 10
32.5210123697916629
 20
13.5094251844618043
 10
32.5210123697916629
 20
13.5094251844618043
 10
32.5210123697916629
 20
13.5094251844618043
 10
32.7873182508680543
 20
13.5094251844618043
 10
32.7873182508680543
 20
13.5094251844618043
 10
32.7873182508680543
 20
13.5094251844618043
 10
32.7873182508680543
 20
10.9802083333333318
 10
32.7873182508680543
 20
10.9802083333333318
 10
32.7873182508680543
 20
10.9802083333333318
 10
32.4228271484374986
 20
10.9802083333333318
 10
32.4228271484374986
 20
10.9802083333333318
 97
        0
 92
        1
 93
        1
 72
     4
 94
        3
 73
     0
 74
     0
 95
       59
 96
       55
 40
0.0
 40
0.0
 40
0.0
 40
0.0
 40
1.0
 40
1.0
 40
1.0
 40
2.0
 40
2.0
 40
2.0
 40
3.0
 40
3.0
 40
3.0
 40
4.0
 40
4.0
 40
4.0
 40
5.0
 40
5.0
 40
5.0
 40
6.0
 40
6.0
 40
6.0
 40
7.0
 40
7.0
 40
7.0
 40
8.0
 40
8.0
 40
8.0
 40
9.0
 40
9.0
 40
9.0
 40
10.0
 40
10.0
 40
10.0
 40
11.0
 40
11.0
 40
11.0
 40
12.0
 40
12.0
 40
12.0
 40
13.0
 40
13.0
 40
13.0
 40
14.0
 40
14.0
 40
14.0
 40
15.0
 40
15.0
 40
15.0
 40
16.0
 40
16.0
 40
16.0
 40
17.0
 40
17.0
 40
17.0
 40
18.0
 40
18.0
 40
18.0
 40
18.0
 10
30.9741644965277736
 20
10.9312879774305554
 10
30.56040852864583
 20
10.9312879774305554
 10
30.3247639973958307
 20
11.1579752604166664
 10
30.3247639973958307
 20
11.6871419270833314
 10
30.3247639973958307
 20
11.6871419270833314
 10
30.6716851128472179
 20
11.6871419270833314
 10
30.6716851128472179
 20
11.6871419270833314
 10
30.6716851128472179
 20
11.4647610134548597
 10
30.7336968315972179
 20
11.2158528645833329
 10
30.9824327256944407
 20
11.2158528645833329
 10
31.209464518229165
 20
11.2158528645833329
 10
31.302482096354165
 20
11.4203192816840264
 10
31.302482096354165
 20
11.669227430555555
 10
31.302482096354165
 20
11.9803195529513875
 10
31.209464518229165
 20
12.1448228624131929
 10
30.9338568793402757
 20
12.1448228624131929
 10
30.9338568793402757
 20
12.1448228624131929
 10
30.7912299262152764
 20
12.1448228624131929
 10
30.7912299262152764
 20
12.1448228624131929
 10
30.7912299262152764
 20
12.1448228624131929
 10
30.7912299262152764
 20
12.4293877495659704
 10
30.7912299262152764
 20
12.4293877495659704
 10
30.7912299262152764
 20
12.4293877495659704
 10
30.9200764973958293
 20
12.4293877495659704
 10
30.9200764973958293
 20
12.4293877495659704
 10
31.1646782769097186
 20
12.4293877495659704
 10
31.2494276258680515
 20
12.6159396701388875
 10
31.2494276258680515
 20
12.8605414496527768
 10
31.2494276258680515
 20
13.0427870008680546
 10
31.17398003472222
 20
13.2248602973090268
 10
30.9869113498263857
 20
13.2248602973090268
 10
30.7602240668402764
 20
13.2248602973090268
 10
30.6982123480902764
 20
13.0114366319444432
 10
30.6982123480902764
 20
12.7804429796006929
 10
30.6982123480902764
 20
12.7804429796006929
 10
30.3516357421874972
 20
12.7804429796006929
 10
30.3516357421874972
 20
12.7804429796006929
 10
30.3516357421874972
 20
13.2560384114583325
 10
30.5690212673611086
 20
13.5094251844618043
 10
31.0051703559027736
 20
13.5094251844618043
 10
31.2804334852430515
 20
13.5094251844618043
 10
31.6183973524305522
 20
13.3717936197916654
 10
31.6183973524305522
 20
12.8648478190104161
 10
31.6183973524305522
 20
12.6025037977430543
 10
31.4757703993055529
 20
12.3492892795138882
 10
31.2539062499999964
 20
12.3093261718749982
 10
31.2539062499999964
 20
12.3093261718749982
 10
31.2539062499999964
 20
12.3005411783854157
 10
31.2539062499999964
 20
12.3005411783854157
 10
31.4892062717013843
 20
12.2781480577256925
 10
31.6669731987847207
 20
12.0693752712673597
 10
31.6669731987847207
 20
11.7136691623263882
 10
31.6669731987847207
 20
11.2158528645833329
 10
31.4451090494791643
 20
10.9312879774305554
 10
30.9741644965277736
 20
10.9312879774305554
 97
        0
 92
       16
 93
        1
 72
     4
 94
        3
 73
     0
 74
     0
 95
       17
 96
       13
 40
0.0
 40
0.0
 40
0.0
 40
0.0
 40
1.0
 40
1.0
 40
1.0
 40
2.0
 40
2.0
 40
2.0
 40
3.0
 40
3.0
 40
3.0
 40
4.0
 40
4.0
 40
4.0
 40
4.0
 10
31.690055338541665
 20
14.1495239257812493
 10
30.6317220052083314
 20
14.1495239257812493
 10
29.7735487196180522
 20
13.2916951497395814
 10
29.7735487196180522
 20
12.2337063259548593
 10
29.7735487196180522
 20
11.1801961263020821
 10
30.6317220052083314
 20
10.3223673502604161
 10
31.690055338541665
 20
10.3223673502604161
 10
32.7428765190972157
 20
10.3223673502604161
 10
33.6010498046874986
 20
11.1801961263020821
 10
33.6010498046874986
 20
12.2337063259548593
 10
33.6010498046874986
 20
13.2916951497395814
 10
32.7428765190972157
 20
14.1495239257812493
 10
31.690055338541665
 20
14.1495239257812493
 97
        0
 92
        1
 93
        1
 72
     4
 94
        3
 73
     0
 74
     0
 95
       17
 96
       13
 40
0.0
 40
0.0
 40
0.0
 40
0.0
 40
1.0
 40
1.0
 40
1.0
 40
2.0
 40
2.0
 40
2.0
 40
3.0
 40
3.0
 40
3.0
 40
4.0
 40
4.0
 40
4.0
 40
4.0
 10
31.690055338541665
 20
10.1933485243055539
 10
30.56040852864583
 20
10.1933485243055539
 10
29.6488362630208293
 20
11.1092271592881939
 10
29.6488362630208293
 20
12.2337063259548593
 10
29.6488362630208293
 20
13.3626641167534714
 10
30.56040852864583
 20
14.2738918728298589
 10
31.690055338541665
 20
14.2738918728298589
 10
32.8135009765624943
 20
14.2738918728298589
 10
33.7250732421874986
 20
13.3626641167534714
 10
33.7250732421874986
 20
12.2337063259548593
 10
33.7250732421874986
 20
11.1092271592881939
 10
32.8135009765624943
 20
10.1933485243055539
 10
31.690055338541665
 20
10.1933485243055539
 97
        0
 75
     2
 76
     1
 98
        1
 10
0.0
 20
0.0
  0
ENDSEC
  0
SECTION
  2
OBJECTS
  0
DICTIONARY
  5
19
100
AcDbDictionary
280
     0
281
     1
  3
ACAD_GROUP
350
1A
  3
ACAD_MLINESTYLE
350
1B
  3
ACAD_LAYOUT
350
1E
  3
ACAD_PLOTSETTINGS
350
22
  3
ACAD_PLOTSTYLENAME
350
1F
  3
ACAD_WIPEOUT_VARS
350
23
  0
DICTIONARY
  5
1A
102
{ACAD_REACTORS
330
19
102
}
100
AcDbDictionary
280
     0
281
     1
  0
DICTIONARY
  5
1B
102
{ACAD_REACTORS
330
19
102
}
100
AcDbDictionary
280
     0
281
     1
  3
Standard
350
1C
  0
MLINESTYLE
  5
1C
102
{ACAD_REACTORS
330
1B
102
}
100
AcDbMlineStyle
  2
Standard
 70
     0
  3

 62
     0
 51
90.0
 52
90.0
 71
     2
 49
0.5
 62
   256
  6
ByLayer
 49
-0.5
 62
   256
  6
ByLayer
  0
ACDBDICTIONARYWDFLT
  5
1F
102
{ACAD_REACTORS
330
19
102
}
100
AcDbDictionary
281
     1
  3
Normal
350
1D
100
AcDbDictionaryWithDefault
340
1D
  0
ACDBPLACEHOLDER
  5
1D
102
{ACAD_REACTORS
330
1F
102
}
  0
LAYOUT
  5
20
102
{ACAD_REACTORS
330
1E
102
}
100
AcDbPlotSettings
  1

  2

  4

  6

 40
0.0
 41
0.0
 42
0.0
 43
0.0
 44
0.0
 45
0.0
 46
0.0
 47
0.0
 48
0.0
 49
0.0
140
0.0
141
0.0
142
1.0
143
1.0
 70
  1024
 72
     0
 73
     0
 74
     0
  7

 75
     0
147
1.0
148
0.0
149
0.0
100
AcDbLayout
  1
Model
 70
     0
 71
     0
 10
0.0
 20
0.0
 11
0.0
 21
0.0
 12
0.0
 22
0.0
 32
0.0
 14
0.0
 24
0.0
 34
0.0
 15
0.0
 25
0.0
 35
0.0
146
0.0
 13
0.0
 23
0.0
 33
0.0
 16
0.0
 26
0.0
 36
0.0
 17
0.0
 27
0.0
 37
0.0
 76
     0
330
A
331
0
345
0
346
0
  0
LAYOUT
  5
21
102
{ACAD_REACTORS
330
1E
102
}
100
AcDbPlotSettings
  1

  2

  4

  6

 40
0.0
 41
0.0
 42
0.0
 43
0.0
 44
0.0
 45
0.0
 46
0.0
 47
0.0
 48
0.0
 49
0.0
140
0.0
141
0.0
142
1.0
143
1.0
 70
     0
 72
     0
 73
     0
 74
     0
  7

 75
     0
147
1.0
148
0.0
149
0.0
100
AcDbLayout
  1
Layout1
 70
     0
 71
     0
 10
0.0
 20
0.0
 11
0.0
 21
0.0
 12
0.0
 22
0.0
 32
0.0
 14
0.0
 24
0.0
 34
0.0
 15
0.0
 25
0.0
 35
0.0
146
0.0
 13
0.0
 23
0.0
 33
0.0
 16
0.0
 26
0.0
 36
0.0
 17
0.0
 27
0.0
 37
0.0
 76
     0
330
B
331
0
345
0
346
0
  0
DICTIONARY
  5
1E
102
{ACAD_REACTORS
330
19
102
}
100
AcDbDictionary
280
     0
281
     1
  3
Layout1
350
21
  3
Model
350
20
  0
DICTIONARY
  5
22
102
{ACAD_REACTORS
330
19
102
}
100
AcDbDictionary
280
     0
281
     1
  0
WIPEOUTVARIABLES
  5
23
100
AcDbWipeoutVariables
 70
     1
  0
ENDSEC
  0
EOF
