  0
SECTION
  2
HEADER
  9
$ACADVER
  1
AC1015
  9
$ACADMAINTVER
 70
     6
  9
$DWGCODEPAGE
  3
ANSI_932
  9
$INSBASE
 10
0.0
 20
0.0
 30
0.0
  9
$EXTMIN
 10
-21.225922
 20
-137.414868
 30
1.000000E+20
  9
$EXTMAX
 10
76.096647
 20
0.438044
 30
-1.000000E+20
  9
$LIMMIN
 10
-21.225922
 20
-137.414868
  9
$LIMMAX
 10
76.096647
 20
0.438044
  9
$ORTHOMODE
 70
     0
  9
$REGENMODE
 70
     1
  9
$FILLMODE
 70
     1
  9
$QTEXTMODE
 70
     0
  9
$MIRRTEXT
 70
     1
  9
$LTSCALE
 40
1.0
  9
$ATTMODE
 70
     1
  9
$TEXTSIZE
 40
0.2
  9
$TRACEWID
 40
0.05
  9
$TEXTSTYLE
  7
Standard
  9
$CLAYER
  8
0
  9
$CELTYPE
  6
Continuous
  9
$CECOLOR
 62
   256
  9
$CELTSCALE
 40
1.0
  9
$DISPSILH
 70
     0
  9
$DIMSCALE
 40
1.0
  9
$DIMASZ
 40
0.18
  9
$DIMEXO
 40
0.0625
  9
$DIMDLI
 40
0.38
  9
$DIMRND
 40
0.0
  9
$DIMDLE
 40
0.0
  9
$DIMEXE
 40
0.18
  9
$DIMTP
 40
0.0
  9
$DIMTM
 40
0.0
  9
$DIMTXT
 40
0.18
  9
$DIMCEN
 40
0.09
  9
$DIMTSZ
 40
0.0
  9
$DIMTOL
 70
     0
  9
$DIMLIM
 70
     0
  9
$DIMTIH
 70
     1
  9
$DIMTOH
 70
     1
  9
$DIMSE1
 70
     0
  9
$DIMSE2
 70
     0
  9
$DIMTAD
 70
     0
  9
$DIMZIN
 70
     0
  9
$DIMBLK
  1

  9
$DIMASO
 70
     1
  9
$DIMSHO
 70
     1
  9
$DIMPOST
  1

  9
$DIMAPOST
  1

  9
$DIMALT
 70
     0
  9
$DIMALTD
 70
     2
  9
$DIMALTF
 40
25.4
  9
$DIMLFAC
 40
1.0
  9
$DIMTOFL
 70
     0
  9
$DIMTVP
 40
0.0
  9
$DIMTIX
 70
     0
  9
$DIMSOXD
 70
     0
  9
$DIMSAH
 70
     0
  9
$DIMBLK1
  1

  9
$DIMBLK2
  1

  9
$DIMSTYLE
  2
Standard
  9
$DIMCLRD
 70
     0
  9
$DIMCLRE
 70
     0
  9
$DIMCLRT
 70
     0
  9
$DIMTFAC
 40
1.0
  9
$DIMGAP
 40
0.09
  9
$DIMJUST
 70
     0
  9
$DIMSD1
 70
     0
  9
$DIMSD2
 70
     0
  9
$DIMTOLJ
 70
     1
  9
$DIMTZIN
 70
     0
  9
$DIMALTZ
 70
     0
  9
$DIMALTTZ
 70
     0
  9
$DIMUPT
 70
     0
  9
$DIMDEC
 70
     4
  9
$DIMTDEC
 70
     4
  9
$DIMALTU
 70
     2
  9
$DIMALTTD
 70
     2
  9
$DIMTXSTY
  7
Standard
  9
$DIMAUNIT
 70
     0
  9
$DIMADEC
 70
     0
  9
$DIMALTRND
 40
0.0
  9
$DIMAZIN
 70
     0
  9
$DIMDSEP
 70
     0
  9
$DIMATFIT
 70
     3
  9
$DIMFRAC
 70
     0
  9
$DIMLDRBLK
  1

  9
$DIMLUNIT
 70
     2
  9
$DIMLWD
 70
     0
  9
$DIMLWE
 70
     0
  9
$DIMTMOVE
 70
     0
  9
$LUNITS
 70
     2
  9
$LUPREC
 70
     4
  9
$SKETCHINC
 40
0.1
  9
$FILLETRAD
 40
0.0
  9
$AUNITS
 70
     0
  9
$AUPREC
 70
     0
  9
$MENU
  1
acad
  9
$ELEVATION
 40
0.0
  9
$PELEVATION
 40
0.0
  9
$THICKNESS
 40
0.0
  9
$LIMCHECK
 70
     0
  9
$CHAMFERA
 40
0.0
  9
$CHAMFERB
 40
0.0
  9
$CHAMFERC
 40
0.0
  9
$CHAMFERD
 40
0.0
  9
$SKPOLY
 70
     0
  9
$TDCREATE
 40
0.000000000
  9
$TDUCREATE
 40
0.000000000
  9
$TDUPDATE
 40
0.000000000
  9
$TDUUPDATE
 40
0.000000000
  9
$TDINDWG
 40
0.0000000000
  9
$TDUSRTIMER
 40
0.0000000000
  9
$USRTIMER
 70
     1
  9
$ANGBASE
 50
0.0
  9
$ANGDIR
 70
     0
  9
$PDMODE
 70
     0
  9
$PDSIZE
 40
0.0
  9
$PLINEWID
 40
0.0
  9
$SPLFRAME
 70
     0
  9
$SPLINETYPE
 70
     6
  9
$SPLINESEGS
 70
     8
  9
$HANDSEED
  5
1A8
  9
$SURFTAB1
 70
     6
  9
$SURFTAB2
 70
     6
  9
$SURFTYPE
 70
     6
  9
$SURFU
 70
     6
  9
$SURFV
 70
     6
  9
$UCSBASE
  2

  9
$UCSNAME
  2

  9
$UCSORG
 10
0.0
 20
0.0
 30
0.0
  9
$UCSXDIR
 10
1.0
 20
0.0
 30
0.0
  9
$UCSYDIR
 10
0.0
 20
1.0
 30
0.0
  9
$UCSORTHOREF
  2

  9
$UCSORTHOVIEW
 70
     0
  9
$UCSORGTOP
 10
0.0
 20
0.0
 30
0.0
  9
$UCSORGBOTTOM
 10
0.0
 20
0.0
 30
0.0
  9
$UCSORGLEFT
 10
0.0
 20
0.0
 30
0.0
  9
$UCSORGRIGHT
 10
0.0
 20
0.0
 30
0.0
  9
$UCSORGFRONT
 10
0.0
 20
0.0
 30
0.0
  9
$UCSORGBACK
 10
0.0
 20
0.0
 30
0.0
  9
$PUCSBASE
  2

  9
$PUCSNAME
  2

  9
$PUCSORG
 10
0.0
 20
0.0
 30
0.0
  9
$PUCSXDIR
 10
1.0
 20
0.0
 30
0.0
  9
$PUCSYDIR
 10
0.0
 20
1.0
 30
0.0
  9
$PUCSORTHOREF
  2

  9
$PUCSORTHOVIEW
 70
     0
  9
$PUCSORGTOP
 10
0.0
 20
0.0
 30
0.0
  9
$PUCSORGBOTTOM
 10
0.0
 20
0.0
 30
0.0
  9
$PUCSORGLEFT
 10
0.0
 20
0.0
 30
0.0
  9
$PUCSORGRIGHT
 10
0.0
 20
0.0
 30
0.0
  9
$PUCSORGFRONT
 10
0.0
 20
0.0
 30
0.0
  9
$PUCSORGBACK
 10
0.0
 20
0.0
 30
0.0
  9
$USERI1
 70
     0
  9
$USERI2
 70
     0
  9
$USERI3
 70
     0
  9
$USERI4
 70
     0
  9
$USERI5
 70
     0
  9
$USERR1
 40
0.0
  9
$USERR2
 40
0.0
  9
$USERR3
 40
0.0
  9
$USERR4
 40
0.0
  9
$USERR5
 40
0.0
  9
$WORLDVIEW
 70
     1
  9
$SHADEDGE
 70
     3
  9
$SHADEDIF
 70
    70
  9
$TILEMODE
 70
     1
  9
$MAXACTVP
 70
    16
  9
$PINSBASE
 10
0.0
 20
0.0
 30
0.0
  9
$PLIMCHECK
 70
     0
  9
$PEXTMIN
 10
1.000000E+20
 20
1.000000E+20
 30
1.000000E+20
  9
$PEXTMAX
 10
-1.000000E+20
 20
-1.000000E+20
 30
-1.000000E+20
  9
$PLIMMIN
 10
0.0
 20
0.0
  9
$PLIMMAX
 10
12.0
 20
9.0
  9
$UNITMODE
 70
     0
  9
$VISRETAIN
 70
     0
  9
$PLINEGEN
 70
     1
  9
$PSLTSCALE
 70
     0
  9
$TREEDEPTH
 70
  3020
  9
$CMLSTYLE
  2
Standard
  9
$CMLJUST
 70
     0
  9
$CMLSCALE
 40
1.0
  9
$PROXYGRAPHICS
 70
     0
  9
$MEASUREMENT
 70
     1
  9
$CELWEIGHT
370
     0
  9
$ENDCAPS
280
     0
  9
$JOINSTYLE
280
     0
  9
$LWDISPLAY
290
     0
  9
$INSUNITS
 70
     0
  9
$HYPERLINKBASE
  1

  9
$STYLESHEET
  1

  9
$XEDIT
290
     1
  9
$CEPSNTYPE
380
     0
  9
$PSTYLEMODE
290
     1
  9
$FINGERPRINTGUID
  2

  9
$VERSIONGUID
  2

  9
$EXTNAMES
290
     1
  9
$PSVPSCALE
 40
0.0
  0
ENDSEC
  0
SECTION
  2
CLASSES
  0
CLASS
  1
LWPOLYLINE
  2
AcDbPolyline
  3
AutoCAD 2000
 90
        0
280
     0
281
     1
  0
CLASS
  1
IMAGE
  2
AcDbRasterImage
  3
ISM
 90
      127
280
     0
281
     1
  0
CLASS
  1
OLE2FRAME
  2
AcDbOle2Frame
  3
AutoCAD 2000
 90
        0
280
     0
281
     1
  0
CLASS
  1
HATCH
  2
AcDbHatch
  3
AutoCAD 2000
 90
        0
280
     0
281
     1
  0
CLASS
  1
DICTIONARYVAR
  2
AcDbDictionaryVar
  3
AutoCAD 2000
 90
        0
280
     0
281
     0
  0
CLASS
  1
RASTERVARIABLES
  2
AcDbRasterVariables
  3
ISM
 90
        0
280
     0
281
     0
  0
CLASS
  1
IMAGEDEF
  2
AcDbRasterImageDef
  3
ISM
 90
        0
280
     0
281
     0
  0
CLASS
  1
IMAGEDEF_REACTOR
  2
AcDbRasterImageDefReactor
  3
ISM
 90
        1
280
     0
281
     0
  0
CLASS
  1
IDBUFFER
  2
AcDbIdBuffer
  3
AutoCAD 2000
 90
        0
280
     0
281
     0
  0
CLASS
  1
SPATIAL_FILTER
  2
AcDbSpatialFilter
  3
AutoCAD 2000
 90
        0
280
     0
281
     0
  0
CLASS
  1
XRECORD
  2
AcDbXrecord
  3
AutoCAD 2000
 90
        0
280
     0
281
     0
  0
CLASS
  1
SORTENTSTABLE
  2
AcDbSortentsTable
  3
AutoCAD 2000
 90
        0
280
     0
281
     0
  0
CLASS
  1
LAYER_INDEX
  2
AcDbLayerIndex
  3
AutoCAD 2000
 90
        0
280
     0
281
     0
  0
CLASS
  1
SPATIAL_INDEX
  2
AcDbSpatialIndex
  3
AutoCAD 2000
 90
        0
280
     0
281
     0
  0
CLASS
  1
OBJECT_PTR
  2
CAseDLPNTableRecord
  3
"ASE-LPNTableRecord"
 90
        1
280
     0
281
     0
  0
CLASS
  1
LAYOUT
  2
AcDbLayout
  3
AutoCAD 2000
 90
        0
280
     0
281
     0
  0
CLASS
  1
PLOTSETTINGS
  2
AcDbPlotSettings
  3
AutoCAD 2000
 90
        0
280
     0
281
     0
  0
CLASS
  1
ACDBDICTIONARYWDFLT
  2
AcDbDictionaryWithDefault
  3
AutoCAD 2000
 90
        0
280
     0
281
     0
  0
CLASS
  1
ACDBPLACEHOLDER
  2
AcDbPlaceHolder
  3
AutoCAD 2000
 90
        0
280
     0
281
     0
  0
CLASS
  1
VBA_PROJECT
  2
AcDbVbaProject
  3
acadvba
 90
        0
280
     0
281
     0
  0
CLASS
  1
WIPEOUT
  2
AcDbWipeout
  3
WipeOut|AutoCAD Express Tool|expresstools@autodesk.com
 90
      127
280
     0
281
     1
  0
CLASS
  1
WIPEOUTVARIABLES
  2
AcDbWipeoutVariables
  3
WipeOut|AutoCAD Express Tool|expresstools@autodesk.com
 90
        0
280
     0
281
     0
  0
CLASS
  1
RTEXT
  2
RText
  3
RText|AutoCAD Express Tool|expresstools@autodesk.com
 90
        0
280
     0
281
     1
  0
CLASS
  1
ARCALIGNEDTEXT
  2
AcDbArcAlignedText
  3
ATEXT|AutoCAD Express Tool|expresstools@autodesk.com
 90
        0
280
     0
281
     1
  0
ENDSEC
  0
SECTION
  2
TABLES
  0
TABLE
  2
VPORT
  5
7
100
AcDbSymbolTable
 70
     1
  0
VPORT
  5
15
100
AcDbSymbolTableRecord
100
AcDbViewportTableRecord
  2
*ACTIVE
 70
     0
 10
0.0
 20
0.0
 11
1.0
 21
1.0
 12
6.591288
 22
4.579184
 13
0.0
 23
0.0
 14
1.0
 24
1.0
 15
0.0
 25
0.0
 16
0.0
 26
0.0
 36
1.0
 17
0.0
 27
0.0
 37
0.0
 40
9.158369
 41
0.688564
 42
50.0
 43
0.0
 44
0.0
 50
0.0
 51
0.0
 71
     0
 72
   100
 73
     1
 74
     1
 75
     0
 76
     0
 77
     0
 78
     0
281
     0
 65
     0
110
0.0
120
0.0
130
0.0
111
1.0
121
0.0
131
0.0
112
0.0
122
1.0
132
0.0
345
0
346
0
 79
     0
146
0.0
  0
ENDTAB
  0
TABLE
  2
LTYPE
  5
4
100
AcDbSymbolTable
 70
     3
  0
LTYPE
  5
11
100
AcDbSymbolTableRecord
100
AcDbLinetypeTableRecord
  2
ByBlock
 70
    64
  3

 72
    65
 73
     0
 40
0.0
  0
LTYPE
  5
12
100
AcDbSymbolTableRecord
100
AcDbLinetypeTableRecord
  2
ByLayer
 70
    64
  3

 72
    65
 73
     0
 40
0.0
  0
LTYPE
  5
13
100
AcDbSymbolTableRecord
100
AcDbLinetypeTableRecord
  2
Continuous
 70
    64
  3
Solid line
 72
    65
 73
     0
 40
0.0
  0
ENDTAB
  0
TABLE
  2
LAYER
  5
2
100
AcDbSymbolTable
 70
     4
  0
LAYER
  5
14
100
AcDbSymbolTableRecord
100
AcDbLayerTableRecord
  2
0
 70
     0
 62
     7
  6
Continuous
290
     1
370
    -3
390
1D
  0
LAYER
  5
28
100
AcDbSymbolTableRecord
100
AcDbLayerTableRecord
  2
COMMENT
 70
     0
 62
    -3
  6
Continuous
290
     1
370
    -3
390
1D
  0
LAYER
  5
91
100
AcDbSymbolTableRecord
100
AcDbLayerTableRecord
  2
SILK_
 70
     4
 62
     1
  6
Continuous
290
     1
370
    -3
390
1D
  0
LAYER
  5
A1
100
AcDbSymbolTableRecord
100
AcDbLayerTableRecord
  2
DR-07_080910
 70
     4
 62
   160
  6
Continuous
290
     1
370
    -3
390
1D
  0
ENDTAB
  0
TABLE
  2
STYLE
  5
3
100
AcDbSymbolTable
 70
     5
  0
STYLE
  5
17
100
AcDbSymbolTableRecord
100
AcDbTextStyleTableRecord
  2
Standard
 70
     0
 40
0.0
 41
1.0
 50
0.0
 71
     0
 42
0.0
  3
txt
  4

  0
STYLE
  5
24
100
AcDbSymbolTableRecord
100
AcDbTextStyleTableRecord
  2
STD
 70
     0
 40
0.0
 41
1.0
 50
0.0
 71
     0
 42
0.0
  3
txt
  4

  0
STYLE
  5
25
100
AcDbSymbolTableRecord
100
AcDbTextStyleTableRecord
  2
TATESTD
 70
     4
 40
0.0
 41
1.0
 50
0.0
 71
     0
 42
0.0
  3
txt
  4

  0
STYLE
  5
26
100
AcDbSymbolTableRecord
100
AcDbTextStyleTableRecord
  2
KANJISTD
 70
     0
 40
0.0
 41
1.0
 50
0.0
 71
     0
 42
0.0
  3
txt
  4
extfont
  0
STYLE
  5
27
100
AcDbSymbolTableRecord
100
AcDbTextStyleTableRecord
  2
KANJITATE
 70
     4
 40
0.0
 41
1.0
 50
0.0
 71
     0
 42
0.0
  3
txt
  4
extfont
  0
ENDTAB
  0
TABLE
  2
VIEW
  5
5
100
AcDbSymbolTable
 70
     0
  0
ENDTAB
  0
TABLE
  2
UCS
  5
6
100
AcDbSymbolTable
 70
     0
  0
ENDTAB
  0
TABLE
  2
APPID
  5
8
100
AcDbSymbolTable
 70
     1
  0
APPID
  5
16
100
AcDbSymbolTableRecord
100
AcDbRegAppTableRecord
  2
ACAD
 70
     0
  0
ENDTAB
  0
TABLE
  2
DIMSTYLE
  5
9
100
AcDbSymbolTable
 70
     1
100
AcDbDimStyleTable
 71
     0
  0
DIMSTYLE
105
18
100
AcDbSymbolTableRecord
100
AcDbDimStyleTableRecord
  2
Standard
 70
     0
  3

  4

 40
1.0
 41
0.18
 42
0.0625
 43
0.38
 44
0.18
 45
0.0
 46
0.0
 47
0.0
 48
0.0
 71
     0
 72
     0
 73
     1
 74
     1
 75
     0
 76
     0
 77
     0
 78
     0
 79
     0
140
0.18
141
0.09
142
0.0
143
25.4
144
1.0
145
0.0
146
1.0
147
0.09
148
0.0
170
     0
171
     2
172
     0
173
     0
174
     0
175
     0
176
     0
177
     0
178
     0
179
     0
271
     4
272
     4
273
     2
274
     2
275
     0
276
     0
277
     2
278
    46
279
     0
280
     0
281
     0
282
     0
283
     1
284
     0
285
     0
286
     0
288
     0
289
     3
340
17
341
0
342
0
343
0
344
0
371
    -2
372
    -2
  0
ENDTAB
  0
TABLE
  2
BLOCK_RECORD
  5
1
100
AcDbSymbolTable
 70
     0
  0
BLOCK_RECORD
  5
A
100
AcDbSymbolTableRecord
100
AcDbBlockTableRecord
  2
*MODEL_SPACE
340
20
  0
BLOCK_RECORD
  5
B
100
AcDbSymbolTableRecord
100
AcDbBlockTableRecord
  2
*PAPER_SPACE
340
21
  0
ENDTAB
  0
ENDSEC
  0
SECTION
  2
BLOCKS
  0
BLOCK
  5
D
100
AcDbEntity
  8
0
390
0
100
AcDbBlockBegin
  2
*MODEL_SPACE
 70
     0
 10
0.0
 20
0.0
 30
0.0
  3
*MODEL_SPACE
  1

  0
ENDBLK
  5
E
100
AcDbEntity
  8
0
390
0
100
AcDbBlockEnd
  0
BLOCK
  5
F
100
AcDbEntity
 67
     1
  8
0
390
0
100
AcDbBlockBegin
  2
*PAPER_SPACE
 70
     0
 10
0.0
 20
0.0
 30
0.0
  3
*PAPER_SPACE
  1

  0
ENDBLK
  5
10
100
AcDbEntity
 67
     1
  8
0
390
0
100
AcDbBlockEnd
  0
ENDSEC
  0
SECTION
  2
ENTITIES
  0
LINE
  5
1A7
100
AcDbEntity
  8
DR-07_080910
390
0
 62
     7
100
AcDbLine
 10
42.057381
 20
-17.149685
 30
0.0
 11
42.057381
 21
-10.650168
 31
0.0
  0
LINE
  5
1A6
100
AcDbEntity
  8
DR-07_080910
390
0
 62
     7
100
AcDbLine
 10
44.057259
 20
-17.149685
 30
0.0
 11
44.057259
 21
-10.650168
 31
0.0
  0
LINE
  5
1A5
100
AcDbEntity
  8
DR-07_080910
390
0
 62
     7
100
AcDbLine
 10
44.057259
 20
-6.650412
 30
0.0
 11
44.057259
 21
-0.151067
 31
0.0
  0
LINE
  5
1A4
100
AcDbEntity
  8
DR-07_080910
390
0
 62
     7
100
AcDbLine
 10
46.057137
 20
-17.149685
 30
0.0
 11
46.057137
 21
-10.650168
 31
0.0
  0
LINE
  5
1A3
100
AcDbEntity
  8
DR-07_080910
390
0
 62
     7
100
AcDbLine
 10
46.057137
 20
-6.650412
 30
0.0
 11
46.057137
 21
-0.151067
 31
0.0
  0
LINE
  5
1A2
100
AcDbEntity
  8
DR-07_080910
390
0
 62
     7
100
AcDbLine
 10
48.057359
 20
-17.149685
 30
0.0
 11
48.057359
 21
-10.650168
 31
0.0
  0
LINE
  5
1A1
100
AcDbEntity
  8
DR-07_080910
390
0
 62
     7
100
AcDbLine
 10
48.057359
 20
-6.650412
 30
0.0
 11
48.057359
 21
-0.151067
 31
0.0
  0
LINE
  5
1A0
100
AcDbEntity
  8
DR-07_080910
390
0
 62
     7
100
AcDbLine
 10
50.057582
 20
-17.149685
 30
0.0
 11
50.057582
 21
-10.650168
 31
0.0
  0
LINE
  5
19F
100
AcDbEntity
  8
DR-07_080910
390
0
 62
     7
100
AcDbLine
 10
52.057115
 20
-17.149685
 30
0.0
 11
52.057115
 21
-10.650168
 31
0.0
  0
LINE
  5
19E
100
AcDbEntity
  8
DR-07_080910
390
0
 62
     7
100
AcDbLine
 10
52.057115
 20
-15.950275
 30
0.0
 11
50.057582
 21
-15.950275
 31
0.0
  0
LINE
  5
19D
100
AcDbEntity
  8
DR-07_080910
390
0
 62
     7
100
AcDbLine
 10
48.057359
 20
-15.950275
 30
0.0
 11
46.057137
 21
-15.950275
 31
0.0
  0
LINE
  5
19C
100
AcDbEntity
  8
DR-07_080910
390
0
 62
     7
100
AcDbLine
 10
44.057259
 20
-15.950275
 30
0.0
 11
42.057381
 21
-15.950275
 31
0.0
  0
LINE
  5
19B
100
AcDbEntity
  8
DR-07_080910
390
0
 62
     7
100
AcDbLine
 10
51.557576
 20
-10.150285
 30
0.0
 11
50.557121
 21
-10.150285
 31
0.0
  0
LINE
  5
19A
100
AcDbEntity
  8
DR-07_080910
390
0
 62
     7
100
AcDbLine
 10
47.557132
 20
-10.150285
 30
0.0
 11
46.557365
 21
-10.150285
 31
0.0
  0
LINE
  5
199
100
AcDbEntity
  8
DR-07_080910
390
0
 62
     7
100
AcDbLine
 10
43.557376
 20
-10.150285
 30
0.0
 11
42.557265
 21
-10.150285
 31
0.0
  0
LINE
  5
198
100
AcDbEntity
  8
DR-07_080910
390
0
 62
     7
100
AcDbLine
 10
47.557132
 20
-7.150296
 30
0.0
 11
46.557365
 21
-7.150296
 31
0.0
  0
LINE
  5
197
100
AcDbEntity
  8
DR-07_080910
390
0
 62
     7
100
AcDbLine
 10
43.557376
 20
-7.150296
 30
0.0
 11
42.557265
 21
-7.150296
 31
0.0
  0
LINE
  5
196
100
AcDbEntity
  8
DR-07_080910
390
0
 62
     7
100
AcDbLine
 10
48.057359
 20
-1.350305
 30
0.0
 11
46.057137
 21
-1.350305
 31
0.0
  0
LINE
  5
195
100
AcDbEntity
  8
DR-07_080910
390
0
 62
     7
100
AcDbLine
 10
44.057259
 20
-1.350305
 30
0.0
 11
42.057381
 21
-1.350305
 31
0.0
  0
LINE
  5
194
100
AcDbEntity
  8
DR-07_080910
390
0
 62
     7
100
AcDbLine
 10
54.657473
 20
-0.150378
 30
0.0
 11
52.057115
 21
-0.150378
 31
0.0
  0
LINE
  5
193
100
AcDbEntity
  8
DR-07_080910
390
0
 62
     7
100
AcDbLine
 10
50.057582
 20
-0.150378
 30
0.0
 11
48.057359
 21
-0.150378
 31
0.0
  0
LINE
  5
192
100
AcDbEntity
  8
DR-07_080910
390
0
 62
     7
100
AcDbLine
 10
46.057137
 20
-0.150378
 30
0.0
 11
44.057259
 21
-0.150378
 31
0.0
  0
LINE
  5
191
100
AcDbEntity
  8
DR-07_080910
390
0
 62
     7
100
AcDbLine
 10
55.357172
 20
-0.850766
 30
0.0
 11
54.656784
 21
-0.150378
 31
0.0
  0
SPLINE
  5
190
100
AcDbEntity
  8
DR-07_080910
390
0
 62
     7
100
AcDbSpline
210
0.0
220
0.0
230
1.0
 70
     8
 71
     3
 72
     8
 73
     4
 74
     0
 42
0.00000001
 43
0.00000001
 40
0.0
 40
0.0
 40
0.0
 40
0.0
 40
1.0
 40
1.0
 40
1.0
 40
1.0
 10
42.0573811848958314
 20
-6.6504123263888886
 30
0.0
 10
42.0573811848958314
 20
-6.9265367296006941
 30
0.0
 10
42.2813123914930529
 20
-7.1502956814236107
 30
0.0
 10
42.55726453993055
 20
-7.1502956814236107
 30
0.0
  0
SPLINE
  5
18F
100
AcDbEntity
  8
DR-07_080910
390
0
 62
     7
100
AcDbSpline
210
0.0
220
0.0
230
1.0
 70
     8
 71
     3
 72
     8
 73
     4
 74
     0
 42
0.00000001
 43
0.00000001
 40
0.0
 40
0.0
 40
0.0
 40
0.0
 40
1.0
 40
1.0
 40
1.0
 40
1.0
 10
43.5573757595486057
 20
-7.1502956814236107
 30
0.0
 10
43.83332790798611
 20
-7.1502956814236107
 30
0.0
 10
44.0572591145833314
 20
-6.9265367296006941
 30
0.0
 10
44.0572591145833314
 20
-6.6504123263888886
 30
0.0
  0
SPLINE
  5
18E
100
AcDbEntity
  8
DR-07_080910
390
0
 62
     7
100
AcDbSpline
210
0.0
220
0.0
230
1.0
 70
     8
 71
     3
 72
     8
 73
     4
 74
     0
 42
0.00000001
 43
0.00000001
 40
0.0
 40
0.0
 40
0.0
 40
0.0
 40
1.0
 40
1.0
 40
1.0
 40
1.0
 10
46.0571370442708314
 20
-6.6504123263888886
 30
0.0
 10
46.0571370442708314
 20
-6.9265367296006941
 30
0.0
 10
46.2810682508680529
 20
-7.1502956814236107
 30
0.0
 10
46.5573649088541615
 20
-7.1502956814236107
 30
0.0
  0
SPLINE
  5
18D
100
AcDbEntity
  8
DR-07_080910
390
0
 62
     7
100
AcDbSpline
210
0.0
220
0.0
230
1.0
 70
     8
 71
     3
 72
     8
 73
     4
 74
     0
 42
0.00000001
 43
0.00000001
 40
0.0
 40
0.0
 40
0.0
 40
0.0
 40
1.0
 40
1.0
 40
1.0
 40
1.0
 10
47.5571316189236057
 20
-7.1502956814236107
 30
0.0
 10
47.8334282769097143
 20
-7.1502956814236107
 30
0.0
 10
48.0573594835069429
 20
-6.9265367296006941
 30
0.0
 10
48.0573594835069429
 20
-6.6504123263888886
 30
0.0
  0
SPLINE
  5
18C
100
AcDbEntity
  8
DR-07_080910
390
0
 62
     7
100
AcDbSpline
210
0.0
220
0.0
230
1.0
 70
     8
 71
     3
 72
    11
 73
     7
 74
     0
 42
0.00000001
 43
0.00000001
 40
0.0
 40
0.0
 40
0.0
 40
0.0
 40
1.0
 40
1.0
 40
1.0
 40
2.0
 40
2.0
 40
2.0
 40
2.0
 10
42.55726453993055
 20
-10.1502848307291664
 30
0.0
 10
42.4246283637152715
 20
-10.1502848307291664
 30
0.0
 10
42.2975043402777757
 20
-10.2028225368923611
 30
0.0
 10
42.2037977430555529
 20
-10.2967013888888879
 30
0.0
 10
42.1097466362847186
 20
-10.3905802408854164
 30
0.0
 10
42.0573811848958314
 20
-10.5178765190972214
 30
0.0
 10
42.0573811848958314
 20
-10.6501681857638886
 30
0.0
  0
SPLINE
  5
18B
100
AcDbEntity
  8
DR-07_080910
390
0
 62
     7
100
AcDbSpline
210
0.0
220
0.0
230
1.0
 70
     8
 71
     3
 72
    11
 73
     7
 74
     0
 42
0.00000001
 43
0.00000001
 40
0.0
 40
0.0
 40
0.0
 40
0.0
 40
1.0
 40
1.0
 40
1.0
 40
2.0
 40
2.0
 40
2.0
 40
2.0
 10
44.0572591145833314
 20
-10.6501681857638886
 30
0.0
 10
44.0572591145833314
 20
-10.5178765190972214
 30
0.0
 10
44.0045491536458329
 20
-10.3905802408854164
 30
0.0
 10
43.91084255642361
 20
-10.2967013888888879
 30
0.0
 10
43.8171359592013872
 20
-10.2028225368923611
 30
0.0
 10
43.6900119357638843
 20
-10.1502848307291664
 30
0.0
 10
43.5573757595486057
 20
-10.1502848307291664
 30
0.0
  0
SPLINE
  5
18A
100
AcDbEntity
  8
DR-07_080910
390
0
 62
     7
100
AcDbSpline
210
0.0
220
0.0
230
1.0
 70
     8
 71
     3
 72
    11
 73
     7
 74
     0
 42
0.00000001
 43
0.00000001
 40
0.0
 40
0.0
 40
0.0
 40
0.0
 40
1.0
 40
1.0
 40
1.0
 40
2.0
 40
2.0
 40
2.0
 40
2.0
 10
46.5573649088541615
 20
-10.1502848307291664
 30
0.0
 10
46.4247287326388829
 20
-10.1502848307291664
 30
0.0
 10
46.2976047092013872
 20
-10.2028225368923611
 30
0.0
 10
46.2035536024305529
 20
-10.2967013888888879
 30
0.0
 10
46.1101915147569414
 20
-10.3905802408854164
 30
0.0
 10
46.0571370442708314
 20
-10.5178765190972214
 30
0.0
 10
46.0571370442708314
 20
-10.6501681857638886
 30
0.0
  0
SPLINE
  5
189
100
AcDbEntity
  8
DR-07_080910
390
0
 62
     7
100
AcDbSpline
210
0.0
220
0.0
230
1.0
 70
     8
 71
     3
 72
    11
 73
     7
 74
     0
 42
0.00000001
 43
0.00000001
 40
0.0
 40
0.0
 40
0.0
 40
0.0
 40
1.0
 40
1.0
 40
1.0
 40
2.0
 40
2.0
 40
2.0
 40
2.0
 10
48.0573594835069429
 20
-10.6501681857638886
 30
0.0
 10
48.0573594835069429
 20
-10.5178765190972214
 30
0.0
 10
48.0043050130208258
 20
-10.3905802408854164
 30
0.0
 10
47.91059841579861
 20
-10.2967013888888879
 30
0.0
 10
47.8172363281249986
 20
-10.2028225368923611
 30
0.0
 10
47.6901123046874957
 20
-10.1502848307291664
 30
0.0
 10
47.5571316189236057
 20
-10.1502848307291664
 30
0.0
  0
SPLINE
  5
188
100
AcDbEntity
  8
DR-07_080910
390
0
 62
     7
100
AcDbSpline
210
0.0
220
0.0
230
1.0
 70
     8
 71
     3
 72
    11
 73
     7
 74
     0
 42
0.00000001
 43
0.00000001
 40
0.0
 40
0.0
 40
0.0
 40
0.0
 40
1.0
 40
1.0
 40
1.0
 40
2.0
 40
2.0
 40
2.0
 40
2.0
 10
50.5571207682291615
 20
-10.1502848307291664
 30
0.0
 10
50.4248291015624943
 20
-10.1502848307291664
 30
0.0
 10
50.2973605685763872
 20
-10.2028225368923611
 30
0.0
 10
50.2036539713541643
 20
-10.2967013888888879
 30
0.0
 10
50.1099473741319414
 20
-10.3905802408854164
 30
0.0
 10
50.0575819227430543
 20
-10.5178765190972214
 30
0.0
 10
50.0575819227430543
 20
-10.6501681857638886
 30
0.0
  0
SPLINE
  5
187
100
AcDbEntity
  8
DR-07_080910
390
0
 62
     7
100
AcDbSpline
210
0.0
220
0.0
230
1.0
 70
     8
 71
     3
 72
    11
 73
     7
 74
     0
 42
0.00000001
 43
0.00000001
 40
0.0
 40
0.0
 40
0.0
 40
0.0
 40
1.0
 40
1.0
 40
1.0
 40
2.0
 40
2.0
 40
2.0
 40
2.0
 10
52.0571153428819429
 20
-10.6501681857638886
 30
0.0
 10
52.0571153428819429
 20
-10.5178765190972214
 30
0.0
 10
52.0047498914930486
 20
-10.3905802408854164
 30
0.0
 10
51.9106987847222143
 20
-10.2967013888888879
 30
0.0
 10
51.8169921874999986
 20
-10.2028225368923611
 30
0.0
 10
51.6898681640624957
 20
-10.1502848307291664
 30
0.0
 10
51.5575764973958286
 20
-10.1502848307291664
 30
0.0
  0
SPLINE
  5
186
100
AcDbEntity
  8
DR-07_080910
390
0
 62
     7
100
AcDbSpline
210
0.0
220
0.0
230
1.0
 70
     8
 71
     3
 72
    11
 73
     7
 74
     0
 42
0.00000001
 43
0.00000001
 40
0.0
 40
0.0
 40
0.0
 40
0.0
 40
1.0
 40
1.0
 40
1.0
 40
2.0
 40
2.0
 40
2.0
 40
2.0
 10
38.3573486328124957
 20
-0.15037841796875
 30
0.0
 10
38.2243679470486057
 20
-0.15037841796875
 30
0.0
 10
38.0975884331597214
 20
-0.2029161241319444
 30
0.0
 10
38.0038818359374986
 20
-0.2969672309027778
 30
0.0
 10
37.9098307291666643
 20
-0.3905015733506944
 30
0.0
 10
37.8571207682291657
 20
-0.5177978515624999
 30
0.0
 10
37.8571207682291657
 20
-0.6504340277777777
 30
0.0
  0
LINE
  5
185
100
AcDbEntity
  8
DR-07_080910
390
0
 62
     7
100
AcDbLine
 10
42.057381
 20
-0.150378
 30
0.0
 11
38.357349
 21
-0.150378
 31
0.0
  0
LINE
  5
184
100
AcDbEntity
  8
DR-07_080910
390
0
 62
     7
100
AcDbLine
 10
42.057381
 20
-0.150378
 30
0.0
 11
42.057381
 21
-6.650412
 31
0.0
  0
LINE
  5
183
100
AcDbEntity
  8
DR-07_080910
390
0
 62
     7
100
AcDbLine
 10
1.058678
 20
-0.150378
 30
0.0
 11
1.058678
 21
-17.150374
 31
0.0
  0
LINE
  5
182
100
AcDbEntity
  8
DR-07_080910
390
0
 62
     7
100
AcDbLine
 10
1.058678
 20
-0.150378
 30
0.0
 11
3.658347
 21
-0.150378
 31
0.0
  0
LINE
  5
181
100
AcDbEntity
  8
DR-07_080910
390
0
 62
     7
100
AcDbLine
 10
3.658347
 20
-6.650412
 30
0.0
 11
3.658347
 21
-0.151067
 31
0.0
  0
SPLINE
  5
180
100
AcDbEntity
  8
DR-07_080910
390
0
 62
     7
100
AcDbSpline
210
0.0
220
0.0
230
1.0
 70
     8
 71
     3
 72
     8
 73
     4
 74
     0
 42
0.00000001
 43
0.00000001
 40
0.0
 40
0.0
 40
0.0
 40
0.0
 40
1.0
 40
1.0
 40
1.0
 40
1.0
 10
3.6583468967013886
 20
-6.6504123263888886
 30
0.0
 10
3.6583468967013886
 20
-6.9265367296006941
 30
0.0
 10
3.8822781032986109
 20
-7.1502956814236107
 30
0.0
 10
4.1585747612847221
 20
-7.1502956814236107
 30
0.0
  0
LINE
  5
17F
100
AcDbEntity
  8
DR-07_080910
390
0
 62
     7
100
AcDbLine
 10
4.158575
 20
-7.150296
 30
0.0
 11
5.158341
 21
-7.150296
 31
0.0
  0
SPLINE
  5
17E
100
AcDbEntity
  8
DR-07_080910
390
0
 62
     7
100
AcDbSpline
210
0.0
220
0.0
230
1.0
 70
     8
 71
     3
 72
     8
 73
     4
 74
     0
 42
0.00000001
 43
0.00000001
 40
0.0
 40
0.0
 40
0.0
 40
0.0
 40
1.0
 40
1.0
 40
1.0
 40
1.0
 10
5.1583414713541664
 20
-7.1502956814236107
 30
0.0
 10
5.434465874565972
 20
-7.1502956814236107
 30
0.0
 10
5.6585693359374991
 20
-6.9265367296006941
 30
0.0
 10
5.6585693359374991
 20
-6.6504123263888886
 30
0.0
  0
LINE
  5
17D
100
AcDbEntity
  8
DR-07_080910
390
0
 62
     7
100
AcDbLine
 10
5.658569
 20
-6.650412
 30
0.0
 11
5.658569
 21
-0.151067
 31
0.0
  0
LINE
  5
17C
100
AcDbEntity
  8
DR-07_080910
390
0
 62
     7
100
AcDbLine
 10
5.658569
 20
-0.150378
 30
0.0
 11
7.658447
 21
-0.150378
 31
0.0
  0
LINE
  5
17B
100
AcDbEntity
  8
DR-07_080910
390
0
 62
     7
100
AcDbLine
 10
7.658447
 20
-6.650412
 30
0.0
 11
7.658447
 21
-0.151067
 31
0.0
  0
SPLINE
  5
17A
100
AcDbEntity
  8
DR-07_080910
390
0
 62
     7
100
AcDbSpline
210
0.0
220
0.0
230
1.0
 70
     8
 71
     3
 72
     8
 73
     4
 74
     0
 42
0.00000001
 43
0.00000001
 40
0.0
 40
0.0
 40
0.0
 40
0.0
 40
1.0
 40
1.0
 40
1.0
 40
1.0
 10
7.6584472656249991
 20
-6.6504123263888886
 30
0.0
 10
7.6584472656249991
 20
-6.9265367296006941
 30
0.0
 10
7.8823784722222214
 20
-7.1502956814236107
 30
0.0
 10
8.1583306206597221
 20
-7.1502956814236107
 30
0.0
  0
LINE
  5
179
100
AcDbEntity
  8
DR-07_080910
390
0
 62
     7
100
AcDbLine
 10
8.158331
 20
-7.150296
 30
0.0
 11
9.158442
 21
-7.150296
 31
0.0
  0
SPLINE
  5
178
100
AcDbEntity
  8
DR-07_080910
390
0
 62
     7
100
AcDbSpline
210
0.0
220
0.0
230
1.0
 70
     8
 71
     3
 72
     8
 73
     4
 74
     0
 42
0.00000001
 43
0.00000001
 40
0.0
 40
0.0
 40
0.0
 40
0.0
 40
1.0
 40
1.0
 40
1.0
 40
1.0
 10
9.1584418402777761
 20
-7.1502956814236107
 30
0.0
 10
9.4347384982638882
 20
-7.1502956814236107
 30
0.0
 10
9.6583251953125
 20
-6.9265367296006941
 30
0.0
 10
9.6583251953125
 20
-6.6504123263888886
 30
0.0
  0
LINE
  5
177
100
AcDbEntity
  8
DR-07_080910
390
0
 62
     7
100
AcDbLine
 10
9.658325
 20
-6.650412
 30
0.0
 11
9.658325
 21
-0.151067
 31
0.0
  0
LINE
  5
176
100
AcDbEntity
  8
DR-07_080910
390
0
 62
     7
100
AcDbLine
 10
9.658325
 20
-0.150378
 30
0.0
 11
11.658548
 21
-0.150378
 31
0.0
  0
LINE
  5
175
100
AcDbEntity
  8
DR-07_080910
390
0
 62
     7
100
AcDbLine
 10
11.658548
 20
-6.650412
 30
0.0
 11
11.658548
 21
-0.151067
 31
0.0
  0
SPLINE
  5
174
100
AcDbEntity
  8
DR-07_080910
390
0
 62
     7
100
AcDbSpline
210
0.0
220
0.0
230
1.0
 70
     8
 71
     3
 72
     8
 73
     4
 74
     0
 42
0.00000001
 43
0.00000001
 40
0.0
 40
0.0
 40
0.0
 40
0.0
 40
1.0
 40
1.0
 40
1.0
 40
1.0
 10
11.6585476345486097
 20
-6.6504123263888886
 30
0.0
 10
11.6585476345486097
 20
-6.9265367296006941
 30
0.0
 10
11.8821343315972214
 20
-7.1502956814236107
 30
0.0
 10
12.1584309895833318
 20
-7.1502956814236107
 30
0.0
  0
LINE
  5
173
100
AcDbEntity
  8
DR-07_080910
390
0
 62
     7
100
AcDbLine
 10
12.158431
 20
-7.150296
 30
0.0
 11
13.158542
 21
-7.150296
 31
0.0
  0
SPLINE
  5
172
100
AcDbEntity
  8
DR-07_080910
390
0
 62
     7
100
AcDbSpline
210
0.0
220
0.0
230
1.0
 70
     8
 71
     3
 72
     8
 73
     4
 74
     0
 42
0.00000001
 43
0.00000001
 40
0.0
 40
0.0
 40
0.0
 40
0.0
 40
1.0
 40
1.0
 40
1.0
 40
1.0
 10
13.1585422092013875
 20
-7.1502956814236107
 30
0.0
 10
13.4344943576388882
 20
-7.1502956814236107
 30
0.0
 10
13.6584255642361097
 20
-6.9265367296006941
 30
0.0
 10
13.6584255642361097
 20
-6.6504123263888886
 30
0.0
  0
LINE
  5
171
100
AcDbEntity
  8
DR-07_080910
390
0
 62
     7
100
AcDbLine
 10
13.658426
 20
-0.150378
 30
0.0
 11
13.658426
 21
-6.650412
 31
0.0
  0
LINE
  5
170
100
AcDbEntity
  8
DR-07_080910
390
0
 62
     7
100
AcDbLine
 10
13.658426
 20
-0.150378
 30
0.0
 11
17.358803
 21
-0.150378
 31
0.0
  0
SPLINE
  5
16F
100
AcDbEntity
  8
DR-07_080910
390
0
 62
     7
100
AcDbSpline
210
0.0
220
0.0
230
1.0
 70
     8
 71
     3
 72
    11
 73
     7
 74
     0
 42
0.00000001
 43
0.00000001
 40
0.0
 40
0.0
 40
0.0
 40
0.0
 40
1.0
 40
1.0
 40
1.0
 40
2.0
 40
2.0
 40
2.0
 40
2.0
 10
17.8586859809027771
 20
-0.6504340277777777
 30
0.0
 10
17.8586859809027771
 20
-0.5177978515624999
 30
0.0
 10
17.805976019965275
 20
-0.3905015733506944
 30
0.0
 10
17.7122694227430557
 20
-0.2969672309027778
 30
0.0
 10
17.6183905707465271
 20
-0.2029161241319444
 30
0.0
 10
17.4910942925347221
 20
-0.15037841796875
 30
0.0
 10
17.358802625868055
 20
-0.15037841796875
 30
0.0
  0
LINE
  5
16E
100
AcDbEntity
  8
DR-07_080910
390
0
 62
     7
100
AcDbLine
 10
17.858686
 20
-16.649457
 30
0.0
 11
17.858686
 21
-0.650606
 31
0.0
  0
SPLINE
  5
16D
100
AcDbEntity
  8
DR-07_080910
390
0
 62
     7
100
AcDbSpline
210
0.0
220
0.0
230
1.0
 70
     8
 71
     3
 72
     8
 73
     4
 74
     0
 42
0.00000001
 43
0.00000001
 40
0.0
 40
0.0
 40
0.0
 40
0.0
 40
1.0
 40
1.0
 40
1.0
 40
1.0
 10
17.358802625868055
 20
-17.15037434895833
 30
0.0
 10
17.63458251953125
 20
-17.15037434895833
 30
0.0
 10
17.8586859809027771
 20
-16.9264431423611086
 30
0.0
 10
17.8586859809027771
 20
-16.650146484375
 30
0.0
  0
LINE
  5
16C
100
AcDbEntity
  8
DR-07_080910
390
0
 62
     7
100
AcDbLine
 10
13.658426
 20
-17.150374
 30
0.0
 11
17.358803
 21
-17.150374
 31
0.0
  0
LINE
  5
16B
100
AcDbEntity
  8
DR-07_080910
390
0
 62
     7
100
AcDbLine
 10
13.658426
 20
-17.149685
 30
0.0
 11
13.658426
 21
-10.650168
 31
0.0
  0
SPLINE
  5
16A
100
AcDbEntity
  8
DR-07_080910
390
0
 62
     7
100
AcDbSpline
210
0.0
220
0.0
230
1.0
 70
     8
 71
     3
 72
    11
 73
     7
 74
     0
 42
0.00000001
 43
0.00000001
 40
0.0
 40
0.0
 40
0.0
 40
0.0
 40
1.0
 40
1.0
 40
1.0
 40
2.0
 40
2.0
 40
2.0
 40
2.0
 10
13.6584255642361097
 20
-10.6501681857638886
 30
0.0
 10
13.6584255642361097
 20
-10.5178765190972214
 30
0.0
 10
13.6060601128472207
 20
-10.3905802408854164
 30
0.0
 10
13.5120090060763882
 20
-10.2967013888888879
 30
0.0
 10
13.4183024088541654
 20
-10.2028225368923611
 30
0.0
 10
13.2908338758680546
 20
-10.1502848307291664
 30
0.0
 10
13.1585422092013875
 20
-10.1502848307291664
 30
0.0
  0
LINE
  5
169
100
AcDbEntity
  8
DR-07_080910
390
0
 62
     7
100
AcDbLine
 10
12.158431
 20
-10.150285
 30
0.0
 11
13.158542
 21
-10.150285
 31
0.0
  0
SPLINE
  5
168
100
AcDbEntity
  8
DR-07_080910
390
0
 62
     7
100
AcDbSpline
210
0.0
220
0.0
230
1.0
 70
     8
 71
     3
 72
    11
 73
     7
 74
     0
 42
0.00000001
 43
0.00000001
 40
0.0
 40
0.0
 40
0.0
 40
0.0
 40
1.0
 40
1.0
 40
1.0
 40
2.0
 40
2.0
 40
2.0
 40
2.0
 10
12.1584309895833318
 20
-10.1502848307291664
 30
0.0
 10
12.025794813368055
 20
-10.1502848307291664
 30
0.0
 10
11.8986707899305539
 20
-10.2028225368923611
 30
0.0
 10
11.8049641927083329
 20
-10.2967013888888879
 30
0.0
 10
11.7110853407118043
 20
-10.3905802408854164
 30
0.0
 10
11.6585476345486097
 20
-10.5178765190972214
 30
0.0
 10
11.6585476345486097
 20
-10.6501681857638886
 30
0.0
  0
LINE
  5
167
100
AcDbEntity
  8
DR-07_080910
390
0
 62
     7
100
AcDbLine
 10
11.658548
 20
-17.149685
 30
0.0
 11
11.658548
 21
-10.650168
 31
0.0
  0
LINE
  5
166
100
AcDbEntity
  8
DR-07_080910
390
0
 62
     7
100
AcDbLine
 10
9.658325
 20
-17.150374
 30
0.0
 11
11.658548
 21
-17.150374
 31
0.0
  0
LINE
  5
165
100
AcDbEntity
  8
DR-07_080910
390
0
 62
     7
100
AcDbLine
 10
9.658325
 20
-17.149685
 30
0.0
 11
9.658325
 21
-10.650168
 31
0.0
  0
SPLINE
  5
164
100
AcDbEntity
  8
DR-07_080910
390
0
 62
     7
100
AcDbSpline
210
0.0
220
0.0
230
1.0
 70
     8
 71
     3
 72
    11
 73
     7
 74
     0
 42
0.00000001
 43
0.00000001
 40
0.0
 40
0.0
 40
0.0
 40
0.0
 40
1.0
 40
1.0
 40
1.0
 40
2.0
 40
2.0
 40
2.0
 40
2.0
 10
9.6583251953125
 20
-10.6501681857638886
 30
0.0
 10
9.6583251953125
 20
-10.5178765190972214
 30
0.0
 10
9.6059597439236111
 20
-10.3905802408854164
 30
0.0
 10
9.5119086371527768
 20
-10.2967013888888879
 30
0.0
 10
9.41802978515625
 20
-10.2028225368923611
 30
0.0
 10
9.2910780164930546
 20
-10.1502848307291664
 30
0.0
 10
9.1584418402777761
 20
-10.1502848307291664
 30
0.0
  0
LINE
  5
163
100
AcDbEntity
  8
DR-07_080910
390
0
 62
     7
100
AcDbLine
 10
8.158331
 20
-10.150285
 30
0.0
 11
9.158442
 21
-10.150285
 31
0.0
  0
SPLINE
  5
162
100
AcDbEntity
  8
DR-07_080910
390
0
 62
     7
100
AcDbSpline
210
0.0
220
0.0
230
1.0
 70
     8
 71
     3
 72
    11
 73
     7
 74
     0
 42
0.00000001
 43
0.00000001
 40
0.0
 40
0.0
 40
0.0
 40
0.0
 40
1.0
 40
1.0
 40
1.0
 40
2.0
 40
2.0
 40
2.0
 40
2.0
 10
8.1583306206597221
 20
-10.1502848307291664
 30
0.0
 10
8.0256944444444436
 20
-10.1502848307291664
 30
0.0
 10
7.8985704210069434
 20
-10.2028225368923611
 30
0.0
 10
7.8048638237847214
 20
-10.2967013888888879
 30
0.0
 10
7.7109849717881938
 20
-10.3905802408854164
 30
0.0
 10
7.6584472656249991
 20
-10.5178765190972214
 30
0.0
 10
7.6584472656249991
 20
-10.6501681857638886
 30
0.0
  0
LINE
  5
161
100
AcDbEntity
  8
DR-07_080910
390
0
 62
     7
100
AcDbLine
 10
7.658447
 20
-17.149685
 30
0.0
 11
7.658447
 21
-10.650168
 31
0.0
  0
LINE
  5
160
100
AcDbEntity
  8
DR-07_080910
390
0
 62
     7
100
AcDbLine
 10
5.658569
 20
-17.150374
 30
0.0
 11
7.658447
 21
-17.150374
 31
0.0
  0
LINE
  5
15F
100
AcDbEntity
  8
DR-07_080910
390
0
 62
     7
100
AcDbLine
 10
5.658569
 20
-17.149685
 30
0.0
 11
5.658569
 21
-10.650168
 31
0.0
  0
SPLINE
  5
15E
100
AcDbEntity
  8
DR-07_080910
390
0
 62
     7
100
AcDbSpline
210
0.0
220
0.0
230
1.0
 70
     8
 71
     3
 72
    11
 73
     7
 74
     0
 42
0.00000001
 43
0.00000001
 40
0.0
 40
0.0
 40
0.0
 40
0.0
 40
1.0
 40
1.0
 40
1.0
 40
2.0
 40
2.0
 40
2.0
 40
2.0
 10
5.6585693359374991
 20
-10.6501681857638886
 30
0.0
 10
5.6585693359374991
 20
-10.5178765190972214
 30
0.0
 10
5.6055148654513882
 20
-10.3905802408854164
 30
0.0
 10
5.5121527777777777
 20
-10.2967013888888879
 30
0.0
 10
5.4181016710069443
 20
-10.2028225368923611
 30
0.0
 10
5.2909776475694441
 20
-10.1502848307291664
 30
0.0
 10
5.1583414713541664
 20
-10.1502848307291664
 30
0.0
  0
LINE
  5
15D
100
AcDbEntity
  8
DR-07_080910
390
0
 62
     7
100
AcDbLine
 10
4.158575
 20
-10.150285
 30
0.0
 11
5.158341
 21
-10.150285
 31
0.0
  0
SPLINE
  5
15C
100
AcDbEntity
  8
DR-07_080910
390
0
 62
     7
100
AcDbSpline
210
0.0
220
0.0
230
1.0
 70
     8
 71
     3
 72
    11
 73
     7
 74
     0
 42
0.00000001
 43
0.00000001
 40
0.0
 40
0.0
 40
0.0
 40
0.0
 40
1.0
 40
1.0
 40
1.0
 40
2.0
 40
2.0
 40
2.0
 40
2.0
 10
4.1585747612847221
 20
-10.1502848307291664
 30
0.0
 10
4.0259385850694445
 20
-10.1502848307291664
 30
0.0
 10
3.8984700520833329
 20
-10.2028225368923611
 30
0.0
 10
3.8051079644097219
 20
-10.2967013888888879
 30
0.0
 10
3.7112291124131942
 20
-10.3905802408854164
 30
0.0
 10
3.6583468967013886
 20
-10.5178765190972214
 30
0.0
 10
3.6583468967013886
 20
-10.6501681857638886
 30
0.0
  0
LINE
  5
15B
100
AcDbEntity
  8
DR-07_080910
390
0
 62
     7
100
AcDbLine
 10
3.658347
 20
-17.149685
 30
0.0
 11
3.658347
 21
-10.650168
 31
0.0
  0
LINE
  5
15A
100
AcDbEntity
  8
DR-07_080910
390
0
 62
     7
100
AcDbLine
 10
1.058678
 20
-17.150374
 30
0.0
 11
3.658347
 21
-17.150374
 31
0.0
  0
LINE
  5
159
100
AcDbEntity
  8
DR-07_080910
390
0
 62
     7
100
AcDbLine
 10
0.358807
 20
-16.450159
 30
0.0
 11
1.058678
 21
-17.15003
 31
0.0
  0
LINE
  5
158
100
AcDbEntity
  8
DR-07_080910
390
0
 62
     7
100
AcDbLine
 10
0.358807
 20
-0.850766
 30
0.0
 11
0.358807
 21
-16.450159
 31
0.0
  0
LINE
  5
157
100
AcDbEntity
  8
DR-07_080910
390
0
 62
     7
100
AcDbLine
 10
0.358807
 20
-0.850766
 30
0.0
 11
1.058678
 21
-0.150378
 31
0.0
  0
LINE
  5
156
100
AcDbEntity
  8
DR-07_080910
390
0
 62
     7
100
AcDbLine
 10
3.658347
 20
-15.950275
 30
0.0
 11
5.658569
 21
-15.950275
 31
0.0
  0
LINE
  5
155
100
AcDbEntity
  8
DR-07_080910
390
0
 62
     7
100
AcDbLine
 10
7.658447
 20
-15.950275
 30
0.0
 11
9.658325
 21
-15.950275
 31
0.0
  0
LINE
  5
154
100
AcDbEntity
  8
DR-07_080910
390
0
 62
     7
100
AcDbLine
 10
11.658548
 20
-15.950275
 30
0.0
 11
13.658426
 21
-15.950275
 31
0.0
  0
LINE
  5
153
100
AcDbEntity
  8
DR-07_080910
390
0
 62
     7
100
AcDbLine
 10
3.658347
 20
-1.350305
 30
0.0
 11
5.658569
 21
-1.350305
 31
0.0
  0
LINE
  5
152
100
AcDbEntity
  8
DR-07_080910
390
0
 62
     7
100
AcDbLine
 10
7.658447
 20
-1.350305
 30
0.0
 11
9.658325
 21
-1.350305
 31
0.0
  0
LINE
  5
151
100
AcDbEntity
  8
DR-07_080910
390
0
 62
     7
100
AcDbLine
 10
11.658548
 20
-1.350305
 30
0.0
 11
13.658426
 21
-1.350305
 31
0.0
  0
SPLINE
  5
150
100
AcDbEntity
  8
DR-07_080910
390
0
 62
     7
100
AcDbSpline
210
0.0
220
0.0
230
1.0
 70
     8
 71
     3
 72
     8
 73
     4
 74
     0
 42
0.00000001
 43
0.00000001
 40
0.0
 40
0.0
 40
0.0
 40
0.0
 40
1.0
 40
1.0
 40
1.0
 40
1.0
 10
37.7572129991319443
 20
-16.650146484375
 30
0.0
 10
37.7572129991319443
 20
-17.202567545572915
 30
0.0
 10
38.2047309027777757
 20
-17.65008544921875
 30
0.0
 10
38.7569797092013886
 20
-17.65008544921875
 30
0.0
  0
SPLINE
  5
14F
100
AcDbEntity
  8
DR-07_080910
390
0
 62
     7
100
AcDbSpline
210
0.0
220
0.0
230
1.0
 70
     8
 71
     3
 72
     8
 73
     4
 74
     0
 42
0.00000001
 43
0.00000001
 40
0.0
 40
0.0
 40
0.0
 40
0.0
 40
1.0
 40
1.0
 40
1.0
 40
1.0
 10
16.9588270399305543
 20
-17.65008544921875
 30
0.0
 10
17.5107313368055557
 20
-17.65008544921875
 30
0.0
 10
17.9582492404513872
 20
-17.202567545572915
 30
0.0
 10
17.9582492404513872
 20
-16.650146484375
 30
0.0
  0
LINE
  5
14E
100
AcDbEntity
  8
DR-07_080910
390
0
 62
     7
100
AcDbLine
 10
54.657818
 20
-17.150374
 30
0.0
 11
52.05746
 21
-17.150374
 31
0.0
  0
LINE
  5
14D
100
AcDbEntity
  8
DR-07_080910
390
0
 62
     7
100
AcDbLine
 10
54.657818
 20
-0.150378
 30
0.0
 11
54.657818
 21
-17.150374
 31
0.0
  0
LINE
  5
14C
100
AcDbEntity
  8
DR-07_080910
390
0
 62
     7
100
AcDbLine
 10
55.357517
 20
-16.450159
 30
0.0
 11
54.657473
 21
-17.15003
 31
0.0
  0
LINE
  5
14B
100
AcDbEntity
  8
DR-07_080910
390
0
 62
     7
100
AcDbLine
 10
52.05746
 20
-6.650412
 30
0.0
 11
52.05746
 21
-0.151067
 31
0.0
  0
SPLINE
  5
14A
100
AcDbEntity
  8
DR-07_080910
390
0
 62
     7
100
AcDbSpline
210
0.0
220
0.0
230
1.0
 70
     8
 71
     3
 72
     8
 73
     4
 74
     0
 42
0.00000001
 43
0.00000001
 40
0.0
 40
0.0
 40
0.0
 40
0.0
 40
1.0
 40
1.0
 40
1.0
 40
1.0
 10
51.5575764973958286
 20
-7.1502956814236107
 30
0.0
 10
51.8335286458333258
 20
-7.1502956814236107
 30
0.0
 10
52.0574598524305543
 20
-6.9265367296006941
 30
0.0
 10
52.0574598524305543
 20
-6.6504123263888886
 30
0.0
  0
LINE
  5
149
100
AcDbEntity
  8
DR-07_080910
390
0
 62
     7
100
AcDbLine
 10
51.557576
 20
-7.150296
 30
0.0
 11
50.557465
 21
-7.150296
 31
0.0
  0
SPLINE
  5
148
100
AcDbEntity
  8
DR-07_080910
390
0
 62
     7
100
AcDbSpline
210
0.0
220
0.0
230
1.0
 70
     8
 71
     3
 72
     8
 73
     4
 74
     0
 42
0.00000001
 43
0.00000001
 40
0.0
 40
0.0
 40
0.0
 40
0.0
 40
1.0
 40
1.0
 40
1.0
 40
1.0
 10
50.0575819227430543
 20
-6.6504123263888886
 30
0.0
 10
50.0575819227430543
 20
-6.9265367296006941
 30
0.0
 10
50.2811686197916643
 20
-7.1502956814236107
 30
0.0
 10
50.5574652777777729
 20
-7.1502956814236107
 30
0.0
  0
LINE
  5
147
100
AcDbEntity
  8
DR-07_080910
390
0
 62
     7
100
AcDbLine
 10
46.057826
 20
-17.150374
 30
0.0
 11
44.057604
 21
-17.150374
 31
0.0
  0
LINE
  5
146
100
AcDbEntity
  8
DR-07_080910
390
0
 62
     7
100
AcDbLine
 10
42.057381
 20
-17.150374
 30
0.0
 11
38.357349
 21
-17.150374
 31
0.0
  0
LINE
  5
145
100
AcDbEntity
  8
DR-07_080910
390
0
 62
     7
100
AcDbLine
 10
37.857121
 20
-16.649457
 30
0.0
 11
37.857121
 21
-0.650606
 31
0.0
  0
SPLINE
  5
144
100
AcDbEntity
  8
DR-07_080910
390
0
 62
     7
100
AcDbSpline
210
0.0
220
0.0
230
1.0
 70
     8
 71
     3
 72
     8
 73
     4
 74
     0
 42
0.00000001
 43
0.00000001
 40
0.0
 40
0.0
 40
0.0
 40
0.0
 40
1.0
 40
1.0
 40
1.0
 40
1.0
 10
37.8571207682291657
 20
-16.650146484375
 30
0.0
 10
37.8571207682291657
 20
-16.9264431423611086
 30
0.0
 10
38.0810519748263872
 20
-17.15037434895833
 30
0.0
 10
38.3573486328124957
 20
-17.15037434895833
 30
0.0
  0
LINE
  5
143
100
AcDbEntity
  8
DR-07_080910
390
0
 62
     7
100
AcDbLine
 10
50.057582
 20
-17.150374
 30
0.0
 11
48.057359
 21
-17.150374
 31
0.0
  0
LINE
  5
142
100
AcDbEntity
  8
DR-07_080910
390
0
 62
     7
100
AcDbLine
 10
50.057582
 20
-0.150895
 30
0.0
 11
50.057582
 21
-6.650068
 31
0.0
  0
LINE
  5
141
100
AcDbEntity
  8
DR-07_080910
390
0
 62
     7
100
AcDbLine
 10
52.057115
 20
-1.350305
 30
0.0
 11
50.057582
 21
-1.350305
 31
0.0
  0
LINE
  5
140
100
AcDbEntity
  8
DR-07_080910
390
0
 62
     7
100
AcDbLine
 10
38.75698
 20
-17.650085
 30
0.0
 11
54.357061
 21
-17.650085
 31
0.0
  0
SPLINE
  5
13F
100
AcDbEntity
  8
DR-07_080910
390
0
 62
     7
100
AcDbSpline
210
0.0
220
0.0
230
1.0
 70
     8
 71
     3
 72
    11
 73
     7
 74
     0
 42
0.00000001
 43
0.00000001
 40
0.0
 40
0.0
 40
0.0
 40
0.0
 40
1.0
 40
1.0
 40
1.0
 40
2.0
 40
2.0
 40
2.0
 40
2.0
 10
55.3571723090277743
 20
-18.6503689236111079
 30
0.0
 10
55.3571723090277743
 20
-18.3850965711805543
 30
0.0
 10
55.25175238715277
 20
-18.1308485243055522
 30
0.0
 10
55.0643391927083314
 20
-17.9430908203124986
 30
0.0
 10
54.8765814887152743
 20
-17.7558498806423586
 30
0.0
 10
54.6223334418402757
 20
-17.65008544921875
 30
0.0
 10
54.3570610894097186
 20
-17.65008544921875
 30
0.0
  0
LINE
  5
13E
100
AcDbEntity
  8
DR-07_080910
390
0
 62
     7
100
AcDbLine
 10
16.958827
 20
-17.650085
 30
0.0
 11
1.357023
 21
-17.650085
 31
0.0
  0
SPLINE
  5
13D
100
AcDbEntity
  8
DR-07_080910
390
0
 62
     7
100
AcDbSpline
210
0.0
220
0.0
230
1.0
 70
     8
 71
     3
 72
    11
 73
     7
 74
     0
 42
0.00000001
 43
0.00000001
 40
0.0
 40
0.0
 40
0.0
 40
0.0
 40
1.0
 40
1.0
 40
1.0
 40
2.0
 40
2.0
 40
2.0
 40
2.0
 10
1.3570231119791665
 20
-17.65008544921875
 30
0.0
 10
1.0917507595486111
 20
-17.65008544921875
 30
0.0
 10
0.837502712673611
 20
-17.7558498806423586
 30
0.0
 10
0.6500895182291666
 20
-17.9430908203124986
 30
0.0
 10
0.4626763237847222
 20
-18.1308485243055522
 30
0.0
 10
0.3569118923611111
 20
-18.3850965711805543
 30
0.0
 10
0.3569118923611111
 20
-18.6503689236111079
 30
0.0
  0
LINE
  5
13C
100
AcDbEntity
  8
DR-07_080910
390
0
 62
     7
100
AcDbLine
 10
37.757213
 20
-1.650373
 30
0.0
 11
37.757213
 21
-16.650146
 31
0.0
  0
SPLINE
  5
13B
100
AcDbEntity
  8
DR-07_080910
390
0
 62
     7
100
AcDbSpline
210
0.0
220
0.0
230
1.0
 70
     8
 71
     3
 72
    11
 73
     7
 74
     0
 42
0.00000001
 43
0.00000001
 40
0.0
 40
0.0
 40
0.0
 40
0.0
 40
1.0
 40
1.0
 40
1.0
 40
2.0
 40
2.0
 40
2.0
 40
2.0
 10
37.7572129991319443
 20
-1.6503729926215276
 30
0.0
 10
37.7572129991319443
 20
-1.2524644639756943
 30
0.0
 10
37.5990831163194414
 20
-0.8707478841145833
 30
0.0
 10
37.3176188151041615
 20
-0.5896280924479166
 30
0.0
 10
37.0364990234375
 20
-0.3086805555555555
 30
0.0
 10
36.6547824435763872
 20
-0.15037841796875
 30
0.0
 10
36.2572184244791629
 20
-0.15037841796875
 30
0.0
  0
LINE
  5
13A
100
AcDbEntity
  8
DR-07_080910
390
0
 62
     7
100
AcDbLine
 10
19.458244
 20
-0.150378
 30
0.0
 11
36.257218
 21
-0.150378
 31
0.0
  0
LINE
  5
139
100
AcDbEntity
  8
DR-07_080910
390
0
 62
     7
100
AcDbLine
 10
17.958249
 20
-1.650373
 30
0.0
 11
17.958249
 21
-16.650146
 31
0.0
  0
SPLINE
  5
138
100
AcDbEntity
  8
DR-07_080910
390
0
 62
     7
100
AcDbSpline
210
0.0
220
0.0
230
1.0
 70
     8
 71
     3
 72
    11
 73
     7
 74
     0
 42
0.00000001
 43
0.00000001
 40
0.0
 40
0.0
 40
0.0
 40
0.0
 40
1.0
 40
1.0
 40
1.0
 40
2.0
 40
2.0
 40
2.0
 40
2.0
 10
19.458243815104165
 20
-0.15037841796875
 30
0.0
 10
19.06085205078125
 20
-0.15037841796875
 30
0.0
 10
18.6791354709201372
 20
-0.3086805555555555
 30
0.0
 10
18.3981879340277779
 20
-0.5896280924479166
 30
0.0
 10
18.1167236328124979
 20
-0.8707478841145833
 30
0.0
 10
17.9582492404513872
 20
-1.2524644639756943
 30
0.0
 10
17.9582492404513872
 20
-1.6503729926215276
 30
0.0
  0
LINE
  5
137
100
AcDbEntity
  8
DR-07_080910
390
0
 62
     7
100
AcDbLine
 10
55.357517
 20
-0.850766
 30
0.0
 11
55.357517
 21
-16.450159
 31
0.0
  0
SPLINE
  5
136
100
AcDbEntity
  8
DR-07_080910
390
0
 62
     7
100
AcDbSpline
210
0.0
220
0.0
230
1.0
 70
     8
 71
     3
 72
    17
 73
    13
 74
     0
 42
0.00000001
 43
0.00000001
 40
0.0
 40
0.0
 40
0.0
 40
0.0
 40
1.0
 40
1.0
 40
1.0
 40
2.0
 40
2.0
 40
2.0
 40
3.0
 40
3.0
 40
3.0
 40
4.0
 40
4.0
 40
4.0
 40
4.0
 10
41.8565321180555543
 20
-111.6493435329860944
 30
0.0
 10
41.8565321180555543
 20
-103.9171712239583201
 30
0.0
 10
35.5885253906249943
 20
-97.6491644965277743
 30
0.0
 10
27.8566975911458314
 20
-97.6491644965277743
 30
0.0
 10
20.1245252821180536
 20
-97.6491644965277743
 30
0.0
 10
13.8566908094618046
 20
-103.9171712239583201
 30
0.0
 10
13.8566908094618046
 20
-111.6493435329860944
 30
0.0
 10
13.8566908094618046
 20
-119.3811713324652715
 30
0.0
 10
20.1245252821180536
 20
-125.6495225694444287
 30
0.0
 10
27.8566975911458314
 20
-125.6495225694444287
 30
0.0
 10
35.5885253906249943
 20
-125.6495225694444287
 30
0.0
 10
41.8565321180555543
 20
-119.3811713324652715
 30
0.0
 10
41.8565321180555543
 20
-111.6493435329860944
 30
0.0
  0
SPLINE
  5
135
100
AcDbEntity
  8
DR-07_080910
390
0
 62
     7
100
AcDbSpline
210
0.0
220
0.0
230
1.0
 70
     8
 71
     3
 72
    17
 73
    13
 74
     0
 42
0.00000001
 43
0.00000001
 40
0.0
 40
0.0
 40
0.0
 40
0.0
 40
1.0
 40
1.0
 40
1.0
 40
2.0
 40
2.0
 40
2.0
 40
3.0
 40
3.0
 40
3.0
 40
4.0
 40
4.0
 40
4.0
 40
4.0
 10
42.15659993489583
 20
-111.6493435329860944
 30
0.0
 10
42.15659993489583
 20
-103.7518066406249915
 30
0.0
 10
35.7545789930555529
 20
-97.3490966796874915
 30
0.0
 10
27.8566975911458314
 20
-97.3490966796874915
 30
0.0
 10
19.9591606987847214
 20
-97.3490966796874915
 30
0.0
 10
13.5564507378472214
 20
-103.7518066406249915
 30
0.0
 10
13.5564507378472214
 20
-111.6493435329860944
 30
0.0
 10
13.5564507378472214
 20
-119.5468804253472115
 30
0.0
 10
19.9591606987847214
 20
-125.9492458767361001
 30
0.0
 10
27.8566975911458314
 20
-125.9492458767361001
 30
0.0
 10
35.7545789930555529
 20
-125.9492458767361001
 30
0.0
 10
42.15659993489583
 20
-119.5468804253472115
 30
0.0
 10
42.15659993489583
 20
-111.6493435329860944
 30
0.0
  0
SPLINE
  5
134
100
AcDbEntity
  8
DR-07_080910
390
0
 62
     7
100
AcDbSpline
210
0.0
220
0.0
230
1.0
 70
     8
 71
     3
 72
    17
 73
    13
 74
     0
 42
0.00000001
 43
0.00000001
 40
0.0
 40
0.0
 40
0.0
 40
0.0
 40
1.0
 40
1.0
 40
1.0
 40
2.0
 40
2.0
 40
2.0
 40
3.0
 40
3.0
 40
3.0
 40
4.0
 40
4.0
 40
4.0
 40
4.0
 10
44.1568223741319414
 20
-111.6493435329860944
 30
0.0
 10
44.1568223741319414
 20
-102.6473090277777658
 30
0.0
 10
36.85873209635416
 20
-95.3492187499999915
 30
0.0
 10
27.8566975911458314
 20
-95.3492187499999915
 30
0.0
 10
18.8543185763888879
 20
-95.3492187499999915
 30
0.0
 10
11.5565728081597214
 20
-102.6473090277777658
 30
0.0
 10
11.5565728081597214
 20
-111.6493435329860944
 30
0.0
 10
11.5565728081597214
 20
-120.6513780381944372
 30
0.0
 10
18.8543185763888879
 20
-127.9494683159722115
 30
0.0
 10
27.8566975911458314
 20
-127.9494683159722115
 30
0.0
 10
36.85873209635416
 20
-127.9494683159722115
 30
0.0
 10
44.1568223741319414
 20
-120.6513780381944372
 30
0.0
 10
44.1568223741319414
 20
-111.6493435329860944
 30
0.0
  0
SPLINE
  5
133
100
AcDbEntity
  8
DR-07_080910
390
0
 62
     7
100
AcDbSpline
210
0.0
220
0.0
230
1.0
 70
     8
 71
     3
 72
    17
 73
    13
 74
     0
 42
0.00000001
 43
0.00000001
 40
0.0
 40
0.0
 40
0.0
 40
0.0
 40
1.0
 40
1.0
 40
1.0
 40
2.0
 40
2.0
 40
2.0
 40
3.0
 40
3.0
 40
3.0
 40
4.0
 40
4.0
 40
4.0
 40
4.0
 10
43.6565945095486043
 20
-111.6493435329860944
 30
0.0
 10
43.6565945095486043
 20
-102.9229166666666515
 30
0.0
 10
36.5824354383680515
 20
-95.8491021050347172
 30
0.0
 10
27.8566975911458314
 20
-95.8491021050347172
 30
0.0
 10
19.130615234375
 20
-95.8491021050347172
 30
0.0
 10
12.0564561631944436
 20
-102.9229166666666515
 30
0.0
 10
12.0564561631944436
 20
-111.6493435329860944
 30
0.0
 10
12.0564561631944436
 20
-120.3750813802083286
 30
0.0
 10
19.130615234375
 20
-127.4492404513888744
 30
0.0
 10
27.8566975911458314
 20
-127.4492404513888744
 30
0.0
 10
36.5824354383680515
 20
-127.4492404513888744
 30
0.0
 10
43.6565945095486043
 20
-120.3750813802083286
 30
0.0
 10
43.6565945095486043
 20
-111.6493435329860944
 30
0.0
  0
SPLINE
  5
132
100
AcDbEntity
  8
DR-07_080910
390
0
 62
     7
100
AcDbSpline
210
0.0
220
0.0
230
1.0
 70
     8
 71
     3
 72
    17
 73
    13
 74
     0
 42
0.00000001
 43
0.00000001
 40
0.0
 40
0.0
 40
0.0
 40
0.0
 40
1.0
 40
1.0
 40
1.0
 40
2.0
 40
2.0
 40
2.0
 40
3.0
 40
3.0
 40
3.0
 40
4.0
 40
4.0
 40
4.0
 40
4.0
 10
24.85774197048611
 20
-89.1508029513888829
 30
0.0
 10
24.85774197048611
 20
-87.7700086805555486
 30
0.0
 10
23.7384304470486107
 20
-86.6503526475694343
 30
0.0
 10
22.3576361762152764
 20
-86.6503526475694343
 30
0.0
 10
20.9768419053819422
 20
-86.6503526475694343
 30
0.0
 10
19.8575303819444429
 20
-87.7700086805555486
 30
0.0
 10
19.8575303819444429
 20
-89.1508029513888829
 30
0.0
 10
19.8575303819444429
 20
-90.5315972222222172
 30
0.0
 10
20.9768419053819422
 20
-91.6505642361111086
 30
0.0
 10
22.3576361762152764
 20
-91.6505642361111086
 30
0.0
 10
23.7384304470486107
 20
-91.6505642361111086
 30
0.0
 10
24.85774197048611
 20
-90.5315972222222172
 30
0.0
 10
24.85774197048611
 20
-89.1508029513888829
 30
0.0
  0
SPLINE
  5
131
100
AcDbEntity
  8
DR-07_080910
390
0
 62
     7
100
AcDbSpline
210
0.0
220
0.0
230
1.0
 70
     8
 71
     3
 72
    17
 73
    13
 74
     0
 42
0.00000001
 43
0.00000001
 40
0.0
 40
0.0
 40
0.0
 40
0.0
 40
1.0
 40
1.0
 40
1.0
 40
2.0
 40
2.0
 40
2.0
 40
3.0
 40
3.0
 40
3.0
 40
4.0
 40
4.0
 40
4.0
 40
4.0
 10
25.1578097873263857
 20
-89.1508029513888829
 30
0.0
 10
25.1578097873263857
 20
-87.6039550781249972
 30
0.0
 10
23.9041395399305543
 20
-86.3506293402777629
 30
0.0
 10
22.3576361762152764
 20
-86.3506293402777629
 30
0.0
 10
20.8107883029513872
 20
-86.3506293402777629
 30
0.0
 10
19.557807074652775
 20
-87.6039550781249972
 30
0.0
 10
19.557807074652775
 20
-89.1508029513888829
 30
0.0
 10
19.557807074652775
 20
-90.6969618055555458
 30
0.0
 10
20.8107883029513872
 20
-91.9506320529513772
 30
0.0
 10
22.3576361762152764
 20
-91.9506320529513772
 30
0.0
 10
23.9041395399305543
 20
-91.9506320529513772
 30
0.0
 10
25.1578097873263857
 20
-90.6969618055555458
 30
0.0
 10
25.1578097873263857
 20
-89.1508029513888829
 30
0.0
  0
SPLINE
  5
130
100
AcDbEntity
  8
DR-07_080910
390
0
 62
     7
100
AcDbSpline
210
0.0
220
0.0
230
1.0
 70
     8
 71
     3
 72
    17
 73
    13
 74
     0
 42
0.00000001
 43
0.00000001
 40
0.0
 40
0.0
 40
0.0
 40
0.0
 40
1.0
 40
1.0
 40
1.0
 40
2.0
 40
2.0
 40
2.0
 40
3.0
 40
3.0
 40
3.0
 40
4.0
 40
4.0
 40
4.0
 40
4.0
 10
25.8575086805555543
 20
-89.1508029513888829
 30
0.0
 10
25.8575086805555543
 20
-87.2174153645833314
 30
0.0
 10
24.29067925347222
 20
-85.6505859374999972
 30
0.0
 10
22.3576361762152764
 20
-85.6505859374999972
 30
0.0
 10
20.4249376085069443
 20
-85.6505859374999972
 30
0.0
 10
18.8577636718749986
 20
-87.2174153645833314
 30
0.0
 10
18.8577636718749986
 20
-89.1508029513888829
 30
0.0
 10
18.8577636718749986
 20
-91.0835015190972115
 30
0.0
 10
20.4249376085069443
 20
-92.6503309461805458
 30
0.0
 10
22.3576361762152764
 20
-92.6503309461805458
 30
0.0
 10
24.29067925347222
 20
-92.6503309461805458
 30
0.0
 10
25.8575086805555543
 20
-91.0835015190972115
 30
0.0
 10
25.8575086805555543
 20
-89.1508029513888829
 30
0.0
  0
SPLINE
  5
12F
100
AcDbEntity
  8
DR-07_080910
390
0
 62
     7
100
AcDbSpline
210
0.0
220
0.0
230
1.0
 70
     8
 71
     3
 72
    17
 73
    13
 74
     0
 42
0.00000001
 43
0.00000001
 40
0.0
 40
0.0
 40
0.0
 40
0.0
 40
1.0
 40
1.0
 40
1.0
 40
2.0
 40
2.0
 40
2.0
 40
3.0
 40
3.0
 40
3.0
 40
4.0
 40
4.0
 40
4.0
 40
4.0
 10
13.8575520833333314
 20
-89.1508029513888829
 30
0.0
 10
13.8575520833333314
 20
-87.7700086805555486
 30
0.0
 10
12.7382405598958321
 20
-86.6503526475694343
 30
0.0
 10
11.3576185438368054
 20
-86.6503526475694343
 30
0.0
 10
9.9768242730034711
 20
-86.6503526475694343
 30
0.0
 10
8.8576850043402775
 20
-87.7700086805555486
 30
0.0
 10
8.8576850043402775
 20
-89.1508029513888829
 30
0.0
 10
8.8576850043402775
 20
-90.5315972222222172
 30
0.0
 10
9.9768242730034711
 20
-91.6505642361111086
 30
0.0
 10
11.3576185438368054
 20
-91.6505642361111086
 30
0.0
 10
12.7382405598958321
 20
-91.6505642361111086
 30
0.0
 10
13.8575520833333314
 20
-90.5315972222222172
 30
0.0
 10
13.8575520833333314
 20
-89.1508029513888829
 30
0.0
  0
SPLINE
  5
12E
100
AcDbEntity
  8
DR-07_080910
390
0
 62
     7
100
AcDbSpline
210
0.0
220
0.0
230
1.0
 70
     8
 71
     3
 72
    17
 73
    13
 74
     0
 42
0.00000001
 43
0.00000001
 40
0.0
 40
0.0
 40
0.0
 40
0.0
 40
1.0
 40
1.0
 40
1.0
 40
2.0
 40
2.0
 40
2.0
 40
3.0
 40
3.0
 40
3.0
 40
4.0
 40
4.0
 40
4.0
 40
4.0
 10
14.1576199001736089
 20
-89.1508029513888829
 30
0.0
 10
14.1576199001736089
 20
-87.6039550781249972
 30
0.0
 10
12.9042941623263872
 20
-86.3506293402777629
 30
0.0
 10
11.3576185438368054
 20
-86.3506293402777629
 30
0.0
 10
9.8116319444444429
 20
-86.3506293402777629
 30
0.0
 10
8.5576171875
 20
-87.6039550781249972
 30
0.0
 10
8.5576171875
 20
-89.1508029513888829
 30
0.0
 10
8.5576171875
 20
-90.6969618055555458
 30
0.0
 10
9.8116319444444429
 20
-91.9506320529513772
 30
0.0
 10
11.3576185438368054
 20
-91.9506320529513772
 30
0.0
 10
12.9042941623263872
 20
-91.9506320529513772
 30
0.0
 10
14.1576199001736089
 20
-90.6969618055555458
 30
0.0
 10
14.1576199001736089
 20
-89.1508029513888829
 30
0.0
  0
SPLINE
  5
12D
100
AcDbEntity
  8
DR-07_080910
390
0
 62
     7
100
AcDbSpline
210
0.0
220
0.0
230
1.0
 70
     8
 71
     3
 72
    17
 73
    13
 74
     0
 42
0.00000001
 43
0.00000001
 40
0.0
 40
0.0
 40
0.0
 40
0.0
 40
1.0
 40
1.0
 40
1.0
 40
2.0
 40
2.0
 40
2.0
 40
3.0
 40
3.0
 40
3.0
 40
4.0
 40
4.0
 40
4.0
 40
4.0
 10
14.8578355577256929
 20
-89.1508029513888829
 30
0.0
 10
14.8578355577256929
 20
-87.2174153645833314
 30
0.0
 10
13.2908338758680546
 20
-85.6505859374999972
 30
0.0
 10
11.3576185438368054
 20
-85.6505859374999972
 30
0.0
 10
9.4247477213541657
 20
-85.6505859374999972
 30
0.0
 10
7.8577460394965275
 20
-87.2174153645833314
 30
0.0
 10
7.8577460394965275
 20
-89.1508029513888829
 30
0.0
 10
7.8577460394965275
 20
-91.0835015190972115
 30
0.0
 10
9.4247477213541657
 20
-92.6503309461805458
 30
0.0
 10
11.3576185438368054
 20
-92.6503309461805458
 30
0.0
 10
13.2908338758680546
 20
-92.6503309461805458
 30
0.0
 10
14.8578355577256929
 20
-91.0835015190972115
 30
0.0
 10
14.8578355577256929
 20
-89.1508029513888829
 30
0.0
  0
SPLINE
  5
12C
100
AcDbEntity
  8
DR-07_080910
390
0
 62
     7
100
AcDbSpline
210
0.0
220
0.0
230
1.0
 70
     8
 71
     3
 72
    14
 73
    10
 74
     0
 42
0.00000001
 43
0.00000001
 40
0.0
 40
0.0
 40
0.0
 40
0.0
 40
1.0
 40
1.0
 40
1.0
 40
2.0
 40
2.0
 40
2.0
 40
3.0
 40
3.0
 40
3.0
 40
3.0
 10
31.5198676215277764
 20
-89.9004557291666515
 30
0.0
 10
31.7878960503472179
 20
-89.9004557291666515
 30
0.0
 10
32.0352539062499986
 20
-89.7578287760416629
 30
0.0
 10
32.1696126302083272
 20
-89.5256293402777743
 30
0.0
 10
32.30328233506944
 20
-89.2934299045138857
 30
0.0
 10
32.30328233506944
 20
-89.0074869791666572
 30
0.0
 10
32.1696126302083272
 20
-88.77563205295138
 30
0.0
 10
32.0352539062499986
 20
-88.5434326171874915
 30
0.0
 10
31.7878960503472179
 20
-88.4004611545138772
 30
0.0
 10
31.5198676215277764
 20
-88.4004611545138772
 30
0.0
  0
SPLINE
  5
12B
100
AcDbEntity
  8
DR-07_080910
390
0
 62
     7
100
AcDbSpline
210
0.0
220
0.0
230
1.0
 70
     8
 71
     3
 72
    14
 73
    10
 74
     0
 42
0.00000001
 43
0.00000001
 40
0.0
 40
0.0
 40
0.0
 40
0.0
 40
1.0
 40
1.0
 40
1.0
 40
2.0
 40
2.0
 40
2.0
 40
3.0
 40
3.0
 40
3.0
 40
3.0
 10
31.5198676215277764
 20
-89.8005479600694372
 30
0.0
 10
31.752067057291665
 20
-89.8005479600694372
 30
0.0
 10
31.9670410156249964
 20
-89.6768690321180486
 30
0.0
 10
32.0827962239583329
 20
-89.4753309461805486
 30
0.0
 10
32.1988959418402771
 20
-89.2744818793402715
 30
0.0
 10
32.1988959418402771
 20
-89.0267795138888829
 30
0.0
 10
32.0827962239583329
 20
-88.8255859374999943
 30
0.0
 10
31.9670410156249964
 20
-88.6243923611111057
 30
0.0
 10
31.752067057291665
 20
-88.5007134331597172
 30
0.0
 10
31.5198676215277764
 20
-88.5007134331597172
 30
0.0
  0
LINE
  5
12A
100
AcDbEntity
  8
DR-07_080910
390
0
 62
     7
100
AcDbLine
 10
31.519868
 20
-88.400461
 30
0.0
 11
29.019762
 21
-88.400461
 31
0.0
  0
SPLINE
  5
129
100
AcDbEntity
  8
DR-07_080910
390
0
 62
     7
100
AcDbSpline
210
0.0
220
0.0
230
1.0
 70
     8
 71
     3
 72
    11
 73
     7
 74
     0
 42
0.00000001
 43
0.00000001
 40
0.0
 40
0.0
 40
0.0
 40
0.0
 40
1.0
 40
1.0
 40
1.0
 40
2.0
 40
2.0
 40
2.0
 40
2.0
 10
29.0197618272569429
 20
-88.4004611545138772
 30
0.0
 10
28.6056613498263879
 20
-88.4004611545138772
 30
0.0
 10
28.2697645399305522
 20
-88.7367024739583314
 30
0.0
 10
28.2697645399305522
 20
-89.1508029513888829
 30
0.0
 10
28.2697645399305522
 20
-89.5649034288194343
 30
0.0
 10
28.6056613498263879
 20
-89.9004557291666515
 30
0.0
 10
29.0197618272569429
 20
-89.9004557291666515
 30
0.0
  0
LINE
  5
128
100
AcDbEntity
  8
DR-07_080910
390
0
 62
     7
100
AcDbLine
 10
31.519868
 20
-89.900456
 30
0.0
 11
29.019762
 21
-89.900456
 31
0.0
  0
LINE
  5
127
100
AcDbEntity
  8
DR-07_080910
390
0
 62
     7
100
AcDbLine
 10
29.019762
 20
-88.500713
 30
0.0
 11
31.519868
 21
-88.500713
 31
0.0
  0
SPLINE
  5
126
100
AcDbEntity
  8
DR-07_080910
390
0
 62
     7
100
AcDbSpline
210
0.0
220
0.0
230
1.0
 70
     8
 71
     3
 72
    11
 73
     7
 74
     0
 42
0.00000001
 43
0.00000001
 40
0.0
 40
0.0
 40
0.0
 40
0.0
 40
1.0
 40
1.0
 40
1.0
 40
2.0
 40
2.0
 40
2.0
 40
2.0
 10
29.0197618272569429
 20
-88.5007134331597172
 30
0.0
 10
28.6611273871527743
 20
-88.5007134331597172
 30
0.0
 10
28.370016818576385
 20
-88.7918240017361029
 30
0.0
 10
28.370016818576385
 20
-89.1508029513888829
 30
0.0
 10
28.370016818576385
 20
-89.5097819010416629
 30
0.0
 10
28.6611273871527743
 20
-89.8005479600694372
 30
0.0
 10
29.0197618272569429
 20
-89.8005479600694372
 30
0.0
  0
LINE
  5
125
100
AcDbEntity
  8
DR-07_080910
390
0
 62
     7
100
AcDbLine
 10
31.519868
 20
-89.800548
 30
0.0
 11
29.019762
 21
-89.800548
 31
0.0
  0
SPLINE
  5
124
100
AcDbEntity
  8
DR-07_080910
390
0
 62
     7
100
AcDbSpline
210
0.0
220
0.0
230
1.0
 70
     8
 71
     3
 72
    11
 73
     7
 74
     0
 42
0.00000001
 43
0.00000001
 40
0.0
 40
0.0
 40
0.0
 40
0.0
 40
1.0
 40
1.0
 40
1.0
 40
2.0
 40
2.0
 40
2.0
 40
2.0
 10
38.3580376519097186
 20
-86.6503526475694343
 30
0.0
 10
36.9772433810763843
 20
-86.6503526475694343
 30
0.0
 10
35.8582763671875
 20
-87.7693196614583258
 30
0.0
 10
35.8582763671875
 20
-89.15011393229166
 30
0.0
 10
35.8582763671875
 20
-90.5309082031249943
 30
0.0
 10
36.9772433810763843
 20
-91.6498752170138857
 30
0.0
 10
38.3580376519097186
 20
-91.6498752170138857
 30
0.0
  0
LINE
  5
123
100
AcDbEntity
  8
DR-07_080910
390
0
 62
     7
100
AcDbLine
 10
44.358016
 20
-86.650353
 30
0.0
 11
38.358038
 21
-86.650353
 31
0.0
  0
SPLINE
  5
122
100
AcDbEntity
  8
DR-07_080910
390
0
 62
     7
100
AcDbSpline
210
0.0
220
0.0
230
1.0
 70
     8
 71
     3
 72
    14
 73
    10
 74
     0
 42
0.00000001
 43
0.00000001
 40
0.0
 40
0.0
 40
0.0
 40
0.0
 40
1.0
 40
1.0
 40
1.0
 40
2.0
 40
2.0
 40
2.0
 40
3.0
 40
3.0
 40
3.0
 40
3.0
 10
44.35801595052083
 20
-91.6498752170138857
 30
0.0
 10
45.2509847005208314
 20
-91.6505642361111086
 30
0.0
 10
46.07642957899305
 20
-91.1737630208333201
 30
0.0
 10
46.5229139539930543
 20
-90.3999945746527658
 30
0.0
 10
46.9693983289930515
 20
-89.6269151475694343
 30
0.0
 10
46.9693983289930515
 20
-88.6736572265624972
 30
0.0
 10
46.5229139539930543
 20
-87.9002332899305543
 30
0.0
 10
46.07642957899305
 20
-87.1264648437499858
 30
0.0
 10
45.2509847005208314
 20
-86.6503526475694343
 30
0.0
 10
44.35801595052083
 20
-86.6503526475694343
 30
0.0
  0
SPLINE
  5
121
100
AcDbEntity
  8
DR-07_080910
390
0
 62
     7
100
AcDbSpline
210
0.0
220
0.0
230
1.0
 70
     8
 71
     3
 72
    11
 73
     7
 74
     0
 42
0.00000001
 43
0.00000001
 40
0.0
 40
0.0
 40
0.0
 40
0.0
 40
1.0
 40
1.0
 40
1.0
 40
2.0
 40
2.0
 40
2.0
 40
2.0
 10
38.3580376519097186
 20
-86.3502848307291657
 30
0.0
 10
36.8115342881944443
 20
-86.3502848307291657
 30
0.0
 10
35.5582085503472172
 20
-87.6039550781249972
 30
0.0
 10
35.5582085503472172
 20
-89.15011393229166
 30
0.0
 10
35.5582085503472172
 20
-90.6962727864583229
 30
0.0
 10
36.8115342881944443
 20
-91.9499430338541544
 30
0.0
 10
38.3580376519097186
 20
-91.9502875434027658
 30
0.0
  0
LINE
  5
120
100
AcDbEntity
  8
DR-07_080910
390
0
 62
     7
100
AcDbLine
 10
38.358038
 20
-86.350285
 30
0.0
 11
44.358016
 21
-86.350285
 31
0.0
  0
SPLINE
  5
11F
100
AcDbEntity
  8
DR-07_080910
390
0
 62
     7
100
AcDbSpline
210
0.0
220
0.0
230
1.0
 70
     8
 71
     3
 72
    14
 73
    10
 74
     0
 42
0.00000001
 43
0.00000001
 40
0.0
 40
0.0
 40
0.0
 40
0.0
 40
1.0
 40
1.0
 40
1.0
 40
2.0
 40
2.0
 40
2.0
 40
3.0
 40
3.0
 40
3.0
 40
3.0
 10
44.35801595052083
 20
-91.9502875434027658
 30
0.0
 10
45.3584716796874972
 20
-91.9502875434027658
 30
0.0
 10
46.2824462890624986
 20
-91.4162977430555515
 30
0.0
 10
46.7826741536458286
 20
-90.55020073784722
 30
0.0
 10
47.2829020182291657
 20
-89.6841037326388744
 30
0.0
 10
47.2829020182291657
 20
-88.6164686414930429
 30
0.0
 10
46.7826741536458286
 20
-87.7500271267361001
 30
0.0
 10
46.2824462890624986
 20
-86.8839301215277686
 30
0.0
 10
45.3584716796874972
 20
-86.3502848307291657
 30
0.0
 10
44.35801595052083
 20
-86.3502848307291657
 30
0.0
  0
LINE
  5
11E
100
AcDbEntity
  8
DR-07_080910
390
0
 62
     7
100
AcDbLine
 10
44.358016
 20
-91.649875
 30
0.0
 11
38.358038
 21
-91.649875
 31
0.0
  0
LINE
  5
11D
100
AcDbEntity
  8
DR-07_080910
390
0
 62
     7
100
AcDbLine
 10
38.358038
 20
-91.950288
 30
0.0
 11
44.358016
 21
-91.950288
 31
0.0
  0
LINE
  5
11C
100
AcDbEntity
  8
DR-07_080910
390
0
 62
     7
100
AcDbLine
 10
44.358016
 20
-93.250467
 30
0.0
 11
38.358038
 21
-93.250467
 31
0.0
  0
SPLINE
  5
11B
100
AcDbEntity
  8
DR-07_080910
390
0
 62
     7
100
AcDbSpline
210
0.0
220
0.0
230
1.0
 70
     8
 71
     3
 72
    11
 73
     7
 74
     0
 42
0.00000001
 43
0.00000001
 40
0.0
 40
0.0
 40
0.0
 40
0.0
 40
1.0
 40
1.0
 40
1.0
 40
2.0
 40
2.0
 40
2.0
 40
2.0
 10
38.3580376519097186
 20
-85.0504503038194315
 30
0.0
 10
36.0939208984374957
 20
-85.0504503038194315
 30
0.0
 10
34.2576850043402743
 20
-86.8859971788194372
 30
0.0
 10
34.2576850043402743
 20
-89.15011393229166
 30
0.0
 10
34.2576850043402743
 20
-91.4142306857638829
 30
0.0
 10
36.0939208984374957
 20
-93.2504665798610972
 30
0.0
 10
38.3580376519097186
 20
-93.2504665798610972
 30
0.0
  0
LINE
  5
11A
100
AcDbEntity
  8
DR-07_080910
390
0
 62
     7
100
AcDbLine
 10
38.358038
 20
-85.05045
 30
0.0
 11
44.358016
 21
-85.05045
 31
0.0
  0
SPLINE
  5
119
100
AcDbEntity
  8
DR-07_080910
390
0
 62
     7
100
AcDbSpline
210
0.0
220
0.0
230
1.0
 70
     8
 71
     3
 72
    14
 73
    10
 74
     0
 42
0.00000001
 43
0.00000001
 40
0.0
 40
0.0
 40
0.0
 40
0.0
 40
1.0
 40
1.0
 40
1.0
 40
2.0
 40
2.0
 40
2.0
 40
3.0
 40
3.0
 40
3.0
 40
3.0
 10
44.35801595052083
 20
-93.2504665798610972
 30
0.0
 10
45.8228705512152743
 20
-93.2504665798610972
 30
0.0
 10
47.1761040581597157
 20
-92.4684299045138829
 30
0.0
 10
47.9085313585069414
 20
-91.2002902560763857
 30
0.0
 10
48.64095865885416
 20
-89.9314615885416515
 30
0.0
 10
48.64095865885416
 20
-88.3687662760416544
 30
0.0
 10
47.9085313585069414
 20
-87.1002821180555458
 30
0.0
 10
47.1761040581597157
 20
-85.8317979600694372
 30
0.0
 10
45.8228705512152743
 20
-85.0504503038194315
 30
0.0
 10
44.35801595052083
 20
-85.0504503038194315
 30
0.0
  0
LINE
  5
118
100
AcDbEntity
  8
DR-07_080910
390
0
 62
     7
100
AcDbLine
 10
38.358038
 20
-93.350374
 30
0.0
 11
44.358016
 21
-93.350374
 31
0.0
  0
SPLINE
  5
117
100
AcDbEntity
  8
DR-07_080910
390
0
 62
     7
100
AcDbSpline
210
0.0
220
0.0
230
1.0
 70
     8
 71
     3
 72
    14
 73
    10
 74
     0
 42
0.00000001
 43
0.00000001
 40
0.0
 40
0.0
 40
0.0
 40
0.0
 40
1.0
 40
1.0
 40
1.0
 40
2.0
 40
2.0
 40
2.0
 40
3.0
 40
3.0
 40
3.0
 40
3.0
 10
44.35801595052083
 20
-93.3503743489583258
 30
0.0
 10
45.8586995442708272
 20
-93.3503743489583258
 30
0.0
 10
47.2450059678819372
 20
-92.5497341579861086
 30
0.0
 10
47.9953477647569429
 20
-91.2502441406249858
 30
0.0
 10
48.7456895616319414
 20
-89.9507541232638772
 30
0.0
 10
48.7456895616319414
 20
-88.3498182508680543
 30
0.0
 10
47.9953477647569429
 20
-87.0499837239583201
 30
0.0
 10
47.2450059678819372
 20
-85.7504937065972115
 30
0.0
 10
45.8586995442708272
 20
-84.9498535156249943
 30
0.0
 10
44.35801595052083
 20
-84.9498535156249943
 30
0.0
  0
LINE
  5
116
100
AcDbEntity
  8
DR-07_080910
390
0
 62
     7
100
AcDbLine
 10
44.358016
 20
-84.949854
 30
0.0
 11
38.358038
 21
-84.949854
 31
0.0
  0
SPLINE
  5
115
100
AcDbEntity
  8
DR-07_080910
390
0
 62
     7
100
AcDbSpline
210
0.0
220
0.0
230
1.0
 70
     8
 71
     3
 72
    11
 73
     7
 74
     0
 42
0.00000001
 43
0.00000001
 40
0.0
 40
0.0
 40
0.0
 40
0.0
 40
1.0
 40
1.0
 40
1.0
 40
2.0
 40
2.0
 40
2.0
 40
2.0
 10
38.3580376519097186
 20
-84.9498535156249943
 30
0.0
 10
36.0381103515624943
 20
-84.9498535156249943
 30
0.0
 10
34.1577772352430529
 20
-86.8308756510416657
 30
0.0
 10
34.1577772352430529
 20
-89.15011393229166
 30
0.0
 10
34.1577772352430529
 20
-91.4696967230902658
 30
0.0
 10
36.0381103515624943
 20
-93.3500298394097143
 30
0.0
 10
38.3580376519097186
 20
-93.3503743489583258
 30
0.0
  0
LINE
  5
114
100
AcDbEntity
  8
DR-07_080910
390
0
 62
     7
100
AcDbLine
 10
0.356912
 20
-18.650369
 30
0.0
 11
0.356912
 21
-127.150206
 31
0.0
  0
SPLINE
  5
113
100
AcDbEntity
  8
DR-07_080910
390
0
 62
     7
100
AcDbSpline
210
0.0
220
0.0
230
1.0
 70
     8
 71
     3
 72
     8
 73
     4
 74
     0
 42
0.00000001
 43
0.00000001
 40
0.0
 40
0.0
 40
0.0
 40
0.0
 40
1.0
 40
1.0
 40
1.0
 40
1.0
 10
0.3569118923611111
 20
-127.1502061631944258
 30
0.0
 10
0.3569118923611111
 20
-132.6733832465277771
 30
0.0
 10
4.8345024956597218
 20
-137.1502848307291629
 30
0.0
 10
10.3569905598958325
 20
-137.1502848307291629
 30
0.0
  0
LINE
  5
112
100
AcDbEntity
  8
DR-07_080910
390
0
 62
     7
100
AcDbLine
 10
45.357094
 20
-137.150285
 30
0.0
 11
10.356991
 21
-137.150285
 31
0.0
  0
LINE
  5
111
100
AcDbEntity
  8
DR-07_080910
390
0
 62
     7
100
AcDbLine
 10
55.357172
 20
-18.650369
 30
0.0
 11
55.357172
 21
-127.150206
 31
0.0
  0
SPLINE
  5
110
100
AcDbEntity
  8
DR-07_080910
390
0
 62
     7
100
AcDbSpline
210
0.0
220
0.0
230
1.0
 70
     8
 71
     3
 72
     8
 73
     4
 74
     0
 42
0.00000001
 43
0.00000001
 40
0.0
 40
0.0
 40
0.0
 40
0.0
 40
1.0
 40
1.0
 40
1.0
 40
1.0
 10
45.3570936414930515
 20
-137.1502848307291629
 30
0.0
 10
50.8802707248263815
 20
-137.1502848307291629
 30
0.0
 10
55.3571723090277743
 20
-132.6733832465277771
 30
0.0
 10
55.3571723090277743
 20
-127.1502061631944258
 30
0.0
  0
LINE
  5
10F
100
AcDbEntity
  8
DR-07_080910
390
0
 62
     7
100
AcDbLine
 10
49.106736
 20
-28.250644
 30
0.0
 11
6.607349
 21
-28.250644
 31
0.0
  0
SPLINE
  5
10E
100
AcDbEntity
  8
DR-07_080910
390
0
 62
     7
100
AcDbSpline
210
0.0
220
0.0
230
1.0
 70
     8
 71
     3
 72
    11
 73
     7
 74
     0
 42
0.00000001
 43
0.00000001
 40
0.0
 40
0.0
 40
0.0
 40
0.0
 40
1.0
 40
1.0
 40
1.0
 40
2.0
 40
2.0
 40
2.0
 40
2.0
 10
51.1073025173611057
 20
-30.2505221896701357
 30
0.0
 10
51.1073025173611057
 20
-29.719977484809025
 30
0.0
 10
50.8961181640624929
 20
-29.2111368815104129
 30
0.0
 10
50.5212917751736086
 20
-28.8361382378472193
 30
0.0
 10
50.1464653862847172
 20
-28.4613118489583314
 30
0.0
 10
49.6376247829861086
 20
-28.2506442599826357
 30
0.0
 10
49.1067355685763829
 20
-28.2506442599826357
 30
0.0
  0
SPLINE
  5
10D
100
AcDbEntity
  8
DR-07_080910
390
0
 62
     7
100
AcDbSpline
210
0.0
220
0.0
230
1.0
 70
     8
 71
     3
 72
     8
 73
     4
 74
     0
 42
0.00000001
 43
0.00000001
 40
0.0
 40
0.0
 40
0.0
 40
0.0
 40
1.0
 40
1.0
 40
1.0
 40
1.0
 10
49.1067355685763829
 20
-77.6503851996527743
 30
0.0
 10
50.2119222005208314
 20
-77.6503851996527743
 30
0.0
 10
51.1073025173611057
 20
-76.7550048828125
 30
0.0
 10
51.1073025173611057
 20
-75.6505072699652743
 30
0.0
  0
SPLINE
  5
10C
100
AcDbEntity
  8
DR-07_080910
390
0
 62
     7
100
AcDbSpline
210
0.0
220
0.0
230
1.0
 70
     8
 71
     3
 72
     8
 73
     4
 74
     0
 42
0.00000001
 43
0.00000001
 40
0.0
 40
0.0
 40
0.0
 40
0.0
 40
1.0
 40
1.0
 40
1.0
 40
1.0
 10
4.6071261935763888
 20
-75.6505072699652743
 30
0.0
 10
4.6071261935763888
 20
-76.7550048828125
 30
0.0
 10
5.5025065104166666
 20
-77.6503851996527743
 30
0.0
 10
6.6073486328124993
 20
-77.6503851996527743
 30
0.0
  0
SPLINE
  5
10B
100
AcDbEntity
  8
DR-07_080910
390
0
 62
     7
100
AcDbSpline
210
0.0
220
0.0
230
1.0
 70
     8
 71
     3
 72
    11
 73
     7
 74
     0
 42
0.00000001
 43
0.00000001
 40
0.0
 40
0.0
 40
0.0
 40
0.0
 40
1.0
 40
1.0
 40
1.0
 40
2.0
 40
2.0
 40
2.0
 40
2.0
 10
6.6073486328124993
 20
-28.2506442599826357
 30
0.0
 10
6.0766316731770829
 20
-28.2506442599826357
 30
0.0
 10
5.5677910698784716
 20
-28.4613118489583314
 30
0.0
 10
5.1927924262152771
 20
-28.8361382378472193
 30
0.0
 10
4.8177937825520827
 20
-29.2111368815104129
 30
0.0
 10
4.6071261935763888
 20
-29.719977484809025
 30
0.0
 10
4.6071261935763888
 20
-30.2505221896701357
 30
0.0
  0
LINE
  5
10A
100
AcDbEntity
  8
DR-07_080910
390
0
 62
     7
100
AcDbLine
 10
46.857777
 20
-33.950382
 30
0.0
 11
8.858374
 21
-33.950382
 31
0.0
  0
SPLINE
  5
109
100
AcDbEntity
  8
DR-07_080910
390
0
 62
     7
100
AcDbSpline
210
0.0
220
0.0
230
1.0
 70
     8
 71
     3
 72
    11
 73
     7
 74
     0
 42
0.00000001
 43
0.00000001
 40
0.0
 40
0.0
 40
0.0
 40
0.0
 40
1.0
 40
1.0
 40
1.0
 40
2.0
 40
2.0
 40
2.0
 40
2.0
 10
47.8575439453124929
 20
-34.9504937065972214
 30
0.0
 10
47.8575439453124929
 20
-34.6852213541666643
 30
0.0
 10
47.7524685329861072
 20
-34.4309733072916657
 30
0.0
 10
47.5650553385416615
 20
-34.2432156032986086
 30
0.0
 10
47.3772976345486043
 20
-34.0559746636284686
 30
0.0
 10
47.1230495876736057
 20
-33.9503824869791657
 30
0.0
 10
46.8577772352430486
 20
-33.9503824869791657
 30
0.0
  0
LINE
  5
108
100
AcDbEntity
  8
DR-07_080910
390
0
 62
     7
100
AcDbLine
 10
47.857544
 20
-53.950368
 30
0.0
 11
47.857544
 21
-34.950494
 31
0.0
  0
SPLINE
  5
107
100
AcDbEntity
  8
DR-07_080910
390
0
 62
     7
100
AcDbSpline
210
0.0
220
0.0
230
1.0
 70
     8
 71
     3
 72
     8
 73
     4
 74
     0
 42
0.00000001
 43
0.00000001
 40
0.0
 40
0.0
 40
0.0
 40
0.0
 40
1.0
 40
1.0
 40
1.0
 40
1.0
 10
46.8577772352430486
 20
-54.9501342773437429
 30
0.0
 10
47.4103705512152729
 20
-54.9501342773437429
 30
0.0
 10
47.8575439453124929
 20
-54.5026163736979115
 30
0.0
 10
47.8575439453124929
 20
-53.9503675672742986
 30
0.0
  0
LINE
  5
106
100
AcDbEntity
  8
DR-07_080910
390
0
 62
     7
100
AcDbLine
 10
8.858374
 20
-54.950134
 30
0.0
 11
46.857777
 21
-54.950134
 31
0.0
  0
LINE
  5
105
100
AcDbEntity
  8
DR-07_080910
390
0
 62
     7
100
AcDbLine
 10
7.857918
 20
-34.950494
 30
0.0
 11
7.857918
 21
-53.950368
 31
0.0
  0
SPLINE
  5
104
100
AcDbEntity
  8
DR-07_080910
390
0
 62
     7
100
AcDbSpline
210
0.0
220
0.0
230
1.0
 70
     8
 71
     3
 72
    11
 73
     7
 74
     0
 42
0.00000001
 43
0.00000001
 40
0.0
 40
0.0
 40
0.0
 40
0.0
 40
1.0
 40
1.0
 40
1.0
 40
2.0
 40
2.0
 40
2.0
 40
2.0
 10
8.8583740234374986
 20
-33.9503824869791657
 30
0.0
 10
8.5929294162326375
 20
-33.9503824869791657
 30
0.0
 10
8.3385091145833332
 20
-34.0559746636284686
 30
0.0
 10
8.1510959201388875
 20
-34.2432156032986086
 30
0.0
 10
7.963338216145833
 20
-34.4309733072916657
 30
0.0
 10
7.8579182942708323
 20
-34.6852213541666643
 30
0.0
 10
7.8579182942708323
 20
-34.9504937065972214
 30
0.0
  0
SPLINE
  5
103
100
AcDbEntity
  8
DR-07_080910
390
0
 62
     7
100
AcDbSpline
210
0.0
220
0.0
230
1.0
 70
     8
 71
     3
 72
     8
 73
     4
 74
     0
 42
0.00000001
 43
0.00000001
 40
0.0
 40
0.0
 40
0.0
 40
0.0
 40
1.0
 40
1.0
 40
1.0
 40
1.0
 10
7.8579182942708323
 20
-53.9503675672742986
 30
0.0
 10
7.8579182942708323
 20
-54.5026163736979115
 30
0.0
 10
8.3057807074652779
 20
-54.9501342773437429
 30
0.0
 10
8.8583740234374986
 20
-54.9501342773437429
 30
0.0
  0
LINE
  5
102
100
AcDbEntity
  8
DR-07_080910
390
0
 62
     7
100
AcDbLine
 10
28.107845
 20
-70.65064
 30
0.0
 11
28.107845
 21
-77.650385
 31
0.0
  0
LINE
  5
101
100
AcDbEntity
  8
DR-07_080910
390
0
 62
     7
100
AcDbLine
 10
27.607962
 20
-70.65064
 30
0.0
 11
27.607962
 21
-77.650385
 31
0.0
  0
LINE
  5
100
100
AcDbEntity
  8
DR-07_080910
390
0
 62
     7
100
AcDbLine
 10
39.607918
 20
-70.65064
 30
0.0
 11
39.607918
 21
-77.650385
 31
0.0
  0
LINE
  5
FF
100
AcDbEntity
  8
DR-07_080910
390
0
 62
     7
100
AcDbLine
 10
16.108233
 20
-70.65064
 30
0.0
 11
16.108233
 21
-77.650385
 31
0.0
  0
LINE
  5
FE
100
AcDbEntity
  8
DR-07_080910
390
0
 62
     7
100
AcDbLine
 10
15.608005
 20
-70.65064
 30
0.0
 11
15.608005
 21
-77.650385
 31
0.0
  0
LINE
  5
FD
100
AcDbEntity
  8
DR-07_080910
390
0
 62
     7
100
AcDbLine
 10
40.108146
 20
-70.65064
 30
0.0
 11
40.108146
 21
-77.650385
 31
0.0
  0
SPLINE
  5
FC
100
AcDbEntity
  8
DR-07_080910
390
0
 62
     7
100
AcDbSpline
210
0.0
220
0.0
230
1.0
 70
     8
 71
     3
 72
     8
 73
     4
 74
     0
 42
0.00000001
 43
0.00000001
 40
0.0
 40
0.0
 40
0.0
 40
0.0
 40
1.0
 40
1.0
 40
1.0
 40
1.0
 10
49.1067355685763829
 20
-78.1506130642360972
 30
0.0
 10
50.4875298394097172
 20
-78.1506130642360972
 30
0.0
 10
51.6071858723958314
 20
-77.0313015407986086
 30
0.0
 10
51.6071858723958314
 20
-75.6505072699652743
 30
0.0
  0
LINE
  5
FB
100
AcDbEntity
  8
DR-07_080910
390
0
 62
     7
100
AcDbLine
 10
51.607186
 20
-75.650507
 30
0.0
 11
51.607186
 21
-30.250522
 31
0.0
  0
SPLINE
  5
FA
100
AcDbEntity
  8
DR-07_080910
390
0
 62
     7
100
AcDbSpline
210
0.0
220
0.0
230
1.0
 70
     8
 71
     3
 72
    11
 73
     7
 74
     0
 42
0.00000001
 43
0.00000001
 40
0.0
 40
0.0
 40
0.0
 40
0.0
 40
1.0
 40
1.0
 40
1.0
 40
2.0
 40
2.0
 40
2.0
 40
2.0
 10
51.6071858723958314
 20
-30.2505221896701357
 30
0.0
 10
51.6071858723958314
 20
-29.5873413085937464
 30
0.0
 10
51.3436360677083314
 20
-28.9515489366319407
 30
0.0
 10
50.8747585720486057
 20
-28.4826714409722186
 30
0.0
 10
50.4058810763888872
 20
-28.0137939453124964
 30
0.0
 10
49.7702609592013872
 20
-27.7504163953993022
 30
0.0
 10
49.1067355685763829
 20
-27.7504163953993022
 30
0.0
  0
LINE
  5
F9
100
AcDbEntity
  8
DR-07_080910
390
0
 62
     7
100
AcDbLine
 10
49.106736
 20
-27.750416
 30
0.0
 11
6.607349
 21
-27.750416
 31
0.0
  0
SPLINE
  5
F8
100
AcDbEntity
  8
DR-07_080910
390
0
 62
     7
100
AcDbSpline
210
0.0
220
0.0
230
1.0
 70
     8
 71
     3
 72
    11
 73
     7
 74
     0
 42
0.00000001
 43
0.00000001
 40
0.0
 40
0.0
 40
0.0
 40
0.0
 40
1.0
 40
1.0
 40
1.0
 40
2.0
 40
2.0
 40
2.0
 40
2.0
 10
6.6073486328124993
 20
-27.7504163953993022
 30
0.0
 10
5.9441677517361109
 20
-27.7504163953993022
 30
0.0
 10
5.3082031249999995
 20
-28.0137939453124964
 30
0.0
 10
4.8393256293402773
 20
-28.4826714409722186
 30
0.0
 10
4.3704481336805552
 20
-28.9515489366319407
 30
0.0
 10
4.1068983289930552
 20
-29.5873413085937464
 30
0.0
 10
4.1068983289930552
 20
-30.2505221896701357
 30
0.0
  0
LINE
  5
F7
100
AcDbEntity
  8
DR-07_080910
390
0
 62
     7
100
AcDbLine
 10
4.106898
 20
-30.250522
 30
0.0
 11
4.106898
 21
-75.650507
 31
0.0
  0
SPLINE
  5
F6
100
AcDbEntity
  8
DR-07_080910
390
0
 62
     7
100
AcDbSpline
210
0.0
220
0.0
230
1.0
 70
     8
 71
     3
 72
     8
 73
     4
 74
     0
 42
0.00000001
 43
0.00000001
 40
0.0
 40
0.0
 40
0.0
 40
0.0
 40
1.0
 40
1.0
 40
1.0
 40
1.0
 10
4.1068983289930552
 20
-75.6505072699652743
 30
0.0
 10
4.1068983289930552
 20
-77.0313015407986086
 30
0.0
 10
5.2262098524305554
 20
-78.1506130642360972
 30
0.0
 10
6.6073486328124993
 20
-78.1506130642360972
 30
0.0
  0
LINE
  5
F5
100
AcDbEntity
  8
DR-07_080910
390
0
 62
     7
100
AcDbLine
 10
6.607349
 20
-78.150613
 30
0.0
 11
49.106736
 21
-78.150613
 31
0.0
  0
LINE
  5
F4
100
AcDbEntity
  8
DR-07_080910
390
0
 62
     7
100
AcDbLine
 10
4.607126
 20
-70.150757
 30
0.0
 11
51.107303
 21
-70.150757
 31
0.0
  0
LINE
  5
F3
100
AcDbEntity
  8
DR-07_080910
390
0
 62
     7
100
AcDbLine
 10
51.107303
 20
-75.650507
 30
0.0
 11
51.107303
 21
-70.65064
 31
0.0
  0
LINE
  5
F2
100
AcDbEntity
  8
DR-07_080910
390
0
 62
     7
100
AcDbLine
 10
51.107303
 20
-70.150757
 30
0.0
 11
51.107303
 21
-30.250522
 31
0.0
  0
LINE
  5
F1
100
AcDbEntity
  8
DR-07_080910
390
0
 62
     7
100
AcDbLine
 10
4.607126
 20
-30.250522
 30
0.0
 11
4.607126
 21
-70.150757
 31
0.0
  0
LINE
  5
F0
100
AcDbEntity
  8
DR-07_080910
390
0
 62
     7
100
AcDbLine
 10
4.607126
 20
-70.65064
 30
0.0
 11
4.607126
 21
-75.650507
 31
0.0
  0
LINE
  5
EF
100
AcDbEntity
  8
DR-07_080910
390
0
 62
     7
100
AcDbLine
 10
4.607126
 20
-70.65064
 30
0.0
 11
15.608005
 21
-70.65064
 31
0.0
  0
LINE
  5
EE
100
AcDbEntity
  8
DR-07_080910
390
0
 62
     7
100
AcDbLine
 10
6.607349
 20
-77.650385
 30
0.0
 11
15.608005
 21
-77.650385
 31
0.0
  0
LINE
  5
ED
100
AcDbEntity
  8
DR-07_080910
390
0
 62
     7
100
AcDbLine
 10
16.108233
 20
-70.65064
 30
0.0
 11
27.607962
 21
-70.65064
 31
0.0
  0
LINE
  5
EC
100
AcDbEntity
  8
DR-07_080910
390
0
 62
     7
100
AcDbLine
 10
16.108233
 20
-77.650385
 30
0.0
 11
27.607962
 21
-77.650385
 31
0.0
  0
LINE
  5
EB
100
AcDbEntity
  8
DR-07_080910
390
0
 62
     7
100
AcDbLine
 10
28.107845
 20
-70.65064
 30
0.0
 11
39.607918
 21
-70.65064
 31
0.0
  0
LINE
  5
EA
100
AcDbEntity
  8
DR-07_080910
390
0
 62
     7
100
AcDbLine
 10
40.108146
 20
-70.65064
 30
0.0
 11
51.107303
 21
-70.65064
 31
0.0
  0
LINE
  5
E9
100
AcDbEntity
  8
DR-07_080910
390
0
 62
     7
100
AcDbLine
 10
28.107845
 20
-77.650385
 30
0.0
 11
39.607918
 21
-77.650385
 31
0.0
  0
LINE
  5
E8
100
AcDbEntity
  8
DR-07_080910
390
0
 62
     7
100
AcDbLine
 10
40.108146
 20
-77.650385
 30
0.0
 11
49.106736
 21
-77.650385
 31
0.0
  0
SPLINE
  5
E7
100
AcDbEntity
  8
DR-07_080910
390
0
 62
     7
100
AcDbSpline
210
0.0
220
0.0
230
1.0
 70
     8
 71
     3
 72
    11
 73
     7
 74
     0
 42
0.00000001
 43
0.00000001
 40
0.0
 40
0.0
 40
0.0
 40
0.0
 40
1.0
 40
1.0
 40
1.0
 40
2.0
 40
2.0
 40
2.0
 40
2.0
 10
50.9071424696180515
 20
-30.2505221896701357
 30
0.0
 10
50.9071424696180515
 20
-29.7732042100694407
 30
0.0
 10
50.7176622178819372
 20
-29.3151787651909679
 30
0.0
 10
50.3800428602430515
 20
-28.9777316623263879
 30
0.0
 10
50.0424235026041586
 20
-28.6401123046874986
 30
0.0
 10
49.5845703124999986
 20
-28.4502875434027764
 30
0.0
 10
49.1067355685763829
 20
-28.4502875434027764
 30
0.0
  0
LINE
  5
E6
100
AcDbEntity
  8
DR-07_080910
390
0
 62
     7
100
AcDbLine
 10
49.106736
 20
-28.450632
 30
0.0
 11
6.607349
 21
-28.450632
 31
0.0
  0
SPLINE
  5
E5
100
AcDbEntity
  8
DR-07_080910
390
0
 62
     7
100
AcDbSpline
210
0.0
220
0.0
230
1.0
 70
     8
 71
     3
 72
    11
 73
     7
 74
     0
 42
0.00000001
 43
0.00000001
 40
0.0
 40
0.0
 40
0.0
 40
0.0
 40
1.0
 40
1.0
 40
1.0
 40
2.0
 40
2.0
 40
2.0
 40
2.0
 10
6.6073486328124993
 20
-28.4506320529513879
 30
0.0
 10
6.1298583984374995
 20
-28.4506320529513879
 30
0.0
 10
5.6720052083333332
 20
-28.6401123046874986
 30
0.0
 10
5.3343858506944439
 20
-28.9777316623263879
 30
0.0
 10
4.9967664930555555
 20
-29.3151787651909679
 30
0.0
 10
4.8072862413194439
 20
-29.7732042100694407
 30
0.0
 10
4.8072862413194439
 20
-30.2505221896701357
 30
0.0
  0
LINE
  5
E4
100
AcDbEntity
  8
DR-07_080910
390
0
 62
     7
100
AcDbLine
 10
50.907142
 20
-70.150757
 30
0.0
 11
50.907142
 21
-30.250522
 31
0.0
  0
LINE
  5
E3
100
AcDbEntity
  8
DR-07_080910
390
0
 62
     7
100
AcDbLine
 10
4.806942
 20
-30.250522
 30
0.0
 11
4.806942
 21
-70.150757
 31
0.0
  0
SPLINE
  5
E2
100
AcDbEntity
  8
DR-07_080910
390
0
 62
     7
100
AcDbSpline
210
0.0
220
0.0
230
1.0
 70
     8
 71
     3
 72
     8
 73
     4
 74
     0
 42
0.00000001
 43
0.00000001
 40
0.0
 40
0.0
 40
0.0
 40
0.0
 40
1.0
 40
1.0
 40
1.0
 40
1.0
 10
49.1067355685763829
 20
-77.4505696614583314
 30
0.0
 10
50.1013346354166629
 20
-77.4505696614583314
 30
0.0
 10
50.9071424696180515
 20
-76.6444173177083314
 30
0.0
 10
50.9071424696180515
 20
-75.6505072699652743
 30
0.0
  0
LINE
  5
E1
100
AcDbEntity
  8
DR-07_080910
390
0
 62
     7
100
AcDbLine
 10
50.907142
 20
-70.65064
 30
0.0
 11
50.907142
 21
-75.650507
 31
0.0
  0
LINE
  5
E0
100
AcDbEntity
  8
DR-07_080910
390
0
 62
     7
100
AcDbLine
 10
49.106736
 20
-77.45057
 30
0.0
 11
40.108146
 21
-77.45057
 31
0.0
  0
LINE
  5
DF
100
AcDbEntity
  8
DR-07_080910
390
0
 62
     7
100
AcDbLine
 10
28.107845
 20
-77.45057
 30
0.0
 11
39.607918
 21
-77.45057
 31
0.0
  0
LINE
  5
DE
100
AcDbEntity
  8
DR-07_080910
390
0
 62
     7
100
AcDbLine
 10
4.809009
 20
-70.65064
 30
0.0
 11
4.809009
 21
-75.650507
 31
0.0
  0
SPLINE
  5
DD
100
AcDbEntity
  8
DR-07_080910
390
0
 62
     7
100
AcDbSpline
210
0.0
220
0.0
230
1.0
 70
     8
 71
     3
 72
     8
 73
     4
 74
     0
 42
0.00000001
 43
0.00000001
 40
0.0
 40
0.0
 40
0.0
 40
0.0
 40
1.0
 40
1.0
 40
1.0
 40
1.0
 10
4.8090087890624993
 20
-75.6505072699652743
 30
0.0
 10
4.8090087890624993
 20
-76.6444173177083314
 30
0.0
 10
5.6151611328124993
 20
-77.4505696614583314
 30
0.0
 10
6.6090711805555546
 20
-77.4505696614583314
 30
0.0
  0
LINE
  5
DC
100
AcDbEntity
  8
DR-07_080910
390
0
 62
     7
100
AcDbLine
 10
6.609071
 20
-77.45057
 30
0.0
 11
15.60835
 21
-77.45057
 31
0.0
  0
LINE
  5
DB
100
AcDbEntity
  8
DR-07_080910
390
0
 62
     7
100
AcDbLine
 10
27.608306
 20
-77.45057
 30
0.0
 11
16.108233
 21
-77.45057
 31
0.0
  0
SPLINE
  5
DA
100
AcDbEntity
  8
DR-07_080910
390
0
 62
     7
100
AcDbSpline
210
0.0
220
0.0
230
1.0
 70
     8
 71
     3
 72
     8
 73
     4
 74
     0
 42
0.00000001
 43
0.00000001
 40
0.0
 40
0.0
 40
0.0
 40
0.0
 40
1.0
 40
1.0
 40
1.0
 40
1.0
 10
55.92320149739583
 20
-101.2565239800347143
 30
0.0
 10
55.8925401475694414
 20
-101.50353732638888
 30
0.0
 10
55.8729031032986043
 20
-101.75158420138888
 30
0.0
 10
55.86532389322916
 20
-102.0003200954861029
 30
0.0
  0
SPLINE
  5
D9
100
AcDbEntity
  8
DR-07_080910
390
0
 62
     7
100
AcDbSpline
210
0.0
220
0.0
230
1.0
 70
     8
 71
     3
 72
     8
 73
     4
 74
     0
 42
0.00000001
 43
0.00000001
 40
0.0
 40
0.0
 40
0.0
 40
0.0
 40
1.0
 40
1.0
 40
1.0
 40
1.0
 10
55.86532389322916
 20
-102.4998589409722172
 30
0.0
 10
55.8729031032986043
 20
-102.74859483506944
 30
0.0
 10
55.8925401475694414
 20
-102.9973307291666629
 30
0.0
 10
55.92320149739583
 20
-103.2439995659722172
 30
0.0
  0
SPLINE
  5
D8
100
AcDbEntity
  8
DR-07_080910
390
0
 62
     7
100
AcDbSpline
210
0.0
220
0.0
230
1.0
 70
     8
 71
     3
 72
     8
 73
     4
 74
     0
 42
0.00000001
 43
0.00000001
 40
0.0
 40
0.0
 40
0.0
 40
0.0
 40
1.0
 40
1.0
 40
1.0
 40
1.0
 10
55.8815158420138829
 20
-111.0771131727430401
 30
0.0
 10
56.2346381293402757
 20
-108.4791666666666572
 30
0.0
 10
56.24876302083333
 20
-105.8457356770833258
 30
0.0
 10
55.92320149739583
 20
-103.2439995659722172
 30
0.0
  0
SPLINE
  5
D7
100
AcDbEntity
  8
DR-07_080910
390
0
 62
     7
100
AcDbSpline
210
0.0
220
0.0
230
1.0
 70
     8
 71
     3
 72
     8
 73
     4
 74
     0
 42
0.00000001
 43
0.00000001
 40
0.0
 40
0.0
 40
0.0
 40
0.0
 40
1.0
 40
1.0
 40
1.0
 40
1.0
 10
55.6834228515624972
 20
-111.2504014756944315
 30
0.0
 10
55.7833306206597186
 20
-111.2504014756944315
 30
0.0
 10
55.8680799696180515
 20
-111.1763319227430458
 30
0.0
 10
55.8815158420138829
 20
-111.0771131727430401
 30
0.0
  0
SPLINE
  5
D6
100
AcDbEntity
  8
DR-07_080910
390
0
 62
     7
100
AcDbSpline
210
0.0
220
0.0
230
1.0
 70
     8
 71
     3
 72
     8
 73
     4
 74
     0
 42
0.00000001
 43
0.00000001
 40
0.0
 40
0.0
 40
0.0
 40
0.0
 40
1.0
 40
1.0
 40
1.0
 40
1.0
 10
55.92320149739583
 20
-101.2565239800347143
 30
0.0
 10
56.24876302083333
 20
-98.6547878689236057
 30
0.0
 10
56.2346381293402757
 20
-96.0217013888888857
 30
0.0
 10
55.8815158420138829
 20
-93.4230658637152658
 30
0.0
  0
SPLINE
  5
D5
100
AcDbEntity
  8
DR-07_080910
390
0
 62
     7
100
AcDbSpline
210
0.0
220
0.0
230
1.0
 70
     8
 71
     3
 72
     8
 73
     4
 74
     0
 42
0.00000001
 43
0.00000001
 40
0.0
 40
0.0
 40
0.0
 40
0.0
 40
1.0
 40
1.0
 40
1.0
 40
1.0
 10
55.8815158420138829
 20
-93.4230658637152658
 30
0.0
 10
55.8673909505208286
 20
-93.3241916232638857
 30
0.0
 10
55.7833306206597186
 20
-93.2504665798610972
 30
0.0
 10
55.6830783420138857
 20
-93.2504665798610972
 30
0.0
  0
LINE
  5
D4
100
AcDbEntity
  8
DR-07_080910
390
0
 62
     7
100
AcDbLine
 10
55.683078
 20
-93.250467
 30
0.0
 11
55.357172
 21
-93.250467
 31
0.0
  0
LINE
  5
D3
100
AcDbEntity
  8
DR-07_080910
390
0
 62
     7
100
AcDbLine
 10
55.865324
 20
-102.00032
 30
0.0
 11
55.357172
 21
-102.00032
 31
0.0
  0
LINE
  5
D2
100
AcDbEntity
  8
DR-07_080910
390
0
 62
     7
100
AcDbLine
 10
55.865324
 20
-102.499859
 30
0.0
 11
55.357172
 21
-102.499859
 31
0.0
  0
LINE
  5
D1
100
AcDbEntity
  8
DR-07_080910
390
0
 62
     7
100
AcDbLine
 10
55.683423
 20
-111.250401
 30
0.0
 11
55.357172
 21
-111.250401
 31
0.0
  0
LINE
  5
D0
100
AcDbEntity
  8
DR-07_080910
390
0
 62
     7
100
AcDbLine
 10
55.857056
 20
-116.650244
 30
0.0
 11
55.357172
 21
-116.650244
 31
0.0
  0
LINE
  5
CF
100
AcDbEntity
  8
DR-07_080910
390
0
 62
     7
100
AcDbLine
 10
55.857056
 20
-121.649767
 30
0.0
 11
55.357172
 21
-121.649767
 31
0.0
  0
LINE
  5
CE
100
AcDbEntity
  8
DR-07_080910
390
0
 62
     7
100
AcDbLine
 10
55.857056
 20
-116.650244
 30
0.0
 11
55.857056
 21
-121.649767
 31
0.0
  0
LINE
  5
CD
100
AcDbEntity
  8
DR-07_080910
390
0
 62
     7
100
AcDbLine
 10
55.857056
 20
-22.649953
 30
0.0
 11
55.357172
 21
-22.649953
 31
0.0
  0
LINE
  5
CC
100
AcDbEntity
  8
DR-07_080910
390
0
 62
     7
100
AcDbLine
 10
55.857056
 20
-22.649953
 30
0.0
 11
55.857056
 21
-27.64982
 31
0.0
  0
LINE
  5
CB
100
AcDbEntity
  8
DR-07_080910
390
0
 62
     7
100
AcDbLine
 10
55.857056
 20
-27.64982
 30
0.0
 11
55.357172
 21
-27.64982
 31
0.0
  0
LINE
  5
CA
100
AcDbEntity
  8
DR-07_080910
390
0
 62
     7
100
AcDbLine
 10
30.357837
 20
-0.150378
 30
0.0
 11
30.357837
 21
0.349849
 31
0.0
  0
LINE
  5
C9
100
AcDbEntity
  8
DR-07_080910
390
0
 62
     7
100
AcDbLine
 10
25.35797
 20
-0.150378
 30
0.0
 11
25.35797
 21
0.349849
 31
0.0
  0
LINE
  5
C8
100
AcDbEntity
  8
DR-07_080910
390
0
 62
     7
100
AcDbLine
 10
25.35797
 20
0.349849
 30
0.0
 11
30.357837
 21
0.349849
 31
0.0
  0
LINE
  5
C7
100
AcDbEntity
  8
DR-07_080910
390
0
 62
     7
100
AcDbLine
 10
27.356814
 20
-102.549468
 30
0.0
 11
27.356814
 21
-100.049018
 31
0.0
  0
SPLINE
  5
C6
100
AcDbEntity
  8
DR-07_080910
390
0
 62
     7
100
AcDbSpline
210
0.0
220
0.0
230
1.0
 70
     8
 71
     3
 72
    14
 73
    10
 74
     0
 42
0.00000001
 43
0.00000001
 40
0.0
 40
0.0
 40
0.0
 40
0.0
 40
1.0
 40
1.0
 40
1.0
 40
2.0
 40
2.0
 40
2.0
 40
3.0
 40
3.0
 40
3.0
 40
3.0
 10
28.3565809461805536
 20
-100.0490180121527715
 30
0.0
 10
28.3565809461805536
 20
-99.8705620659722086
 30
0.0
 10
28.2611518012152736
 20
-99.7055419921874915
 30
0.0
 10
28.106467013888885
 20
-99.6163140190972172
 30
0.0
 10
27.9519544813368022
 20
-99.5270860460069287
 30
0.0
 10
27.7612684461805515
 20
-99.5270860460069287
 30
0.0
 10
27.6065836588541629
 20
-99.6163140190972172
 30
0.0
 10
27.4518988715277743
 20
-99.7055419921874915
 30
0.0
 10
27.3568142361111093
 20
-99.8705620659722086
 30
0.0
 10
27.3568142361111093
 20
-100.0490180121527715
 30
0.0
  0
LINE
  5
C5
100
AcDbEntity
  8
DR-07_080910
390
0
 62
     7
100
AcDbLine
 10
28.356581
 20
-100.049018
 30
0.0
 11
28.356581
 21
-102.549468
 31
0.0
  0
SPLINE
  5
C4
100
AcDbEntity
  8
DR-07_080910
390
0
 62
     7
100
AcDbSpline
210
0.0
220
0.0
230
1.0
 70
     8
 71
     3
 72
    11
 73
     7
 74
     0
 42
0.00000001
 43
0.00000001
 40
0.0
 40
0.0
 40
0.0
 40
0.0
 40
1.0
 40
1.0
 40
1.0
 40
2.0
 40
2.0
 40
2.0
 40
2.0
 10
27.3568142361111093
 20
-102.5494683159722058
 30
0.0
 10
27.3568142361111093
 20
-102.8257649739583286
 30
0.0
 10
27.5804009331597193
 20
-103.0490071614583201
 30
0.0
 10
27.8566975911458314
 20
-103.0490071614583201
 30
0.0
 10
28.1329942491319436
 20
-103.0490071614583201
 30
0.0
 10
28.3565809461805536
 20
-102.8257649739583286
 30
0.0
 10
28.3565809461805536
 20
-102.5494683159722058
 30
0.0
  0
SPLINE
  5
C3
100
AcDbEntity
  8
DR-07_080910
390
0
 62
     7
100
AcDbSpline
210
0.0
220
0.0
230
1.0
 70
     8
 71
     3
 72
    17
 73
    13
 74
     0
 42
0.00000001
 43
0.00000001
 40
0.0
 40
0.0
 40
0.0
 40
0.0
 40
1.0
 40
1.0
 40
1.0
 40
2.0
 40
2.0
 40
2.0
 40
3.0
 40
3.0
 40
3.0
 40
4.0
 40
4.0
 40
4.0
 40
4.0
 10
41.3566487630208286
 20
-111.6493435329860944
 30
0.0
 10
41.3566487630208286
 20
-104.1934678819444287
 30
0.0
 10
35.3125732421874972
 20
-98.1493923611110972
 30
0.0
 10
27.8566975911458314
 20
-98.1493923611110972
 30
0.0
 10
20.4008219401041657
 20
-98.1493923611110972
 30
0.0
 10
14.3565741644965268
 20
-104.1934678819444287
 30
0.0
 10
14.3565741644965268
 20
-111.6493435329860944
 30
0.0
 10
14.3565741644965268
 20
-119.1052191840277601
 30
0.0
 10
20.4008219401041657
 20
-125.1492947048611057
 30
0.0
 10
27.8566975911458314
 20
-125.1492947048611057
 30
0.0
 10
35.3125732421874972
 20
-125.1492947048611057
 30
0.0
 10
41.3566487630208286
 20
-119.1052191840277601
 30
0.0
 10
41.3566487630208286
 20
-111.6493435329860944
 30
0.0
  0
SPLINE
  5
C2
100
AcDbEntity
  8
DR-07_080910
390
0
 62
     7
100
AcDbSpline
210
0.0
220
0.0
230
1.0
 70
     8
 71
     3
 72
    17
 73
    13
 74
     0
 42
0.00000001
 43
0.00000001
 40
0.0
 40
0.0
 40
0.0
 40
0.0
 40
1.0
 40
1.0
 40
1.0
 40
2.0
 40
2.0
 40
2.0
 40
3.0
 40
3.0
 40
3.0
 40
4.0
 40
4.0
 40
4.0
 40
4.0
 10
33.8566758897569429
 20
-111.6493435329860944
 30
0.0
 10
33.8566758897569429
 20
-108.3355061848958201
 30
0.0
 10
31.1701904296874979
 20
-105.6493652343749972
 30
0.0
 10
27.8566975911458314
 20
-105.6493652343749972
 30
0.0
 10
24.5430324978298593
 20
-105.6493652343749972
 30
0.0
 10
21.85671929253472
 20
-108.3355061848958201
 30
0.0
 10
21.85671929253472
 20
-111.6493435329860944
 30
0.0
 10
21.85671929253472
 20
-114.9628363715277715
 30
0.0
 10
24.5430324978298593
 20
-117.6493218315972058
 30
0.0
 10
27.8566975911458314
 20
-117.6493218315972058
 30
0.0
 10
31.1701904296874979
 20
-117.6493218315972058
 30
0.0
 10
33.8566758897569429
 20
-114.9628363715277715
 30
0.0
 10
33.8566758897569429
 20
-111.6493435329860944
 30
0.0
  0
SPLINE
  5
C1
100
AcDbEntity
  8
DR-07_080910
390
0
 62
     7
100
AcDbSpline
210
0.0
220
0.0
230
1.0
 70
     8
 71
     3
 72
    17
 73
    13
 74
     0
 42
0.00000001
 43
0.00000001
 40
0.0
 40
0.0
 40
0.0
 40
0.0
 40
1.0
 40
1.0
 40
1.0
 40
2.0
 40
2.0
 40
2.0
 40
3.0
 40
3.0
 40
3.0
 40
4.0
 40
4.0
 40
4.0
 40
4.0
 10
33.53938259548611
 20
-111.6493435329860944
 30
0.0
 10
33.53938259548611
 20
-108.5105170355902686
 30
0.0
 10
30.9951795789930529
 20
-105.9663140190972115
 30
0.0
 10
27.8566975911458314
 20
-105.9663140190972115
 30
0.0
 10
24.7178710937499986
 20
-105.9663140190972115
 30
0.0
 10
22.1736680772569414
 20
-108.5105170355902686
 30
0.0
 10
22.1736680772569414
 20
-111.6493435329860944
 30
0.0
 10
22.1736680772569414
 20
-114.7878255208333229
 30
0.0
 10
24.7178710937499986
 20
-117.3323730468749915
 30
0.0
 10
27.8566975911458314
 20
-117.3323730468749915
 30
0.0
 10
30.9951795789930529
 20
-117.3323730468749915
 30
0.0
 10
33.53938259548611
 20
-114.7878255208333229
 30
0.0
 10
33.53938259548611
 20
-111.6493435329860944
 30
0.0
  0
SPLINE
  5
C0
100
AcDbEntity
  8
DR-07_080910
390
0
 62
     7
100
AcDbSpline
210
0.0
220
0.0
230
1.0
 70
     8
 71
     3
 72
    17
 73
    13
 74
     0
 42
0.00000001
 43
0.00000001
 40
0.0
 40
0.0
 40
0.0
 40
0.0
 40
1.0
 40
1.0
 40
1.0
 40
2.0
 40
2.0
 40
2.0
 40
3.0
 40
3.0
 40
3.0
 40
4.0
 40
4.0
 40
4.0
 40
4.0
 10
34.1563991970486072
 20
-111.6493435329860944
 30
0.0
 10
34.1563991970486072
 20
-108.16979709201388
 30
0.0
 10
31.3362440321180529
 20
-105.3492974175347143
 30
0.0
 10
27.8566975911458314
 20
-105.3492974175347143
 30
0.0
 10
24.3774956597222214
 20
-105.3492974175347143
 30
0.0
 10
21.5566514756944407
 20
-108.16979709201388
 30
0.0
 10
21.5566514756944407
 20
-111.6493435329860944
 30
0.0
 10
21.5566514756944407
 20
-115.1288899739583229
 30
0.0
 10
24.3774956597222214
 20
-117.9493896484374886
 30
0.0
 10
27.8566975911458314
 20
-117.9493896484374886
 30
0.0
 10
31.3362440321180529
 20
-117.9493896484374886
 30
0.0
 10
34.1563991970486072
 20
-115.1288899739583229
 30
0.0
 10
34.1563991970486072
 20
-111.6493435329860944
 30
0.0
  0
SPLINE
  5
BF
100
AcDbEntity
  8
DR-07_080910
390
0
 62
     7
100
AcDbSpline
210
0.0
220
0.0
230
1.0
 70
     8
 71
     3
 72
    17
 73
    13
 74
     0
 42
0.00000001
 43
0.00000001
 40
0.0
 40
0.0
 40
0.0
 40
0.0
 40
1.0
 40
1.0
 40
1.0
 40
2.0
 40
2.0
 40
2.0
 40
3.0
 40
3.0
 40
3.0
 40
4.0
 40
4.0
 40
4.0
 40
4.0
 10
34.4368299696180529
 20
-111.6493435329860944
 30
0.0
 10
34.4368299696180529
 20
-108.0154568142361029
 30
0.0
 10
31.4909288194444414
 20
-105.0685221354166572
 30
0.0
 10
27.8566975911458314
 20
-105.0685221354166572
 30
0.0
 10
24.2224663628472214
 20
-105.0685221354166572
 30
0.0
 10
21.27656521267361
 20
-108.0154568142361029
 30
0.0
 10
21.27656521267361
 20
-111.6493435329860944
 30
0.0
 10
21.27656521267361
 20
-115.2832302517361001
 30
0.0
 10
24.2224663628472214
 20
-118.2294759114583229
 30
0.0
 10
27.8566975911458314
 20
-118.2294759114583229
 30
0.0
 10
31.4909288194444414
 20
-118.2294759114583229
 30
0.0
 10
34.4368299696180529
 20
-115.2832302517361001
 30
0.0
 10
34.4368299696180529
 20
-111.6493435329860944
 30
0.0
  0
LINE
  5
BE
100
AcDbEntity
  8
DR-07_080910
390
0
 62
     7
100
AcDbLine
 10
21.068137
 20
-105.569439
 30
0.0
 11
19.300458
 21
-103.801416
 31
0.0
  0
SPLINE
  5
BD
100
AcDbEntity
  8
DR-07_080910
390
0
 62
     7
100
AcDbSpline
210
0.0
220
0.0
230
1.0
 70
     8
 71
     3
 72
    14
 73
    10
 74
     0
 42
0.00000001
 43
0.00000001
 40
0.0
 40
0.0
 40
0.0
 40
0.0
 40
1.0
 40
1.0
 40
1.0
 40
2.0
 40
2.0
 40
2.0
 40
3.0
 40
3.0
 40
3.0
 40
3.0
 10
20.007392035590275
 20
-103.0944824218749858
 30
0.0
 10
19.88130154079861
 20
-102.9680474175347058
 30
0.0
 10
19.6969889322916636
 20
-102.9187825520833286
 30
0.0
 10
19.5243896484374986
 20
-102.9649468315972172
 30
0.0
 10
19.3521348741319414
 20
-103.0114556206597172
 30
0.0
 10
19.2170871310763864
 20
-103.1461588541666572
 30
0.0
 10
19.1709228515624979
 20
-103.3187581380208258
 30
0.0
 10
19.1247585720486093
 20
-103.4913574218749943
 30
0.0
 10
19.1740234374999972
 20
-103.6753255208333258
 30
0.0
 10
19.3008029513888886
 20
-103.8014160156249943
 30
0.0
  0
LINE
  5
BC
100
AcDbEntity
  8
DR-07_080910
390
0
 62
     7
100
AcDbLine
 10
20.007392
 20
-103.094482
 30
0.0
 11
21.775415
 21
-104.862161
 31
0.0
  0
SPLINE
  5
BB
100
AcDbEntity
  8
DR-07_080910
390
0
 62
     7
100
AcDbSpline
210
0.0
220
0.0
230
1.0
 70
     8
 71
     3
 72
    11
 73
     7
 74
     0
 42
0.00000001
 43
0.00000001
 40
0.0
 40
0.0
 40
0.0
 40
0.0
 40
1.0
 40
1.0
 40
1.0
 40
2.0
 40
2.0
 40
2.0
 40
2.0
 10
21.0681369357638886
 20
-105.5694390190972172
 30
0.0
 10
21.2634738498263864
 20
-105.7644314236111001
 30
0.0
 10
21.5800781249999964
 20
-105.7644314236111001
 30
0.0
 10
21.7754150390624979
 20
-105.5690945095486057
 30
0.0
 10
21.9705796983506936
 20
-105.3737575954860972
 30
0.0
 10
21.9705796983506936
 20
-105.0574978298611057
 30
0.0
 10
21.7754150390624979
 20
-104.8621609157985972
 30
0.0
  0
LINE
  5
BA
100
AcDbEntity
  8
DR-07_080910
390
0
 62
     7
100
AcDbLine
 10
18.757167
 20
-112.150949
 30
0.0
 11
16.257061
 21
-112.150949
 31
0.0
  0
SPLINE
  5
B9
100
AcDbEntity
  8
DR-07_080910
390
0
 62
     7
100
AcDbSpline
210
0.0
220
0.0
230
1.0
 70
     8
 71
     3
 72
    11
 73
     7
 74
     0
 42
0.00000001
 43
0.00000001
 40
0.0
 40
0.0
 40
0.0
 40
0.0
 40
1.0
 40
1.0
 40
1.0
 40
2.0
 40
2.0
 40
2.0
 40
2.0
 10
16.2570610894097207
 20
-111.15118272569444
 30
0.0
 10
15.9807644314236104
 20
-111.15118272569444
 30
0.0
 10
15.7571777343749986
 20
-111.3751139322916544
 30
0.0
 10
15.7571777343749986
 20
-111.6514105902777629
 30
0.0
 10
15.7571777343749986
 20
-111.9277072482638857
 30
0.0
 10
15.9807644314236104
 20
-112.1509494357638772
 30
0.0
 10
16.2570610894097207
 20
-112.1509494357638772
 30
0.0
  0
LINE
  5
B8
100
AcDbEntity
  8
DR-07_080910
390
0
 62
     7
100
AcDbLine
 10
16.257061
 20
-111.151183
 30
0.0
 11
18.757167
 21
-111.151183
 31
0.0
  0
SPLINE
  5
B7
100
AcDbEntity
  8
DR-07_080910
390
0
 62
     7
100
AcDbSpline
210
0.0
220
0.0
230
1.0
 70
     8
 71
     3
 72
    14
 73
    10
 74
     0
 42
0.00000001
 43
0.00000001
 40
0.0
 40
0.0
 40
0.0
 40
0.0
 40
1.0
 40
1.0
 40
1.0
 40
2.0
 40
2.0
 40
2.0
 40
3.0
 40
3.0
 40
3.0
 40
3.0
 10
18.7571668836805543
 20
-112.1509494357638772
 30
0.0
 10
18.93562282986111
 20
-112.1509494357638772
 30
0.0
 10
19.1009874131944422
 20
-112.0558648003472086
 30
0.0
 10
19.19021538628472
 20
-111.9015245225694315
 30
0.0
 10
19.2792711046006922
 20
-111.7464952256944315
 30
0.0
 10
19.2792711046006922
 20
-111.5563259548610944
 30
0.0
 10
19.19021538628472
 20
-111.4012966579860944
 30
0.0
 10
19.1009874131944422
 20
-111.2466118706597058
 30
0.0
 10
18.93562282986111
 20
-111.15118272569444
 30
0.0
 10
18.7571668836805543
 20
-111.15118272569444
 30
0.0
  0
LINE
  5
B6
100
AcDbEntity
  8
DR-07_080910
390
0
 62
     7
100
AcDbLine
 10
21.776965
 20
-118.439627
 30
0.0
 11
20.009459
 21
-120.20765
 31
0.0
  0
SPLINE
  5
B5
100
AcDbEntity
  8
DR-07_080910
390
0
 62
     7
100
AcDbSpline
210
0.0
220
0.0
230
1.0
 70
     8
 71
     3
 72
    14
 73
    10
 74
     0
 42
0.00000001
 43
0.00000001
 40
0.0
 40
0.0
 40
0.0
 40
0.0
 40
1.0
 40
1.0
 40
1.0
 40
2.0
 40
2.0
 40
2.0
 40
3.0
 40
3.0
 40
3.0
 40
3.0
 10
19.3021809895833307
 20
-119.5007161458333229
 30
0.0
 10
19.1757459852430543
 20
-119.6268066406249915
 30
0.0
 10
19.1264811197916664
 20
-119.8111192491319343
 30
0.0
 10
19.172645399305555
 20
-119.9837185329861029
 30
0.0
 10
19.219154188368055
 20
-120.15597330729166
 30
0.0
 10
19.3535129123263872
 20
-120.2910210503472115
 30
0.0
 10
19.526801215277775
 20
-120.3371853298611001
 30
0.0
 10
19.6990559895833321
 20
-120.3833496093749886
 30
0.0
 10
19.8830240885416636
 20
-120.3337402343749858
 30
0.0
 10
20.0094590928819436
 20
-120.2076497395833172
 30
0.0
  0
LINE
  5
B4
100
AcDbEntity
  8
DR-07_080910
390
0
 62
     7
100
AcDbLine
 10
19.302181
 20
-119.500716
 30
0.0
 11
21.069859
 21
-117.732693
 31
0.0
  0
SPLINE
  5
B3
100
AcDbEntity
  8
DR-07_080910
390
0
 62
     7
100
AcDbSpline
210
0.0
220
0.0
230
1.0
 70
     8
 71
     3
 72
    11
 73
     7
 74
     0
 42
0.00000001
 43
0.00000001
 40
0.0
 40
0.0
 40
0.0
 40
0.0
 40
1.0
 40
1.0
 40
1.0
 40
2.0
 40
2.0
 40
2.0
 40
2.0
 10
21.7769653320312493
 20
-118.4396267361110944
 30
0.0
 10
21.9721299913194414
 20
-118.2446343315972115
 30
0.0
 10
21.9721299913194414
 20
-117.9276855468749829
 30
0.0
 10
21.7769653320312493
 20
-117.7326931423611001
 30
0.0
 10
21.5818006727430536
 20
-117.5377007378472172
 30
0.0
 10
21.265540907118055
 20
-117.5377007378472172
 30
0.0
 10
21.0698594835069422
 20
-117.7326931423611001
 30
0.0
  0
LINE
  5
B2
100
AcDbEntity
  8
DR-07_080910
390
0
 62
     7
100
AcDbLine
 10
28.358993
 20
-120.750597
 30
0.0
 11
28.358993
 21
-123.251047
 31
0.0
  0
SPLINE
  5
B1
100
AcDbEntity
  8
DR-07_080910
390
0
 62
     7
100
AcDbSpline
210
0.0
220
0.0
230
1.0
 70
     8
 71
     3
 72
    11
 73
     7
 74
     0
 42
0.00000001
 43
0.00000001
 40
0.0
 40
0.0
 40
0.0
 40
0.0
 40
1.0
 40
1.0
 40
1.0
 40
2.0
 40
2.0
 40
2.0
 40
2.0
 10
27.3588812934027743
 20
-123.2510470920138772
 30
0.0
 10
27.3588812934027743
 20
-123.5273437499999858
 30
0.0
 10
27.5831570095486072
 20
-123.7509304470486029
 30
0.0
 10
27.8591091579861079
 20
-123.7509304470486029
 30
0.0
 10
28.13540581597222
 20
-123.7509304470486029
 30
0.0
 10
28.35899251302083
 20
-123.5273437499999858
 30
0.0
 10
28.35899251302083
 20
-123.2510470920138772
 30
0.0
  0
LINE
  5
B0
100
AcDbEntity
  8
DR-07_080910
390
0
 62
     7
100
AcDbLine
 10
27.358881
 20
-123.251047
 30
0.0
 11
27.358881
 21
-120.750597
 31
0.0
  0
SPLINE
  5
AF
100
AcDbEntity
  8
DR-07_080910
390
0
 62
     7
100
AcDbSpline
210
0.0
220
0.0
230
1.0
 70
     8
 71
     3
 72
    14
 73
    10
 74
     0
 42
0.00000001
 43
0.00000001
 40
0.0
 40
0.0
 40
0.0
 40
0.0
 40
1.0
 40
1.0
 40
1.0
 40
2.0
 40
2.0
 40
2.0
 40
3.0
 40
3.0
 40
3.0
 40
3.0
 10
28.35899251302083
 20
-120.7505967881944287
 30
0.0
 10
28.35899251302083
 20
-120.57214084201388
 30
0.0
 10
28.2635633680555536
 20
-120.4074652777777601
 30
0.0
 10
28.108878580729165
 20
-120.3178927951388744
 30
0.0
 10
27.9543660481770821
 20
-120.2290093315972115
 30
0.0
 10
27.7638522677951372
 20
-120.2290093315972115
 30
0.0
 10
27.6089952256944429
 20
-120.3178927951388744
 30
0.0
 10
27.4543104383680543
 20
-120.4074652777777601
 30
0.0
 10
27.3588812934027743
 20
-120.57214084201388
 30
0.0
 10
27.3588812934027743
 20
-120.7505967881944287
 30
0.0
  0
LINE
  5
AE
100
AcDbEntity
  8
DR-07_080910
390
0
 62
     7
100
AcDbLine
 10
34.64767
 20
-117.731315
 30
0.0
 11
36.415693
 21
-119.498649
 31
0.0
  0
SPLINE
  5
AD
100
AcDbEntity
  8
DR-07_080910
390
0
 62
     7
100
AcDbSpline
210
0.0
220
0.0
230
1.0
 70
     8
 71
     3
 72
    14
 73
    10
 74
     0
 42
0.00000001
 43
0.00000001
 40
0.0
 40
0.0
 40
0.0
 40
0.0
 40
1.0
 40
1.0
 40
1.0
 40
2.0
 40
2.0
 40
2.0
 40
3.0
 40
3.0
 40
3.0
 40
3.0
 10
35.7080702039930529
 20
-120.2055826822916487
 30
0.0
 10
35.8345052083333329
 20
-120.3323621961805401
 30
0.0
 10
36.0188178168402757
 20
-120.3812825520833201
 30
0.0
 10
36.1910725911458329
 20
-120.3351182725694315
 30
0.0
 10
36.3640163845486057
 20
-120.2889539930555429
 30
0.0
 10
36.4987196180555529
 20
-120.1542507595486029
 30
0.0
 10
36.5448838975694414
 20
-119.9816514756944343
 30
0.0
 10
36.59104817708333
 20
-119.8087076822916544
 30
0.0
 10
36.5417833116319386
 20
-119.6247395833333229
 30
0.0
 10
36.4156928168402771
 20
-119.4986490885416544
 30
0.0
  0
LINE
  5
AC
100
AcDbEntity
  8
DR-07_080910
390
0
 62
     7
100
AcDbLine
 10
35.70807
 20
-120.205583
 30
0.0
 11
33.940392
 21
-118.438249
 31
0.0
  0
SPLINE
  5
AB
100
AcDbEntity
  8
DR-07_080910
390
0
 62
     7
100
AcDbSpline
210
0.0
220
0.0
230
1.0
 70
     8
 71
     3
 72
    14
 73
    10
 74
     0
 42
0.00000001
 43
0.00000001
 40
0.0
 40
0.0
 40
0.0
 40
0.0
 40
1.0
 40
1.0
 40
1.0
 40
2.0
 40
2.0
 40
2.0
 40
3.0
 40
3.0
 40
3.0
 40
3.0
 10
34.6476698133680543
 20
-117.7313151041666544
 30
0.0
 10
34.5215793185763857
 20
-117.6045355902777629
 30
0.0
 10
34.3372667100694429
 20
-117.5556152343749829
 30
0.0
 10
34.1646674262152743
 20
-117.6017795138888715
 30
0.0
 10
33.9920681423611057
 20
-117.6479437934027601
 30
0.0
 10
33.8570203993055543
 20
-117.7826470269097143
 30
0.0
 10
33.8108561197916657
 20
-117.9552463107638829
 30
0.0
 10
33.7646918402777771
 20
-118.12750108506944
 30
0.0
 10
33.8143012152777729
 20
-118.3118136935763829
 30
0.0
 10
33.9403917100694414
 20
-118.4382486979166629
 30
0.0
  0
LINE
  5
AA
100
AcDbEntity
  8
DR-07_080910
390
0
 62
     7
100
AcDbLine
 10
36.95864
 20
-111.149116
 30
0.0
 11
39.45909
 21
-111.149116
 31
0.0
  0
SPLINE
  5
A9
100
AcDbEntity
  8
DR-07_080910
390
0
 62
     7
100
AcDbSpline
210
0.0
220
0.0
230
1.0
 70
     8
 71
     3
 72
    14
 73
    10
 74
     0
 42
0.00000001
 43
0.00000001
 40
0.0
 40
0.0
 40
0.0
 40
0.0
 40
1.0
 40
1.0
 40
1.0
 40
2.0
 40
2.0
 40
2.0
 40
3.0
 40
3.0
 40
3.0
 40
3.0
 10
39.45909016927083
 20
-112.1488823784722086
 30
0.0
 10
39.6375461154513857
 20
-112.1488823784722086
 30
0.0
 10
39.8022216796874986
 20
-112.0534532335069287
 30
0.0
 10
39.8917941623263843
 20
-111.8987684461805401
 30
0.0
 10
39.9813666449652771
 20
-111.7440836588541515
 30
0.0
 10
39.9813666449652771
 20
-111.5535698784722172
 30
0.0
 10
39.8917941623263843
 20
-111.39922960069444
 30
0.0
 10
39.8022216796874986
 20
-111.24420030381944
 30
0.0
 10
39.6375461154513857
 20
-111.1491156684027715
 30
0.0
 10
39.45909016927083
 20
-111.1491156684027715
 30
0.0
  0
LINE
  5
A8
100
AcDbEntity
  8
DR-07_080910
390
0
 62
     7
100
AcDbLine
 10
39.45909
 20
-112.148882
 30
0.0
 11
36.95864
 21
-112.148882
 31
0.0
  0
SPLINE
  5
A7
100
AcDbEntity
  8
DR-07_080910
390
0
 62
     7
100
AcDbSpline
210
0.0
220
0.0
230
1.0
 70
     8
 71
     3
 72
    11
 73
     7
 74
     0
 42
0.00000001
 43
0.00000001
 40
0.0
 40
0.0
 40
0.0
 40
0.0
 40
1.0
 40
1.0
 40
1.0
 40
2.0
 40
2.0
 40
2.0
 40
2.0
 10
36.9586398654513886
 20
-111.1491156684027715
 30
0.0
 10
36.6830322265624957
 20
-111.1491156684027715
 30
0.0
 10
36.4587565104166629
 20
-111.3723578559027629
 30
0.0
 10
36.4587565104166629
 20
-111.6486545138888857
 30
0.0
 10
36.4587565104166629
 20
-111.9249511718749943
 30
0.0
 10
36.6830322265624957
 20
-112.1488823784722086
 30
0.0
 10
36.9586398654513886
 20
-112.1488823784722086
 30
0.0
  0
LINE
  5
A6
100
AcDbEntity
  8
DR-07_080910
390
0
 62
     7
100
AcDbLine
 10
33.939014
 20
-104.860438
 30
0.0
 11
35.706348
 21
-103.092415
 31
0.0
  0
SPLINE
  5
A5
100
AcDbEntity
  8
DR-07_080910
390
0
 62
     7
100
AcDbSpline
210
0.0
220
0.0
230
1.0
 70
     8
 71
     3
 72
    14
 73
    10
 74
     0
 42
0.00000001
 43
0.00000001
 40
0.0
 40
0.0
 40
0.0
 40
0.0
 40
1.0
 40
1.0
 40
1.0
 40
2.0
 40
2.0
 40
2.0
 40
3.0
 40
3.0
 40
3.0
 40
3.0
 10
36.4136257595486086
 20
-103.8000379774305486
 30
0.0
 10
36.5400607638888886
 20
-103.6736029730902686
 30
0.0
 10
36.5893256293402729
 20
-103.4892903645833258
 30
0.0
 10
36.5431613498263843
 20
-103.3163465711805458
 30
0.0
 10
36.4969970703124957
 20
-103.1440917968749886
 30
0.0
 10
36.3619493272569443
 20
-103.0090440538194372
 30
0.0
 10
36.1893500434027757
 20
-102.9628797743055486
 30
0.0
 10
36.0167507595486072
 20
-102.91671549479166
 30
0.0
 10
35.8327826605902757
 20
-102.9663248697916629
 30
0.0
 10
35.7063476562499957
 20
-103.0924153645833172
 30
0.0
  0
LINE
  5
A4
100
AcDbEntity
  8
DR-07_080910
390
0
 62
     7
100
AcDbLine
 10
36.413626
 20
-103.800038
 30
0.0
 11
34.645947
 21
-105.567716
 31
0.0
  0
SPLINE
  5
A3
100
AcDbEntity
  8
DR-07_080910
390
0
 62
     7
100
AcDbSpline
210
0.0
220
0.0
230
1.0
 70
     8
 71
     3
 72
    11
 73
     7
 74
     0
 42
0.00000001
 43
0.00000001
 40
0.0
 40
0.0
 40
0.0
 40
0.0
 40
1.0
 40
1.0
 40
1.0
 40
2.0
 40
2.0
 40
2.0
 40
2.0
 10
33.9390136718749957
 20
-104.8604383680555401
 30
0.0
 10
33.7433322482638829
 20
-105.0557752821180486
 30
0.0
 10
33.7433322482638829
 20
-105.3723795572916515
 30
0.0
 10
33.9390136718749957
 20
-105.56771647135416
 30
0.0
 10
34.1340060763888857
 20
-105.7623643663194315
 30
0.0
 10
34.4506103515624957
 20
-105.7623643663194315
 30
0.0
 10
34.6459472656249972
 20
-105.56771647135416
 30
0.0
  0
HATCH
  5
A2
100
AcDbEntity
  8
DR-07_080910
390
0
 62
     7
100
AcDbHatch
 10
0.0
 20
0.0
 30
0.0
210
0.0
220
0.0
230
1.0
  2
SOLID
 70
     1
 71
     0
 91
        1
 92
        1
 93
        1
 72
     4
 94
        3
 73
     0
 74
     0
 95
       17
 96
       13
 40
0.0
 40
0.0
 40
0.0
 40
0.0
 40
1.0
 40
1.0
 40
1.0
 40
2.0
 40
2.0
 40
2.0
 40
3.0
 40
3.0
 40
3.0
 40
4.0
 40
4.0
 40
4.0
 40
4.0
 10
42.6916232638888857
 20
-89.15011393229166
 10
42.6916232638888857
 20
-88.4135525173610972
 10
42.0942437065972186
 20
-87.81686197916666
 10
41.3580268012152743
 20
-87.81686197916666
 10
40.6214653862847186
 20
-87.81686197916666
 10
40.0244303385416629
 20
-88.4135525173610972
 10
40.0244303385416629
 20
-89.15011393229166
 10
40.0244303385416629
 20
-89.8866753472222086
 10
40.6214653862847186
 20
-90.4837103949652715
 10
41.3580268012152743
 20
-90.4837103949652715
 10
42.0942437065972186
 20
-90.4837103949652715
 10
42.6916232638888857
 20
-89.8866753472222086
 10
42.6916232638888857
 20
-89.15011393229166
 97
        0
 75
     2
 76
     1
 98
        1
 10
0.0
 20
0.0
  0
HATCH
  5
A0
100
AcDbEntity
  8
SILK_
390
0
 62
     7
100
AcDbHatch
 10
0.0
 20
0.0
 30
0.0
210
0.0
220
0.0
230
1.0
  2
SOLID
 70
     1
 71
     0
 91
        5
 92
        1
 93
        1
 72
     4
 94
        3
 73
     0
 74
     0
 95
       26
 96
       22
 40
0.0
 40
0.0
 40
0.0
 40
0.0
 40
1.0
 40
1.0
 40
1.0
 40
2.0
 40
2.0
 40
2.0
 40
3.0
 40
3.0
 40
3.0
 40
4.0
 40
4.0
 40
4.0
 40
5.0
 40
5.0
 40
5.0
 40
6.0
 40
6.0
 40
6.0
 40
7.0
 40
7.0
 40
7.0
 40
7.0
 10
45.7873860677083258
 20
-72.5788601345486057
 10
45.7873860677083258
 20
-72.5788601345486057
 10
45.7873860677083258
 20
-72.1371988932291544
 10
45.7873860677083258
 20
-72.1371988932291544
 10
45.7873860677083258
 20
-72.1371988932291544
 10
46.17599283854166
 20
-72.1371988932291544
 10
46.17599283854166
 20
-72.1371988932291544
 10
46.2149224175347157
 20
-72.1371988932291544
 10
46.25350748697916
 20
-72.1402994791666572
 10
46.2914035373263815
 20
-72.1471896701388857
 10
46.3902777777777757
 20
-72.16372612847222
 10
46.4629692925347157
 20
-72.2484754774305458
 10
46.4646918402777729
 20
-72.3483832465277743
 10
46.46641438802083
 20
-72.4486355251736001
 10
46.3968234592013857
 20
-72.53579644097222
 10
46.2986382378472214
 20
-72.5564670138888772
 10
46.2414496527777743
 20
-72.5709364149305429
 10
46.1828830295138815
 20
-72.5781711154513829
 10
46.1239718967013843
 20
-72.5788601345486057
 10
46.1239718967013843
 20
-72.5788601345486057
 10
45.7873860677083258
 20
-72.5788601345486057
 10
45.7873860677083258
 20
-72.5788601345486057
 97
        0
 92
        1
 93
        1
 72
     4
 94
        3
 73
     0
 74
     0
 95
       26
 96
       22
 40
0.0
 40
0.0
 40
0.0
 40
0.0
 40
1.0
 40
1.0
 40
1.0
 40
2.0
 40
2.0
 40
2.0
 40
3.0
 40
3.0
 40
3.0
 40
4.0
 40
4.0
 40
4.0
 40
5.0
 40
5.0
 40
5.0
 40
6.0
 40
6.0
 40
6.0
 40
7.0
 40
7.0
 40
7.0
 40
7.0
 10
45.7925537109374972
 20
-73.36813151041666
 10
45.7925537109374972
 20
-73.36813151041666
 10
45.7925537109374972
 20
-72.8513671874999886
 10
45.7925537109374972
 20
-72.8513671874999886
 10
45.7925537109374972
 20
-72.8513671874999886
 10
46.2541965060763829
 20
-72.8513671874999886
 10
46.2541965060763829
 20
-72.8513671874999886
 10
46.2872694227430515
 20
-72.8527452256944343
 10
46.3196533203124972
 20
-72.85894639756944
 10
46.3506591796874972
 20
-72.8703152126736029
 10
46.4519449869791643
 20
-72.9064887152777743
 10
46.5184353298611057
 20
-73.0029513888888886
 10
46.5160237630208258
 20
-73.1100938585069429
 10
46.51292317708333
 20
-73.2172363281249972
 10
46.44195421006944
 20
-73.3105984157986086
 10
46.3392903645833272
 20
-73.3412597656249972
 10
46.2610866970486043
 20
-73.3612413194444315
 10
46.18081597222222
 20
-73.37054307725694
 10
46.0998562282986057
 20
-73.36813151041666
 10
46.0998562282986057
 20
-73.36813151041666
 10
45.7925537109374972
 20
-73.36813151041666
 10
45.7925537109374972
 20
-73.36813151041666
 97
        0
 92
       16
 93
        1
 72
     4
 94
        3
 73
     0
 74
     0
 95
       35
 96
       31
 40
0.0
 40
0.0
 40
0.0
 40
0.0
 40
1.0
 40
1.0
 40
1.0
 40
2.0
 40
2.0
 40
2.0
 40
3.0
 40
3.0
 40
3.0
 40
4.0
 40
4.0
 40
4.0
 40
5.0
 40
5.0
 40
5.0
 40
6.0
 40
6.0
 40
6.0
 40
7.0
 40
7.0
 40
7.0
 40
8.0
 40
8.0
 40
8.0
 40
9.0
 40
9.0
 40
9.0
 40
10.0
 40
10.0
 40
10.0
 40
10.0
 10
45.4325412326388829
 20
-71.8543565538194429
 10
45.4325412326388829
 20
-71.8543565538194429
 10
45.4325412326388829
 20
-73.6516628689236086
 10
45.4325412326388829
 20
-73.6516628689236086
 10
45.4325412326388829
 20
-73.6516628689236086
 10
46.3134521484374986
 20
-73.6516628689236086
 10
46.3134521484374986
 20
-73.6516628689236086
 10
46.3857991536458272
 20
-73.6475287543402715
 10
46.4578016493055515
 20
-73.6382269965277771
 10
46.5287706163194414
 20
-73.6227240668402771
 10
46.7416775173611043
 20
-73.5700141059027715
 10
46.8929172092013857
 20
-73.3805338541666572
 10
46.89808485243055
 20
-73.1610812717013772
 10
46.90290798611111
 20
-72.9409396701388886
 10
46.7599365234374957
 20
-72.7452582465277686
 10
46.5490966796874943
 20
-72.6829020182291572
 10
46.6541720920138872
 20
-72.6474175347222086
 10
46.7399549696180543
 20
-72.5702473958333201
 10
46.7868082682291657
 20
-72.4696506076388829
 10
46.83366156684027
 20
-72.3683648003472086
 10
46.8371066623263843
 20
-72.2536431206597172
 10
46.7974880642361057
 20
-72.1499457465277771
 10
46.7427110460069386
 20
-72.0128309461805429
 10
46.6235107421874986
 20
-71.9115451388888829
 10
46.4788167317708272
 20
-71.87985026041666
 10
46.3854546440972157
 20
-71.8605577256944343
 10
46.2896809895833314
 20
-71.8522894965277743
 10
46.1942518446180515
 20
-71.8543565538194429
 10
46.1942518446180515
 20
-71.8543565538194429
 10
45.4325412326388829
 20
-71.8543565538194429
 10
45.4325412326388829
 20
-71.8543565538194429
 97
        0
 92
        1
 93
        1
 72
     4
 94
        3
 73
     0
 74
     0
 95
       26
 96
       22
 40
0.0
 40
0.0
 40
0.0
 40
0.0
 40
1.0
 40
1.0
 40
1.0
 40
2.0
 40
2.0
 40
2.0
 40
3.0
 40
3.0
 40
3.0
 40
4.0
 40
4.0
 40
4.0
 40
5.0
 40
5.0
 40
5.0
 40
6.0
 40
6.0
 40
6.0
 40
7.0
 40
7.0
 40
7.0
 40
7.0
 10
44.1730143229166643
 20
-72.14581163194444
 10
44.1730143229166643
 20
-72.14581163194444
 10
44.5137342664930529
 20
-72.14581163194444
 10
44.5137342664930529
 20
-72.14581163194444
 10
44.6070963541666643
 20
-72.14581163194444
 10
44.6952907986111043
 20
-72.1878417968749915
 10
44.7535129123263857
 20
-72.2612223307291544
 10
44.8003662109374972
 20
-72.3208224826388886
 10
44.8213812934027729
 20
-72.3966145833333314
 10
44.8124240451388829
 20
-72.4727511935763857
 10
44.8027777777777771
 20
-72.5481987847222172
 10
44.76350368923611
 20
-72.6164116753472086
 10
44.7028700086805486
 20
-72.6625759548611114
 10
44.6532606336805529
 20
-72.6956488715277658
 10
44.5960720486111057
 20
-72.7149414062499915
 10
44.5364718967013857
 20
-72.7197645399305515
 10
44.5364718967013857
 20
-72.7197645399305515
 10
44.1730143229166643
 20
-72.7197645399305515
 10
44.1730143229166643
 20
-72.7197645399305515
 10
44.1730143229166643
 20
-72.7197645399305515
 10
44.1730143229166643
 20
-72.14581163194444
 10
44.1730143229166643
 20
-72.14581163194444
 97
        0
 92
       16
 93
        1
 72
     4
 94
        3
 73
     0
 74
     0
 95
       32
 96
       28
 40
0.0
 40
0.0
 40
0.0
 40
0.0
 40
1.0
 40
1.0
 40
1.0
 40
2.0
 40
2.0
 40
2.0
 40
3.0
 40
3.0
 40
3.0
 40
4.0
 40
4.0
 40
4.0
 40
5.0
 40
5.0
 40
5.0
 40
6.0
 40
6.0
 40
6.0
 40
7.0
 40
7.0
 40
7.0
 40
8.0
 40
8.0
 40
8.0
 40
9.0
 40
9.0
 40
9.0
 40
9.0
 10
43.8078342013888857
 20
-71.8474663628472143
 10
43.8078342013888857
 20
-71.8474663628472143
 10
43.8078342013888857
 20
-73.6516628689236086
 10
43.8078342013888857
 20
-73.6516628689236086
 10
43.8078342013888857
 20
-73.6516628689236086
 10
44.17198079427083
 20
-73.6516628689236086
 10
44.17198079427083
 20
-73.6516628689236086
 10
44.17198079427083
 20
-73.6516628689236086
 10
44.17198079427083
 20
-73.0256890190972143
 10
44.17198079427083
 20
-73.0256890190972143
 10
44.17198079427083
 20
-73.0256890190972143
 10
44.6418918185763829
 20
-73.0146647135416629
 10
44.6418918185763829
 20
-73.0146647135416629
 10
44.9044080946180486
 20
-73.00915256076388
 10
45.1245496961805515
 20
-72.8151936848958314
 10
45.1627902560763843
 20
-72.5557779947916544
 10
45.17967122395833
 20
-72.4541476779513829
 10
45.1727810329861086
 20
-72.3504503038194429
 10
45.1431532118055543
 20
-72.2522650824652715
 10
45.0787299262152743
 20
-72.0279893663194315
 10
44.8802924262152771
 20
-71.8688259548611086
 10
44.6477484809027771
 20
-71.8543565538194429
 10
44.5698893229166657
 20
-71.8498779296874943
 10
44.4920301649305543
 20
-71.8474663628472143
 10
44.4138264973958314
 20
-71.8474663628472143
 10
44.4138264973958314
 20
-71.8474663628472143
 10
43.8078342013888857
 20
-71.8474663628472143
 10
43.8078342013888857
 20
-71.8474663628472143
 97
        0
 75
     2
 76
     1
 98
        1
 10
0.0
 20
0.0
  0
HATCH
  5
9F
100
AcDbEntity
  8
SILK_
390
0
 62
     7
100
AcDbHatch
 10
0.0
 20
0.0
 30
0.0
210
0.0
220
0.0
230
1.0
  2
SOLID
 70
     1
 71
     0
 91
        5
 92
       16
 93
        1
 72
     4
 94
        3
 73
     0
 74
     0
 95
       29
 96
       25
 40
0.0
 40
0.0
 40
0.0
 40
0.0
 40
1.0
 40
1.0
 40
1.0
 40
2.0
 40
2.0
 40
2.0
 40
3.0
 40
3.0
 40
3.0
 40
4.0
 40
4.0
 40
4.0
 40
5.0
 40
5.0
 40
5.0
 40
6.0
 40
6.0
 40
6.0
 40
7.0
 40
7.0
 40
7.0
 40
8.0
 40
8.0
 40
8.0
 40
8.0
 10
47.4141601562499986
 20
-74.3527398003472086
 10
47.4141601562499986
 20
-74.3527398003472086
 10
47.4141601562499986
 20
-74.6624538845486114
 10
47.4141601562499986
 20
-74.6624538845486114
 10
47.4141601562499986
 20
-74.6624538845486114
 10
47.9719211154513872
 20
-74.6624538845486114
 10
47.9719211154513872
 20
-74.6624538845486114
 10
47.9719211154513872
 20
-74.6624538845486114
 10
47.9719211154513872
 20
-76.1517686631944315
 10
47.9719211154513872
 20
-76.1517686631944315
 10
47.9719211154513872
 20
-76.1517686631944315
 10
48.3388237847222157
 20
-76.1517686631944315
 10
48.3388237847222157
 20
-76.1517686631944315
 10
48.3388237847222157
 20
-76.1517686631944315
 10
48.3388237847222157
 20
-74.6631429036458201
 10
48.3388237847222157
 20
-74.6631429036458201
 10
48.3388237847222157
 20
-74.6631429036458201
 10
48.8976182725694386
 20
-74.6631429036458201
 10
48.8976182725694386
 20
-74.6631429036458201
 10
48.8976182725694386
 20
-74.6631429036458201
 10
48.8976182725694386
 20
-74.3527398003472086
 10
48.8976182725694386
 20
-74.3527398003472086
 10
48.8976182725694386
 20
-74.3527398003472086
 10
47.4141601562499986
 20
-74.3527398003472086
 10
47.4141601562499986
 20
-74.3527398003472086
 97
        0
 92
       16
 93
        1
 72
     4
 94
        3
 73
     0
 74
     0
 95
       35
 96
       31
 40
0.0
 40
0.0
 40
0.0
 40
0.0
 40
1.0
 40
1.0
 40
1.0
 40
2.0
 40
2.0
 40
2.0
 40
3.0
 40
3.0
 40
3.0
 40
4.0
 40
4.0
 40
4.0
 40
5.0
 40
5.0
 40
5.0
 40
6.0
 40
6.0
 40
6.0
 40
7.0
 40
7.0
 40
7.0
 40
8.0
 40
8.0
 40
8.0
 40
9.0
 40
9.0
 40
9.0
 40
10.0
 40
10.0
 40
10.0
 40
10.0
 10
45.6509602864583286
 20
-74.3527398003472086
 10
45.6509602864583286
 20
-74.3527398003472086
 10
45.6509602864583286
 20
-76.1517686631944315
 10
45.6509602864583286
 20
-76.1517686631944315
 10
45.6509602864583286
 20
-76.1517686631944315
 10
46.0137288411458272
 20
-76.1517686631944315
 10
46.0137288411458272
 20
-76.1517686631944315
 10
46.0137288411458272
 20
-76.1517686631944315
 10
46.0137288411458272
 20
-74.9301378038194343
 10
46.0137288411458272
 20
-74.9301378038194343
 10
46.0137288411458272
 20
-74.9301378038194343
 10
46.7657931857638829
 20
-76.14797905815972
 10
46.7657931857638829
 20
-76.14797905815972
 10
46.7657931857638829
 20
-76.14797905815972
 10
47.1440646701388815
 20
-76.14797905815972
 10
47.1440646701388815
 20
-76.14797905815972
 10
47.1440646701388815
 20
-76.14797905815972
 10
47.1440646701388815
 20
-74.3527398003472086
 10
47.1440646701388815
 20
-74.3527398003472086
 10
47.1440646701388815
 20
-74.3527398003472086
 10
46.7809516059027715
 20
-74.3527398003472086
 10
46.7809516059027715
 20
-74.3527398003472086
 10
46.7809516059027715
 20
-74.3527398003472086
 10
46.7809516059027715
 20
-75.5626573350694315
 10
46.7809516059027715
 20
-75.5626573350694315
 10
46.7809516059027715
 20
-75.5626573350694315
 10
46.0357774522569372
 20
-74.3527398003472086
 10
46.0357774522569372
 20
-74.3527398003472086
 10
46.0357774522569372
 20
-74.3527398003472086
 10
45.6509602864583286
 20
-74.3527398003472086
 10
45.6509602864583286
 20
-74.3527398003472086
 97
        0
 92
        1
 93
        1
 72
     4
 94
        3
 73
     0
 74
     0
 95
       29
 96
       25
 40
0.0
 40
0.0
 40
0.0
 40
0.0
 40
1.0
 40
1.0
 40
1.0
 40
2.0
 40
2.0
 40
2.0
 40
3.0
 40
3.0
 40
3.0
 40
4.0
 40
4.0
 40
4.0
 40
5.0
 40
5.0
 40
5.0
 40
6.0
 40
6.0
 40
6.0
 40
7.0
 40
7.0
 40
7.0
 40
8.0
 40
8.0
 40
8.0
 40
8.0
 10
44.9516059027777715
 20
-75.5602457682291657
 10
44.9261121961805543
 20
-75.6288031684027686
 10
44.8899386935763829
 20
-75.6925374348958258
 10
44.8444634331597172
 20
-75.7493815104166544
 10
44.7655707465277715
 20
-75.8492892795138829
 10
44.6470594618055543
 20
-75.9099229600694372
 10
44.51959092881944
 20
-75.9150906032986086
 10
44.3921223958333258
 20
-75.9099229600694372
 10
44.2736111111111086
 20
-75.8492892795138829
 10
44.1950629340277743
 20
-75.7493815104166544
 10
44.1492431640624972
 20
-75.6925374348958258
 10
44.1130696614583329
 20
-75.6288031684027686
 10
44.0875759548611086
 20
-75.5602457682291657
 10
43.99490288628472
 20
-75.2949734157986086
 10
44.0314208984374957
 20
-75.0017957899305543
 10
44.1857611762152729
 20
-74.7675292968749972
 10
44.2632758246527729
 20
-74.6593532986111086
 10
44.38661024305555
 20
-74.5935519748263829
 10
44.51959092881944
 20
-74.5883843315972115
 10
44.65257161458333
 20
-74.5932074652777715
 10
44.7755615234374957
 20
-74.6593532986111086
 10
44.8530761718749957
 20
-74.7675292968749972
 10
45.0081054687499957
 20
-75.0017957899305543
 10
45.04427897135416
 20
-75.2949734157986086
 10
44.9516059027777715
 20
-75.5602457682291657
 97
        0
 92
       16
 93
        1
 72
     4
 94
        3
 73
     0
 74
     0
 95
       23
 96
       19
 40
0.0
 40
0.0
 40
0.0
 40
0.0
 40
1.0
 40
1.0
 40
1.0
 40
2.0
 40
2.0
 40
2.0
 40
3.0
 40
3.0
 40
3.0
 40
4.0
 40
4.0
 40
4.0
 40
5.0
 40
5.0
 40
5.0
 40
6.0
 40
6.0
 40
6.0
 40
6.0
 10
45.1917290581597157
 20
-75.8768500434027686
 10
45.4821506076388857
 20
-75.4272650824652686
 10
45.4160047743055486
 20
-74.8350531684027658
 10
45.0329101562499972
 20
-74.4609157986111114
 10
44.8885606553819372
 20
-74.3403374565972115
 10
44.7076931423611086
 20
-74.2728135850694429
 10
44.51959092881944
 20
-74.2686794704861057
 10
44.3314887152777715
 20
-74.2728135850694429
 10
44.1502766927083314
 20
-74.3403374565972115
 10
44.0062717013888829
 20
-74.4609157986111114
 10
43.6231770833333314
 20
-74.8350531684027658
 10
43.5566867404513829
 20
-75.4272650824652686
 10
43.8477973090277757
 20
-75.8761610243055458
 10
44.0028266059027757
 20
-76.0938910590277686
 10
44.2522515190972214
 20
-76.2248046874999972
 10
44.51959092881944
 20
-76.2289388020833201
 10
44.7869303385416657
 20
-76.2248046874999972
 10
45.0363552517361043
 20
-76.0938910590277686
 10
45.1917290581597157
 20
-75.8768500434027686
 97
        0
 92
       16
 93
        1
 72
     4
 94
        3
 73
     0
 74
     0
 95
       56
 96
       52
 40
0.0
 40
0.0
 40
0.0
 40
0.0
 40
1.0
 40
1.0
 40
1.0
 40
2.0
 40
2.0
 40
2.0
 40
3.0
 40
3.0
 40
3.0
 40
4.0
 40
4.0
 40
4.0
 40
5.0
 40
5.0
 40
5.0
 40
6.0
 40
6.0
 40
6.0
 40
7.0
 40
7.0
 40
7.0
 40
8.0
 40
8.0
 40
8.0
 40
9.0
 40
9.0
 40
9.0
 40
10.0
 40
10.0
 40
10.0
 40
11.0
 40
11.0
 40
11.0
 40
12.0
 40
12.0
 40
12.0
 40
13.0
 40
13.0
 40
13.0
 40
14.0
 40
14.0
 40
14.0
 40
15.0
 40
15.0
 40
15.0
 40
16.0
 40
16.0
 40
16.0
 40
17.0
 40
17.0
 40
17.0
 40
17.0
 10
43.4471327039930486
 20
-74.9136013454861001
 10
43.4264621310763843
 20
-74.65728624131944
 10
43.2604085286458329
 20
-74.4361111111111029
 10
43.0202853732638815
 20
-74.34481608072916
 10
42.7891194661458272
 20
-74.2552435980902743
 10
42.5317708333333329
 20
-74.2617892795138772
 10
42.3054280598958314
 20
-74.3637641059027743
 10
42.0976888020833329
 20
-74.4529920789930486
 10
41.93955891927083
 20
-74.6283474392361086
 10
41.8716905381944429
 20
-74.8440104166666629
 10
41.7921088324652743
 20
-75.0955023871527771
 10
41.7876302083333329
 20
-75.3645643446180458
 10
41.8585991753472157
 20
-75.6188123914930515
 10
41.9385253906249957
 20
-75.89269748263888
 10
42.1534993489583272
 20
-76.1066379123263772
 10
42.4273844401041629
 20
-76.1862196180555458
 10
42.6054958767361072
 20
-76.23617350260416
 10
42.7935980902777757
 20
-76.2344509548611029
 10
42.9703314887152743
 20
-76.181396484375
 10
43.2428385416666643
 20
-76.1028483072916657
 10
43.4374864366319429
 20
-75.8637586805555486
 10
43.4602240668402757
 20
-75.5812608506944343
 10
43.4602240668402757
 20
-75.5812608506944343
 10
43.0864312065972186
 20
-75.5812608506944343
 10
43.0864312065972186
 20
-75.5812608506944343
 10
43.0767849392361057
 20
-75.6556749131944315
 10
43.0461235894097172
 20
-75.72457682291666
 10
42.9985812717013829
 20
-75.7821099175347115
 10
42.9107313368055543
 20
-75.8720269097222086
 10
42.7884304470486043
 20
-75.9202582465277658
 10
42.6626844618055543
 20
-75.9133680555555515
 10
42.5372829861111086
 20
-75.9068223741319343
 10
42.4204942491319414
 20
-75.8465332031249915
 10
42.3422905815972186
 20
-75.747314453125
 10
42.2754557291666657
 20
-75.6632541232638829
 10
42.2282579210069429
 20
-75.5650689019097115
 10
42.2044867621527757
 20
-75.4603379991319372
 10
42.1817491319444429
 20
-75.3490614149305458
 10
42.1748589409722214
 20
-75.2350287543402771
 10
42.1845052083333272
 20
-75.12237413194444
 10
42.1955295138888857
 20
-74.9997287326388857
 10
42.2385932074652715
 20
-74.8819064670138772
 10
42.3095621744791615
 20
-74.78130967881944
 10
42.4053358289930529
 20
-74.6462619357638886
 10
42.5665662977430515
 20
-74.5732259114583229
 10
42.7308973524305529
 20
-74.5907958984374915
 10
42.9090087890624972
 20
-74.6042317708333229
 10
43.0547363281249957
 20
-74.7375569661458314
 10
43.0840196397569386
 20
-74.9136013454861001
 10
43.0840196397569386
 20
-74.9136013454861001
 10
43.4471327039930486
 20
-74.9136013454861001
 10
43.4471327039930486
 20
-74.9136013454861001
 97
        0
 75
     2
 76
     1
 98
        1
 10
0.0
 20
0.0
  0
HATCH
  5
9E
100
AcDbEntity
  8
SILK_
390
0
 62
     7
100
AcDbHatch
 10
0.0
 20
0.0
 30
0.0
210
0.0
220
0.0
230
1.0
  2
SOLID
 70
     1
 71
     0
 91
        4
 92
        1
 93
        1
 72
     4
 94
        3
 73
     0
 74
     0
 95
       35
 96
       31
 40
0.0
 40
0.0
 40
0.0
 40
0.0
 40
1.0
 40
1.0
 40
1.0
 40
2.0
 40
2.0
 40
2.0
 40
3.0
 40
3.0
 40
3.0
 40
4.0
 40
4.0
 40
4.0
 40
5.0
 40
5.0
 40
5.0
 40
6.0
 40
6.0
 40
6.0
 40
7.0
 40
7.0
 40
7.0
 40
8.0
 40
8.0
 40
8.0
 40
9.0
 40
9.0
 40
9.0
 40
10.0
 40
10.0
 40
10.0
 40
10.0
 10
11.6747395833333325
 20
-73.2230929904513772
 10
11.6147949218749993
 20
-73.3378146701388829
 10
11.4919772677951375
 20
-73.4108506944444343
 10
11.3574462890624996
 20
-73.4108506944444343
 10
11.2227430555555543
 20
-73.4108506944444343
 10
11.0994086371527771
 20
-73.3378146701388829
 10
11.0398084852430554
 20
-73.2230929904513772
 10
11.0115587022569432
 20
-73.1652153862847143
 10
10.9901991102430543
 20
-73.10458170572916
 10
10.9760742187499982
 20
-73.0422254774305486
 10
10.9402452256944436
 20
-72.8355197482638772
 10
10.9457573784722211
 20
-72.6246799045138829
 10
10.9915771484374982
 20
-72.42004123263888
 10
11.0174153645833321
 20
-72.3132432725694372
 10
11.0880398220486107
 20
-72.22091471354166
 10
11.1872585720486093
 20
-72.1654486762152771
 10
11.2403130425347211
 20
-72.1402994791666572
 10
11.2985351562499989
 20
-72.12789713541666
 10
11.3574462890624996
 20
-72.1292751736111057
 10
11.4163574218749986
 20
-72.12789713541666
 10
11.4749240451388879
 20
-72.1402994791666572
 10
11.5272894965277768
 20
-72.1654486762152771
 10
11.6268527560763886
 20
-72.22091471354166
 10
11.6974772135416654
 20
-72.3132432725694372
 10
11.7233154296874993
 20
-72.42004123263888
 10
11.7694797092013879
 20
-72.6246799045138829
 10
11.7746473524305539
 20
-72.8355197482638772
 10
11.7386461046006936
 20
-73.0422254774305486
 10
11.7240044487847204
 20
-73.10458170572916
 10
11.7029893663194429
 20
-73.1652153862847143
 10
11.6747395833333325
 20
-73.2230929904513772
 97
        0
 92
       16
 93
        1
 72
     4
 94
        3
 73
     0
 74
     0
 95
       29
 96
       25
 40
0.0
 40
0.0
 40
0.0
 40
0.0
 40
1.0
 40
1.0
 40
1.0
 40
2.0
 40
2.0
 40
2.0
 40
3.0
 40
3.0
 40
3.0
 40
4.0
 40
4.0
 40
4.0
 40
5.0
 40
5.0
 40
5.0
 40
6.0
 40
6.0
 40
6.0
 40
7.0
 40
7.0
 40
7.0
 40
8.0
 40
8.0
 40
8.0
 40
8.0
 10
12.1291476779513872
 20
-73.0746093749999943
 10
12.1815131293402761
 20
-72.8282850477430515
 10
12.1708333333333325
 20
-72.5736924913194343
 10
12.09883083767361
 20
-72.33184678819444
 10
12.0027126736111107
 20
-72.01937662760416
 10
11.6998887803819436
 20
-71.8061252170138857
 10
11.3574462890624996
 20
-71.8088812934027771
 10
11.0146592881944443
 20
-71.8061252170138857
 10
10.7118353949652771
 20
-72.01937662760416
 10
10.6157172309027761
 20
-72.33184678819444
 10
10.5437147352430554
 20
-72.5736924913194343
 10
10.53303493923611
 20
-72.8282850477430515
 10
10.5850558810763875
 20
-73.0746093749999943
 10
10.6136501736111093
 20
-73.1910536024305429
 10
10.6625705295138875
 20
-73.3026746961805458
 10
10.7304389105902764
 20
-73.4036159939236086
 10
10.8715155707465261
 20
-73.6010199652777715
 10
11.1059543185763872
 20
-73.7195312499999886
 10
11.3574462890624996
 20
-73.7202202690972115
 10
11.6085937499999989
 20
-73.7195312499999886
 10
11.8432047526041657
 20
-73.6010199652777715
 10
11.9837646484374982
 20
-73.4036159939236086
 10
12.0519775390624986
 20
-73.3026746961805458
 10
12.1008978949652768
 20
-73.1910536024305429
 10
12.1291476779513872
 20
-73.0746093749999943
 97
        0
 92
       16
 93
        1
 72
     4
 94
        3
 73
     0
 74
     0
 95
       17
 96
       13
 40
0.0
 40
0.0
 40
0.0
 40
0.0
 40
1.0
 40
1.0
 40
1.0
 40
2.0
 40
2.0
 40
2.0
 40
3.0
 40
3.0
 40
3.0
 40
4.0
 40
4.0
 40
4.0
 40
4.0
 10
10.1085991753472211
 20
-71.83816460503472
 10
10.1085991753472211
 20
-71.83816460503472
 10
9.2421576605902764
 20
-73.6523518880208314
 10
9.2421576605902764
 20
-73.6523518880208314
 10
9.2421576605902764
 20
-73.6523518880208314
 10
9.5782267252604161
 20
-73.6523518880208314
 10
9.5782267252604161
 20
-73.6523518880208314
 10
9.5782267252604161
 20
-73.6523518880208314
 10
10.4389838324652775
 20
-71.83816460503472
 10
10.4389838324652775
 20
-71.83816460503472
 10
10.4389838324652775
 20
-71.83816460503472
 10
10.1085991753472211
 20
-71.83816460503472
 10
10.1085991753472211
 20
-71.83816460503472
 97
        0
 92
       16
 93
        1
 72
     4
 94
        3
 73
     0
 74
     0
 95
       17
 96
       13
 40
0.0
 40
0.0
 40
0.0
 40
0.0
 40
1.0
 40
1.0
 40
1.0
 40
2.0
 40
2.0
 40
2.0
 40
3.0
 40
3.0
 40
3.0
 40
4.0
 40
4.0
 40
4.0
 40
4.0
 10
8.5457316080729164
 20
-71.8560791015625
 10
8.5457316080729164
 20
-71.8560791015625
 10
8.5457316080729164
 20
-73.6523518880208314
 10
8.5457316080729164
 20
-73.6523518880208314
 10
8.5457316080729164
 20
-73.6523518880208314
 10
8.9386447482638882
 20
-73.6523518880208314
 10
8.9386447482638882
 20
-73.6523518880208314
 10
8.9386447482638882
 20
-73.6523518880208314
 10
8.9386447482638882
 20
-71.8560791015625
 10
8.9386447482638882
 20
-71.8560791015625
 10
8.9386447482638882
 20
-71.8560791015625
 10
8.5457316080729164
 20
-71.8560791015625
 10
8.5457316080729164
 20
-71.8560791015625
 97
        0
 75
     2
 76
     1
 98
        1
 10
0.0
 20
0.0
  0
HATCH
  5
9D
100
AcDbEntity
  8
SILK_
390
0
 62
     7
100
AcDbHatch
 10
0.0
 20
0.0
 30
0.0
210
0.0
220
0.0
230
1.0
  2
SOLID
 70
     1
 71
     0
 91
        7
 92
        1
 93
        1
 72
     4
 94
        3
 73
     0
 74
     0
 95
       26
 96
       22
 40
0.0
 40
0.0
 40
0.0
 40
0.0
 40
1.0
 40
1.0
 40
1.0
 40
2.0
 40
2.0
 40
2.0
 40
3.0
 40
3.0
 40
3.0
 40
4.0
 40
4.0
 40
4.0
 40
5.0
 40
5.0
 40
5.0
 40
6.0
 40
6.0
 40
6.0
 40
7.0
 40
7.0
 40
7.0
 40
7.0
 10
12.683463541666665
 20
-74.6469509548611114
 10
12.683463541666665
 20
-74.6469509548611114
 10
13.024527994791665
 20
-74.6469509548611114
 10
13.024527994791665
 20
-74.6469509548611114
 10
13.1177178276909707
 20
-74.6462619357638886
 10
13.2059122721354161
 20
-74.6889811197916629
 10
13.2636176215277768
 20
-74.7620171440972143
 10
13.3108154296874996
 20
-74.8219618055555458
 10
13.3321750217013868
 20
-74.8980984157986001
 10
13.3225287543402757
 20
-74.9735460069444315
 10
13.3132269965277761
 20
-75.0489935980902771
 10
13.2739529079861107
 20
-75.11755099826388
 10
13.2136637369791661
 20
-75.1637152777777686
 10
13.1637098524305536
 20
-75.1964436848958258
 10
13.10652126736111
 20
-75.2160807291666629
 10
13.0469211154513882
 20
-75.22021484375
 10
13.0469211154513882
 20
-75.22021484375
 10
12.683463541666665
 20
-75.22021484375
 10
12.683463541666665
 20
-75.22021484375
 10
12.683463541666665
 20
-75.22021484375
 10
12.683463541666665
 20
-74.6469509548611114
 10
12.683463541666665
 20
-74.6469509548611114
 97
        0
 92
       16
 93
        1
 72
     4
 94
        3
 73
     0
 74
     0
 95
       32
 96
       28
 40
0.0
 40
0.0
 40
0.0
 40
0.0
 40
1.0
 40
1.0
 40
1.0
 40
2.0
 40
2.0
 40
2.0
 40
3.0
 40
3.0
 40
3.0
 40
4.0
 40
4.0
 40
4.0
 40
5.0
 40
5.0
 40
5.0
 40
6.0
 40
6.0
 40
6.0
 40
7.0
 40
7.0
 40
7.0
 40
8.0
 40
8.0
 40
8.0
 40
9.0
 40
9.0
 40
9.0
 40
9.0
 10
12.3186279296874996
 20
-74.3479166666666629
 10
12.3186279296874996
 20
-74.3479166666666629
 10
12.3186279296874996
 20
-76.1524576822916544
 10
12.3186279296874996
 20
-76.1524576822916544
 10
12.3186279296874996
 20
-76.1524576822916544
 10
12.6827745225694439
 20
-76.1524576822916544
 10
12.6827745225694439
 20
-76.1524576822916544
 10
12.6827745225694439
 20
-76.1524576822916544
 10
12.6827745225694439
 20
-75.5268283420138857
 10
12.6827745225694439
 20
-75.5268283420138857
 10
12.6827745225694439
 20
-75.5268283420138857
 10
13.1523410373263872
 20
-75.5154595269097086
 10
13.1523410373263872
 20
-75.5154595269097086
 10
13.4145128038194432
 20
-75.5102918836805515
 10
13.6346544053819425
 20
-75.3159884982638772
 10
13.6728949652777771
 20
-75.0562282986111029
 10
13.6897759331597211
 20
-74.9549424913194429
 10
13.6832302517361093
 20
-74.8515896267361001
 10
13.653602430555555
 20
-74.7530598958333314
 10
13.5891791449652768
 20
-74.5291286892361029
 10
13.3907416449652761
 20
-74.3699652777777658
 10
13.1581976996527761
 20
-74.3551513671874886
 10
13.0803385416666647
 20
-74.3506727430555543
 10
13.0023071289062493
 20
-74.3479166666666629
 10
12.9242757161458321
 20
-74.3479166666666629
 10
12.9242757161458321
 20
-74.3479166666666629
 10
12.3186279296874996
 20
-74.3479166666666629
 10
12.3186279296874996
 20
-74.3479166666666629
 97
        0
 92
        1
 93
        1
 72
     4
 94
        3
 73
     0
 74
     0
 95
       29
 96
       25
 40
0.0
 40
0.0
 40
0.0
 40
0.0
 40
1.0
 40
1.0
 40
1.0
 40
2.0
 40
2.0
 40
2.0
 40
3.0
 40
3.0
 40
3.0
 40
4.0
 40
4.0
 40
4.0
 40
5.0
 40
5.0
 40
5.0
 40
6.0
 40
6.0
 40
6.0
 40
7.0
 40
7.0
 40
7.0
 40
8.0
 40
8.0
 40
8.0
 40
8.0
 10
11.6191012912326386
 20
-75.5609347873263886
 10
11.5937798394097218
 20
-75.62914767795138
 10
11.5576063368055539
 20
-75.6932264539930486
 10
11.5121310763888882
 20
-75.7504150390624886
 10
11.4335828993055539
 20
-75.8506673177083286
 10
11.3147271050347218
 20
-75.91061197916666
 10
11.1872585720486093
 20
-75.9157796223958314
 10
11.0597900390624986
 20
-75.91061197916666
 10
10.9409342447916664
 20
-75.8506673177083286
 10
10.8623860677083321
 20
-75.7504150390624886
 10
10.8169108072916664
 20
-75.6932264539930486
 10
10.7803927951388872
 20
-75.62914767795138
 10
10.7552435980902761
 20
-75.5609347873263886
 10
10.6625705295138875
 20
-75.2960069444444429
 10
10.699088541666665
 20
-75.0028293185763886
 10
10.8536010742187496
 20
-74.76821831597222
 10
10.9312879774305554
 20
-74.6603868272569429
 10
11.0542778862847211
 20
-74.5942409939236057
 10
11.1872585720486093
 20
-74.5894178602430458
 10
11.3202392578124993
 20
-74.5942409939236057
 10
11.4435736762152764
 20
-74.6603868272569429
 10
11.5210883246527764
 20
-74.76821831597222
 10
11.6754286024305554
 20
-75.0028293185763886
 10
11.7119466145833329
 20
-75.2960069444444429
 10
11.6191012912326386
 20
-75.5609347873263886
 97
        0
 92
       16
 93
        1
 72
     4
 94
        3
 73
     0
 74
     0
 95
       23
 96
       19
 40
0.0
 40
0.0
 40
0.0
 40
0.0
 40
1.0
 40
1.0
 40
1.0
 40
2.0
 40
2.0
 40
2.0
 40
3.0
 40
3.0
 40
3.0
 40
4.0
 40
4.0
 40
4.0
 40
5.0
 40
5.0
 40
5.0
 40
6.0
 40
6.0
 40
6.0
 40
6.0
 10
11.8590521918402771
 20
-75.8775390624999915
 10
12.1499905056423607
 20
-75.4279541015624915
 10
12.0836724175347214
 20
-74.8353976779513772
 10
11.7005777994791664
 20
-74.4616048177083201
 10
11.55622829861111
 20
-74.3410264756944343
 10
11.3753607855902761
 20
-74.2735026041666657
 10
11.1872585720486093
 20
-74.2693684895833286
 10
10.9991563585069443
 20
-74.2735026041666657
 10
10.8182888454861104
 20
-74.3410264756944343
 10
10.6739393446180539
 20
-74.4616048177083201
 10
10.2908447265624989
 20
-74.8353976779513772
 10
10.2245266384548597
 20
-75.4279541015624915
 10
10.5156372070312489
 20
-75.8775390624999915
 10
10.6704942491319432
 20
-76.0952690972222143
 10
10.9199191623263872
 20
-76.22549370659722
 10
11.1872585720486093
 20
-76.2299723307291544
 10
11.4542534722222218
 20
-76.22549370659722
 10
11.7036783854166657
 20
-76.0952690972222143
 10
11.8590521918402771
 20
-75.8775390624999915
 97
        0
 92
        1
 93
        1
 72
     4
 94
        3
 73
     0
 74
     0
 95
       29
 96
       25
 40
0.0
 40
0.0
 40
0.0
 40
0.0
 40
1.0
 40
1.0
 40
1.0
 40
2.0
 40
2.0
 40
2.0
 40
3.0
 40
3.0
 40
3.0
 40
4.0
 40
4.0
 40
4.0
 40
5.0
 40
5.0
 40
5.0
 40
6.0
 40
6.0
 40
6.0
 40
7.0
 40
7.0
 40
7.0
 40
8.0
 40
8.0
 40
8.0
 40
8.0
 10
9.6893310546875
 20
-75.5609347873263886
 10
9.6640096028645832
 20
-75.62914767795138
 10
9.6280083550347211
 20
-75.6932264539930486
 10
9.5825330946180554
 20
-75.7504150390624886
 10
9.5036404079861097
 20
-75.8506673177083286
 10
9.3851291232638872
 20
-75.91061197916666
 10
9.2574883355034707
 20
-75.9157796223958314
 10
9.1301920572916657
 20
-75.91061197916666
 10
9.0113362630208318
 20
-75.8506673177083286
 10
8.9327880859374993
 20
-75.7504150390624886
 10
8.8869683159722221
 20
-75.6932264539930486
 10
8.8507948133680543
 20
-75.62914767795138
 10
8.8253011067708318
 20
-75.5609347873263886
 10
8.7329725477430546
 20
-75.2960069444444429
 10
8.7691460503472207
 20
-75.0028293185763886
 10
8.9238308376736111
 20
-74.76821831597222
 10
9.001517740885415
 20
-74.6603868272569429
 10
9.1246799045138882
 20
-74.5942409939236057
 10
9.2574883355034707
 20
-74.5894178602430458
 10
9.3906412760416664
 20
-74.5942409939236057
 10
9.5136311848958321
 20
-74.6603868272569429
 10
9.5914903428819436
 20
-74.76821831597222
 10
9.7458306206597207
 20
-75.0028293185763886
 10
9.7823486328124982
 20
-75.2960069444444429
 10
9.6893310546875
 20
-75.5609347873263886
 97
        0
 92
       16
 93
        1
 72
     4
 94
        3
 73
     0
 74
     0
 95
       23
 96
       19
 40
0.0
 40
0.0
 40
0.0
 40
0.0
 40
1.0
 40
1.0
 40
1.0
 40
2.0
 40
2.0
 40
2.0
 40
3.0
 40
3.0
 40
3.0
 40
4.0
 40
4.0
 40
4.0
 40
5.0
 40
5.0
 40
5.0
 40
6.0
 40
6.0
 40
6.0
 40
6.0
 10
9.9294542100694443
 20
-75.8775390624999915
 10
10.2202202690972221
 20
-75.4279541015624915
 10
10.1540744357638886
 20
-74.8353976779513772
 10
9.7709798177083318
 20
-74.4616048177083201
 10
9.6266303168402771
 20
-74.3410264756944343
 10
9.4455905490451375
 20
-74.2735026041666657
 10
9.2574883355034707
 20
-74.2693684895833286
 10
9.0695583767361097
 20
-74.2735026041666657
 10
8.8886908637152775
 20
-74.3410264756944343
 10
8.7443413628472211
 20
-74.4616048177083201
 10
8.3612467447916661
 20
-74.8353976779513772
 10
8.2947564019097211
 20
-75.4279541015624915
 10
8.5858669704861104
 20
-75.8775390624999915
 10
8.7408962673611104
 20
-76.0952690972222143
 10
8.9899766710069429
 20
-76.22549370659722
 10
9.2574883355034707
 20
-76.2299723307291544
 10
9.5246554904513872
 20
-76.22549370659722
 10
9.7740804036458329
 20
-76.0952690972222143
 10
9.9294542100694443
 20
-75.8775390624999915
 97
        0
 92
       16
 93
        1
 72
     4
 94
        3
 73
     0
 74
     0
 95
       23
 96
       19
 40
0.0
 40
0.0
 40
0.0
 40
0.0
 40
1.0
 40
1.0
 40
1.0
 40
2.0
 40
2.0
 40
2.0
 40
3.0
 40
3.0
 40
3.0
 40
4.0
 40
4.0
 40
4.0
 40
5.0
 40
5.0
 40
5.0
 40
6.0
 40
6.0
 40
6.0
 40
6.0
 10
7.0252387152777773
 20
-74.35205078125
 10
7.0252387152777773
 20
-74.35205078125
 10
7.0252387152777773
 20
-76.1524576822916544
 10
7.0252387152777773
 20
-76.1524576822916544
 10
7.0252387152777773
 20
-76.1524576822916544
 10
8.2789089626736097
 20
-76.1524576822916544
 10
8.2789089626736097
 20
-76.1524576822916544
 10
8.2789089626736097
 20
-76.1524576822916544
 10
8.2789089626736097
 20
-75.84860026041666
 10
8.2789089626736097
 20
-75.84860026041666
 10
8.2789089626736097
 20
-75.84860026041666
 10
7.3983425564236107
 20
-75.84860026041666
 10
7.3983425564236107
 20
-75.84860026041666
 10
7.3983425564236107
 20
-75.84860026041666
 10
7.3983425564236107
 20
-74.35205078125
 10
7.3983425564236107
 20
-74.35205078125
 10
7.3983425564236107
 20
-74.35205078125
 10
7.0252387152777773
 20
-74.35205078125
 10
7.0252387152777773
 20
-74.35205078125
 97
        0
 75
     2
 76
     1
 98
        1
 10
0.0
 20
0.0
  0
HATCH
  5
9C
100
AcDbEntity
  8
SILK_
390
0
 62
     7
100
AcDbHatch
 10
0.0
 20
0.0
 30
0.0
210
0.0
220
0.0
230
1.0
  2
SOLID
 70
     1
 71
     0
 91
        6
 92
       16
 93
        1
 72
     4
 94
        3
 73
     0
 74
     0
 95
       41
 96
       37
 40
0.0
 40
0.0
 40
0.0
 40
0.0
 40
1.0
 40
1.0
 40
1.0
 40
2.0
 40
2.0
 40
2.0
 40
3.0
 40
3.0
 40
3.0
 40
4.0
 40
4.0
 40
4.0
 40
5.0
 40
5.0
 40
5.0
 40
6.0
 40
6.0
 40
6.0
 40
7.0
 40
7.0
 40
7.0
 40
8.0
 40
8.0
 40
8.0
 40
9.0
 40
9.0
 40
9.0
 40
10.0
 40
10.0
 40
10.0
 40
11.0
 40
11.0
 40
11.0
 40
12.0
 40
12.0
 40
12.0
 40
12.0
 10
31.9887451171874986
 20
-86.3609646267361057
 10
31.9887451171874986
 20
-86.3609646267361057
 10
31.9887451171874986
 20
-85.8049262152777743
 10
31.9887451171874986
 20
-85.8049262152777743
 10
31.9887451171874986
 20
-85.8049262152777743
 10
31.7072808159722186
 20
-85.8049262152777743
 10
31.7072808159722186
 20
-85.8049262152777743
 10
31.7072808159722186
 20
-85.8049262152777743
 10
31.7072808159722186
 20
-87.2029459635416657
 10
31.7072808159722186
 20
-87.2029459635416657
 10
31.7072808159722186
 20
-87.2029459635416657
 10
31.9939127604166629
 20
-87.2029459635416657
 10
31.9939127604166629
 20
-87.2029459635416657
 10
31.9939127604166629
 20
-87.2029459635416657
 10
31.9939127604166629
 20
-86.7130533854166572
 10
31.9939127604166629
 20
-86.7130533854166572
 10
31.9939127604166629
 20
-86.7130533854166572
 10
32.1423963758680529
 20
-86.5569905598958229
 10
32.1423963758680529
 20
-86.5569905598958229
 10
32.1423963758680529
 20
-86.5569905598958229
 10
32.5771674262152757
 20
-87.1974338107638829
 10
32.5771674262152757
 20
-87.1974338107638829
 10
32.5771674262152757
 20
-87.1974338107638829
 10
32.9178873697916643
 20
-87.1974338107638829
 10
32.9178873697916643
 20
-87.1974338107638829
 10
32.9178873697916643
 20
-87.1974338107638829
 10
32.3380777994791657
 20
-86.3640652126736086
 10
32.3380777994791657
 20
-86.3640652126736086
 10
32.3380777994791657
 20
-86.3640652126736086
 10
32.8603542751736057
 20
-85.80148111979166
 10
32.8603542751736057
 20
-85.80148111979166
 10
32.8603542751736057
 20
-85.80148111979166
 10
32.5058539496527743
 20
-85.80148111979166
 10
32.5058539496527743
 20
-85.80148111979166
 10
32.5058539496527743
 20
-85.80148111979166
 10
31.9887451171874986
 20
-86.3609646267361057
 10
31.9887451171874986
 20
-86.3609646267361057
 97
        0
 92
        1
 93
        1
 72
     4
 94
        3
 73
     0
 74
     0
 95
       14
 96
       10
 40
0.0
 40
0.0
 40
0.0
 40
0.0
 40
1.0
 40
1.0
 40
1.0
 40
2.0
 40
2.0
 40
2.0
 40
3.0
 40
3.0
 40
3.0
 40
3.0
 10
30.914908854166665
 20
-86.0870795355902629
 10
30.914908854166665
 20
-86.0870795355902629
 10
31.0999104817708307
 20
-86.6920383029513744
 10
31.0999104817708307
 20
-86.6920383029513744
 10
31.0999104817708307
 20
-86.6920383029513744
 10
30.7254286024305543
 20
-86.6920383029513744
 10
30.7254286024305543
 20
-86.6920383029513744
 10
30.7254286024305543
 20
-86.6920383029513744
 10
30.914908854166665
 20
-86.0870795355902629
 10
30.914908854166665
 20
-86.0870795355902629
 97
        0
 92
       16
 93
        1
 72
     4
 94
        3
 73
     0
 74
     0
 95
       29
 96
       25
 40
0.0
 40
0.0
 40
0.0
 40
0.0
 40
1.0
 40
1.0
 40
1.0
 40
2.0
 40
2.0
 40
2.0
 40
3.0
 40
3.0
 40
3.0
 40
4.0
 40
4.0
 40
4.0
 40
5.0
 40
5.0
 40
5.0
 40
6.0
 40
6.0
 40
6.0
 40
7.0
 40
7.0
 40
7.0
 40
8.0
 40
8.0
 40
8.0
 40
8.0
 10
30.76194661458333
 20
-85.8049262152777743
 10
30.76194661458333
 20
-85.8049262152777743
 10
30.2692979600694407
 20
-87.2029459635416657
 10
30.2692979600694407
 20
-87.2029459635416657
 10
30.2692979600694407
 20
-87.2029459635416657
 10
30.5662651909722207
 20
-87.2029459635416657
 10
30.5662651909722207
 20
-87.2029459635416657
 10
30.5662651909722207
 20
-87.2029459635416657
 10
30.6596272786458321
 20
-86.9059787326388857
 10
30.6596272786458321
 20
-86.9059787326388857
 10
30.6596272786458321
 20
-86.9059787326388857
 10
31.1653672960069414
 20
-86.9059787326388857
 10
31.1653672960069414
 20
-86.9059787326388857
 10
31.1653672960069414
 20
-86.9059787326388857
 10
31.2587293836805529
 20
-87.2001898871527743
 10
31.2587293836805529
 20
-87.2001898871527743
 10
31.2587293836805529
 20
-87.2001898871527743
 10
31.5529405381944414
 20
-87.2001898871527743
 10
31.5529405381944414
 20
-87.2001898871527743
 10
31.5529405381944414
 20
-87.2001898871527743
 10
31.0671820746527736
 20
-85.8049262152777743
 10
31.0671820746527736
 20
-85.8049262152777743
 10
31.0671820746527736
 20
-85.8049262152777743
 10
30.76194661458333
 20
-85.8049262152777743
 10
30.76194661458333
 20
-85.8049262152777743
 97
        0
 92
       16
 93
        1
 72
     4
 94
        3
 73
     0
 74
     0
 95
       41
 96
       37
 40
0.0
 40
0.0
 40
0.0
 40
0.0
 40
1.0
 40
1.0
 40
1.0
 40
2.0
 40
2.0
 40
2.0
 40
3.0
 40
3.0
 40
3.0
 40
4.0
 40
4.0
 40
4.0
 40
5.0
 40
5.0
 40
5.0
 40
6.0
 40
6.0
 40
6.0
 40
7.0
 40
7.0
 40
7.0
 40
8.0
 40
8.0
 40
8.0
 40
9.0
 40
9.0
 40
9.0
 40
10.0
 40
10.0
 40
10.0
 40
11.0
 40
11.0
 40
11.0
 40
12.0
 40
12.0
 40
12.0
 40
12.0
 10
29.0642035590277743
 20
-85.8049262152777743
 10
29.0642035590277743
 20
-85.8049262152777743
 10
29.0642035590277743
 20
-87.2029459635416657
 10
29.0642035590277743
 20
-87.2029459635416657
 10
29.0642035590277743
 20
-87.2029459635416657
 10
30.1084120008680536
 20
-87.2029459635416657
 10
30.1084120008680536
 20
-87.2029459635416657
 10
30.1084120008680536
 20
-87.2029459635416657
 10
30.1084120008680536
 20
-86.9676459418402743
 10
30.1084120008680536
 20
-86.9676459418402743
 10
30.1084120008680536
 20
-86.9676459418402743
 10
29.3487684461805536
 20
-86.9676459418402743
 10
29.3487684461805536
 20
-86.9676459418402743
 10
29.3487684461805536
 20
-86.9676459418402743
 10
29.3487684461805536
 20
-86.5848958333333201
 10
29.3487684461805536
 20
-86.5848958333333201
 10
29.3487684461805536
 20
-86.5848958333333201
 10
30.0036810980902757
 20
-86.5848958333333201
 10
30.0036810980902757
 20
-86.5848958333333201
 10
30.0036810980902757
 20
-86.5848958333333201
 10
30.0036810980902757
 20
-86.3475287543402743
 10
30.0036810980902757
 20
-86.3475287543402743
 10
30.0036810980902757
 20
-86.3475287543402743
 10
29.3504909939236072
 20
-86.3475287543402743
 10
29.3504909939236072
 20
-86.3475287543402743
 10
29.3504909939236072
 20
-86.3475287543402743
 10
29.3504909939236072
 20
-86.0422932942708201
 10
29.3504909939236072
 20
-86.0422932942708201
 10
29.3504909939236072
 20
-86.0422932942708201
 10
30.09773220486111
 20
-86.0422932942708201
 10
30.09773220486111
 20
-86.0422932942708201
 10
30.09773220486111
 20
-86.0422932942708201
 10
30.09773220486111
 20
-85.8049262152777743
 10
30.09773220486111
 20
-85.8049262152777743
 10
30.09773220486111
 20
-85.8049262152777743
 10
29.0642035590277743
 20
-85.8049262152777743
 10
29.0642035590277743
 20
-85.8049262152777743
 97
        0
 92
        1
 93
        1
 72
     4
 94
        3
 73
     0
 74
     0
 95
       26
 96
       22
 40
0.0
 40
0.0
 40
0.0
 40
0.0
 40
1.0
 40
1.0
 40
1.0
 40
2.0
 40
2.0
 40
2.0
 40
3.0
 40
3.0
 40
3.0
 40
4.0
 40
4.0
 40
4.0
 40
5.0
 40
5.0
 40
5.0
 40
6.0
 40
6.0
 40
6.0
 40
7.0
 40
7.0
 40
7.0
 40
7.0
 10
28.0847629123263864
 20
-86.0323025173611029
 10
28.0847629123263864
 20
-86.0323025173611029
 10
28.3496907552083321
 20
-86.0323025173611029
 10
28.3496907552083321
 20
-86.0323025173611029
 10
28.4220377604166643
 20
-86.03161349826388
 10
28.4905951605902743
 20
-86.0646864149305486
 10
28.5357259114583321
 20
-86.1211859809027658
 10
28.5725884331597193
 20
-86.1680392795138772
 10
28.5891248914930536
 20
-86.2272949218749858
 10
28.5818901909722207
 20
-86.2858615451388857
 10
28.5743109809027764
 20
-86.3444281684027715
 10
28.5436496310763879
 20
-86.3978271484374858
 10
28.4967963324652764
 20
-86.4340006510416572
 10
28.4578667534722207
 20
-86.4591498480902629
 10
28.4134250217013857
 20
-86.4746527777777629
 10
28.3672607421874972
 20
-86.4780978732638772
 10
28.3672607421874972
 20
-86.4780978732638772
 10
28.0847629123263864
 20
-86.4780978732638772
 10
28.0847629123263864
 20
-86.4780978732638772
 10
28.0847629123263864
 20
-86.4780978732638772
 10
28.0847629123263864
 20
-86.0323025173611029
 10
28.0847629123263864
 20
-86.0323025173611029
 97
        0
 92
       16
 93
        1
 72
     4
 94
        3
 73
     0
 74
     0
 95
       32
 96
       28
 40
0.0
 40
0.0
 40
0.0
 40
0.0
 40
1.0
 40
1.0
 40
1.0
 40
2.0
 40
2.0
 40
2.0
 40
3.0
 40
3.0
 40
3.0
 40
4.0
 40
4.0
 40
4.0
 40
5.0
 40
5.0
 40
5.0
 40
6.0
 40
6.0
 40
6.0
 40
7.0
 40
7.0
 40
7.0
 40
8.0
 40
8.0
 40
8.0
 40
9.0
 40
9.0
 40
9.0
 40
9.0
 10
27.8005425347222186
 20
-85.7994140624999915
 10
27.8005425347222186
 20
-85.7994140624999915
 10
27.8005425347222186
 20
-87.2029459635416657
 10
27.8005425347222186
 20
-87.2029459635416657
 10
27.8005425347222186
 20
-87.2029459635416657
 10
28.0837293836805522
 20
-87.2029459635416657
 10
28.0837293836805522
 20
-87.2029459635416657
 10
28.0837293836805522
 20
-87.2029459635416657
 10
28.0837293836805522
 20
-86.7164984809027715
 10
28.0837293836805522
 20
-86.7164984809027715
 10
28.0837293836805522
 20
-86.7164984809027715
 10
28.4489095052083307
 20
-86.7075412326388744
 10
28.4489095052083307
 20
-86.7075412326388744
 10
28.6532036675347186
 20
-86.7034071180555515
 10
28.8244249131944414
 20
-86.5525119357638744
 10
28.8540527343749957
 20
-86.3506293402777629
 10
28.8671440972222193
 20
-86.2720811631944429
 10
28.8623209635416629
 20
-86.1911214192708286
 10
28.8388943142361072
 20
-86.1146402994791629
 10
28.7889404296874964
 20
-85.9403184678819372
 10
28.6346001519097193
 20
-85.8166395399305486
 10
28.4540771484374986
 20
-85.8049262152777743
 10
28.3934434678819407
 20
-85.80148111979166
 10
28.3328097873263864
 20
-85.7994140624999915
 10
28.2718315972222207
 20
-85.7994140624999915
 10
28.2718315972222207
 20
-85.7994140624999915
 10
27.8005425347222186
 20
-85.7994140624999915
 10
27.8005425347222186
 20
-85.7994140624999915
 97
        0
 75
     2
 76
     1
 98
        1
 10
0.0
 20
0.0
  0
HATCH
  5
9B
100
AcDbEntity
  8
SILK_
390
0
 62
     7
100
AcDbHatch
 10
0.0
 20
0.0
 30
0.0
210
0.0
220
0.0
230
1.0
  2
SOLID
 70
     1
 71
     0
 91
        4
 92
       16
 93
        1
 72
     4
 94
        3
 73
     0
 74
     0
 95
       53
 96
       49
 40
0.0
 40
0.0
 40
0.0
 40
0.0
 40
1.0
 40
1.0
 40
1.0
 40
2.0
 40
2.0
 40
2.0
 40
3.0
 40
3.0
 40
3.0
 40
4.0
 40
4.0
 40
4.0
 40
5.0
 40
5.0
 40
5.0
 40
6.0
 40
6.0
 40
6.0
 40
7.0
 40
7.0
 40
7.0
 40
8.0
 40
8.0
 40
8.0
 40
9.0
 40
9.0
 40
9.0
 40
10.0
 40
10.0
 40
10.0
 40
11.0
 40
11.0
 40
11.0
 40
12.0
 40
12.0
 40
12.0
 40
13.0
 40
13.0
 40
13.0
 40
14.0
 40
14.0
 40
14.0
 40
15.0
 40
15.0
 40
15.0
 40
16.0
 40
16.0
 40
16.0
 40
16.0
 10
12.8367702907986097
 20
-82.1014485677083314
 10
12.8367702907986097
 20
-82.1014485677083314
 10
12.8367702907986097
 20
-83.3978379991319372
 10
12.8367702907986097
 20
-83.3978379991319372
 10
12.8350477430555543
 20
-83.6097113715277658
 10
12.9518364800347214
 20
-83.8033257378472172
 10
13.1349433051215261
 20
-83.89220920138888
 10
13.2577609592013879
 20
-83.9500868055555429
 10
13.3903971354166647
 20
-83.9810926649305429
 10
13.5247558593749986
 20
-83.9828152126736001
 10
13.6594590928819439
 20
-83.9810926649305429
 10
13.7920952690972207
 20
-83.9500868055555429
 10
13.9150851779513882
 20
-83.89220920138888
 10
14.0980197482638872
 20
-83.8033257378472172
 10
14.2148084852430543
 20
-83.6097113715277658
 10
14.2130859374999989
 20
-83.3978379991319372
 10
14.2130859374999989
 20
-83.3978379991319372
 10
14.2130859374999989
 20
-82.1014485677083314
 10
14.2130859374999989
 20
-82.1014485677083314
 10
14.2130859374999989
 20
-82.1014485677083314
 10
13.8582411024305543
 20
-82.1014485677083314
 10
13.8582411024305543
 20
-82.1014485677083314
 10
13.8582411024305543
 20
-82.1014485677083314
 10
13.8582411024305543
 20
-83.3196343315972143
 10
13.8582411024305543
 20
-83.3196343315972143
 10
13.8582411024305543
 20
-83.3196343315972143
 10
13.8572075737847218
 20
-83.3892252604166657
 10
13.8572075737847218
 20
-83.3892252604166657
 10
13.8503173828124986
 20
-83.5056694878472143
 10
13.7790039062499989
 20
-83.6062662760416657
 10
13.6753065321180536
 20
-83.6469184027777715
 10
13.6270751953124982
 20
-83.6655219184027743
 10
13.576087782118055
 20
-83.6744791666666572
 10
13.5247558593749986
 20
-83.6737901475694343
 10
13.4737684461805536
 20
-83.6744791666666572
 10
13.4227810329861104
 20
-83.6655219184027743
 10
13.374549696180555
 20
-83.6469184027777715
 10
13.2708523220486097
 20
-83.6062662760416657
 10
13.19953884548611
 20
-83.5056694878472143
 10
13.1929931640624982
 20
-83.3892252604166657
 10
13.1929931640624982
 20
-83.3892252604166657
 10
13.19178738064236
 20
-83.3196343315972143
 10
13.19178738064236
 20
-83.3196343315972143
 10
13.19178738064236
 20
-83.3196343315972143
 10
13.19178738064236
 20
-82.1014485677083314
 10
13.19178738064236
 20
-82.1014485677083314
 10
13.19178738064236
 20
-82.1014485677083314
 10
12.8367702907986097
 20
-82.1014485677083314
 10
12.8367702907986097
 20
-82.1014485677083314
 97
        0
 92
       16
 93
        1
 72
     4
 94
        3
 73
     0
 74
     0
 95
       35
 96
       31
 40
0.0
 40
0.0
 40
0.0
 40
0.0
 40
1.0
 40
1.0
 40
1.0
 40
2.0
 40
2.0
 40
2.0
 40
3.0
 40
3.0
 40
3.0
 40
4.0
 40
4.0
 40
4.0
 40
5.0
 40
5.0
 40
5.0
 40
6.0
 40
6.0
 40
6.0
 40
7.0
 40
7.0
 40
7.0
 40
8.0
 40
8.0
 40
8.0
 40
9.0
 40
9.0
 40
9.0
 40
10.0
 40
10.0
 40
10.0
 40
10.0
 10
11.0935519748263882
 20
-82.1024820963541657
 10
11.0935519748263882
 20
-82.1024820963541657
 10
11.0935519748263882
 20
-83.9011664496527771
 10
11.0935519748263882
 20
-83.9011664496527771
 10
11.0935519748263882
 20
-83.9011664496527771
 10
11.4384060329861104
 20
-83.9011664496527771
 10
11.4384060329861104
 20
-83.9011664496527771
 10
11.4384060329861104
 20
-83.9011664496527771
 10
11.4384060329861104
 20
-82.6798800998263772
 10
11.4384060329861104
 20
-82.6798800998263772
 10
11.4384060329861104
 20
-82.6798800998263772
 10
12.1529188368055543
 20
-83.8977213541666629
 10
12.1529188368055543
 20
-83.8977213541666629
 10
12.1529188368055543
 20
-83.8977213541666629
 10
12.5118977864583325
 20
-83.8977213541666629
 10
12.5118977864583325
 20
-83.8977213541666629
 10
12.5118977864583325
 20
-83.8977213541666629
 10
12.5118977864583325
 20
-82.1028266059027771
 10
12.5118977864583325
 20
-82.1028266059027771
 10
12.5118977864583325
 20
-82.1028266059027771
 10
12.1670437282986104
 20
-82.1028266059027771
 10
12.1670437282986104
 20
-82.1028266059027771
 10
12.1670437282986104
 20
-82.1028266059027771
 10
12.1670437282986104
 20
-83.3127441406249858
 10
12.1670437282986104
 20
-83.3127441406249858
 10
12.1670437282986104
 20
-83.3127441406249858
 10
11.458732096354165
 20
-82.1024820963541657
 10
11.458732096354165
 20
-82.1024820963541657
 10
11.458732096354165
 20
-82.1024820963541657
 10
11.0935519748263882
 20
-82.1024820963541657
 10
11.0935519748263882
 20
-82.1024820963541657
 97
        0
 92
       16
 93
        1
 72
     4
 94
        3
 73
     0
 74
     0
 95
       41
 96
       37
 40
0.0
 40
0.0
 40
0.0
 40
0.0
 40
1.0
 40
1.0
 40
1.0
 40
2.0
 40
2.0
 40
2.0
 40
3.0
 40
3.0
 40
3.0
 40
4.0
 40
4.0
 40
4.0
 40
5.0
 40
5.0
 40
5.0
 40
6.0
 40
6.0
 40
6.0
 40
7.0
 40
7.0
 40
7.0
 40
8.0
 40
8.0
 40
8.0
 40
9.0
 40
9.0
 40
9.0
 40
10.0
 40
10.0
 40
10.0
 40
11.0
 40
11.0
 40
11.0
 40
12.0
 40
12.0
 40
12.0
 40
12.0
 10
9.5442925347222207
 20
-82.1035156249999858
 10
9.5442925347222207
 20
-82.1035156249999858
 10
9.5442925347222207
 20
-83.9011664496527771
 10
9.5442925347222207
 20
-83.9011664496527771
 10
9.5442925347222207
 20
-83.9011664496527771
 10
10.8196668836805543
 20
-83.9011664496527771
 10
10.8196668836805543
 20
-83.9011664496527771
 10
10.8196668836805543
 20
-83.9011664496527771
 10
10.8196668836805543
 20
-83.5986870659722143
 10
10.8196668836805543
 20
-83.5986870659722143
 10
10.8196668836805543
 20
-83.5986870659722143
 10
9.8915581597222211
 20
-83.5986870659722143
 10
9.8915581597222211
 20
-83.5986870659722143
 10
9.8915581597222211
 20
-83.5986870659722143
 10
9.8915581597222211
 20
-83.1067274305555515
 10
9.8915581597222211
 20
-83.1067274305555515
 10
9.8915581597222211
 20
-83.1067274305555515
 10
10.6920260959201379
 20
-83.1067274305555515
 10
10.6920260959201379
 20
-83.1067274305555515
 10
10.6920260959201379
 20
-83.1067274305555515
 10
10.6920260959201379
 20
-82.8014919704860972
 10
10.6920260959201379
 20
-82.8014919704860972
 10
10.6920260959201379
 20
-82.8014919704860972
 10
9.8939697265624993
 20
-82.8014919704860972
 10
9.8939697265624993
 20
-82.8014919704860972
 10
9.8939697265624993
 20
-82.8014919704860972
 10
9.8939697265624993
 20
-82.4090955946180515
 10
9.8939697265624993
 20
-82.4090955946180515
 10
9.8939697265624993
 20
-82.4090955946180515
 10
10.8069200303819439
 20
-82.4090955946180515
 10
10.8069200303819439
 20
-82.4090955946180515
 10
10.8069200303819439
 20
-82.4090955946180515
 10
10.8069200303819439
 20
-82.1035156249999858
 10
10.8069200303819439
 20
-82.1035156249999858
 10
10.8069200303819439
 20
-82.1035156249999858
 10
9.5442925347222207
 20
-82.1035156249999858
 10
9.5442925347222207
 20
-82.1035156249999858
 97
        0
 92
       16
 93
        1
 72
     4
 94
        3
 73
     0
 74
     0
 95
       44
 96
       40
 40
0.0
 40
0.0
 40
0.0
 40
0.0
 40
1.0
 40
1.0
 40
1.0
 40
2.0
 40
2.0
 40
2.0
 40
3.0
 40
3.0
 40
3.0
 40
4.0
 40
4.0
 40
4.0
 40
5.0
 40
5.0
 40
5.0
 40
6.0
 40
6.0
 40
6.0
 40
7.0
 40
7.0
 40
7.0
 40
8.0
 40
8.0
 40
8.0
 40
9.0
 40
9.0
 40
9.0
 40
10.0
 40
10.0
 40
10.0
 40
11.0
 40
11.0
 40
11.0
 40
12.0
 40
12.0
 40
12.0
 40
13.0
 40
13.0
 40
13.0
 40
13.0
 10
7.4941162109374995
 20
-82.0993815104166629
 10
7.4941162109374995
 20
-82.0993815104166629
 10
7.4941162109374995
 20
-83.9011664496527771
 10
7.4941162109374995
 20
-83.9011664496527771
 10
7.4941162109374995
 20
-83.9011664496527771
 10
7.81227077907986
 20
-83.9011664496527771
 10
7.81227077907986
 20
-83.9011664496527771
 10
7.81227077907986
 20
-83.9011664496527771
 10
7.81227077907986
 20
-82.61270073784722
 10
7.81227077907986
 20
-82.61270073784722
 10
7.81227077907986
 20
-82.61270073784722
 10
8.1710774739583325
 20
-83.8997884114583314
 10
8.1710774739583325
 20
-83.8997884114583314
 10
8.1710774739583325
 20
-83.8997884114583314
 10
8.513175455729165
 20
-83.8997884114583314
 10
8.513175455729165
 20
-83.8997884114583314
 10
8.513175455729165
 20
-83.8997884114583314
 10
8.8797336154513875
 20
-82.6106336805555515
 10
8.8797336154513875
 20
-82.6106336805555515
 10
8.8797336154513875
 20
-82.6106336805555515
 10
8.8797336154513875
 20
-83.8984103732638857
 10
8.8797336154513875
 20
-83.8984103732638857
 10
8.8797336154513875
 20
-83.8984103732638857
 10
9.2021945529513882
 20
-83.8984103732638857
 10
9.2021945529513882
 20
-83.8984103732638857
 10
9.2021945529513882
 20
-83.8984103732638857
 10
9.2021945529513882
 20
-82.10110405815972
 10
9.2021945529513882
 20
-82.10110405815972
 10
9.2021945529513882
 20
-82.10110405815972
 10
8.7016221788194432
 20
-82.10110405815972
 10
8.7016221788194432
 20
-82.10110405815972
 10
8.7016221788194432
 20
-82.10110405815972
 10
8.3488444010416654
 20
-83.3892252604166657
 10
8.3488444010416654
 20
-83.3892252604166657
 10
8.3488444010416654
 20
-83.3892252604166657
 10
7.9915879991319434
 20
-82.0993815104166629
 10
7.9915879991319434
 20
-82.0993815104166629
 10
7.9915879991319434
 20
-82.0993815104166629
 10
7.4941162109374995
 20
-82.0993815104166629
 10
7.4941162109374995
 20
-82.0993815104166629
 97
        0
 75
     2
 76
     1
 98
        1
 10
0.0
 20
0.0
  0
HATCH
  5
9A
100
AcDbEntity
  8
SILK_
390
0
 62
     7
100
AcDbHatch
 10
0.0
 20
0.0
 30
0.0
210
0.0
220
0.0
230
1.0
  2
SOLID
 70
     1
 71
     0
 91
        3
 92
       16
 93
        1
 72
     4
 94
        3
 73
     0
 74
     0
 95
       14
 96
       10
 40
0.0
 40
0.0
 40
0.0
 40
0.0
 40
1.0
 40
1.0
 40
1.0
 40
2.0
 40
2.0
 40
2.0
 40
3.0
 40
3.0
 40
3.0
 40
3.0
 10
33.6268880208333272
 20
-74.0027180989583258
 10
33.6268880208333272
 20
-74.0027180989583258
 10
31.2762993706597179
 20
-73.05807291666666
 10
31.2762993706597179
 20
-73.05807291666666
 10
31.2762993706597179
 20
-73.05807291666666
 10
31.2762993706597179
 20
-74.9473632812499915
 10
31.2762993706597179
 20
-74.9473632812499915
 10
31.2762993706597179
 20
-74.9473632812499915
 10
33.6268880208333272
 20
-74.0027180989583258
 10
33.6268880208333272
 20
-74.0027180989583258
 97
        0
 92
       16
 93
        1
 72
     4
 94
        3
 73
     0
 74
     0
 95
       14
 96
       10
 40
0.0
 40
0.0
 40
0.0
 40
0.0
 40
1.0
 40
1.0
 40
1.0
 40
2.0
 40
2.0
 40
2.0
 40
3.0
 40
3.0
 40
3.0
 40
3.0
 10
35.9581841362847214
 20
-74.0027180989583258
 10
35.9581841362847214
 20
-74.0027180989583258
 10
33.6268880208333272
 20
-73.05807291666666
 10
33.6268880208333272
 20
-73.05807291666666
 10
33.6268880208333272
 20
-73.05807291666666
 10
33.6268880208333272
 20
-74.9473632812499915
 10
33.6268880208333272
 20
-74.9473632812499915
 10
33.6268880208333272
 20
-74.9473632812499915
 10
35.9581841362847214
 20
-74.0027180989583258
 10
35.9581841362847214
 20
-74.0027180989583258
 97
        0
 92
       16
 93
        1
 72
     4
 94
        3
 73
     0
 74
     0
 95
       17
 96
       13
 40
0.0
 40
0.0
 40
0.0
 40
0.0
 40
1.0
 40
1.0
 40
1.0
 40
2.0
 40
2.0
 40
2.0
 40
3.0
 40
3.0
 40
3.0
 40
4.0
 40
4.0
 40
4.0
 40
4.0
 10
35.95783962673611
 20
-74.9473632812499915
 10
35.95783962673611
 20
-74.9473632812499915
 10
36.4301622178819429
 20
-74.9473632812499915
 10
36.4301622178819429
 20
-74.9473632812499915
 10
36.4301622178819429
 20
-74.9473632812499915
 10
36.4301622178819429
 20
-73.05807291666666
 10
36.4301622178819429
 20
-73.05807291666666
 10
36.4301622178819429
 20
-73.05807291666666
 10
35.95783962673611
 20
-73.05807291666666
 10
35.95783962673611
 20
-73.05807291666666
 10
35.95783962673611
 20
-73.05807291666666
 10
35.95783962673611
 20
-74.9473632812499915
 10
35.95783962673611
 20
-74.9473632812499915
 97
        0
 75
     2
 76
     1
 98
        1
 10
0.0
 20
0.0
  0
HATCH
  5
99
100
AcDbEntity
  8
SILK_
390
0
 62
     7
100
AcDbHatch
 10
0.0
 20
0.0
 30
0.0
210
0.0
220
0.0
230
1.0
  2
SOLID
 70
     1
 71
     0
 91
        3
 92
       16
 93
        1
 72
     4
 94
        3
 73
     0
 74
     0
 95
       17
 96
       13
 40
0.0
 40
0.0
 40
0.0
 40
0.0
 40
1.0
 40
1.0
 40
1.0
 40
2.0
 40
2.0
 40
2.0
 40
3.0
 40
3.0
 40
3.0
 40
4.0
 40
4.0
 40
4.0
 40
4.0
 10
19.2765150282118043
 20
-73.05807291666666
 10
19.2765150282118043
 20
-73.05807291666666
 10
19.2765150282118043
 20
-74.9473632812499915
 10
19.2765150282118043
 20
-74.9473632812499915
 10
19.2765150282118043
 20
-74.9473632812499915
 10
19.7486653645833314
 20
-74.9473632812499915
 10
19.7486653645833314
 20
-74.9473632812499915
 10
19.7486653645833314
 20
-74.9473632812499915
 10
19.7486653645833314
 20
-73.05807291666666
 10
19.7486653645833314
 20
-73.05807291666666
 10
19.7486653645833314
 20
-73.05807291666666
 10
19.2765150282118043
 20
-73.05807291666666
 10
19.2765150282118043
 20
-73.05807291666666
 97
        0
 92
       16
 93
        1
 72
     4
 94
        3
 73
     0
 74
     0
 95
       14
 96
       10
 40
0.0
 40
0.0
 40
0.0
 40
0.0
 40
1.0
 40
1.0
 40
1.0
 40
2.0
 40
2.0
 40
2.0
 40
3.0
 40
3.0
 40
3.0
 40
3.0
 10
19.7486653645833314
 20
-74.0027180989583258
 10
19.7486653645833314
 20
-74.0027180989583258
 10
22.0796169704861107
 20
-74.9473632812499915
 10
22.0796169704861107
 20
-74.9473632812499915
 10
22.0796169704861107
 20
-74.9473632812499915
 10
22.0796169704861107
 20
-73.05807291666666
 10
22.0796169704861107
 20
-73.05807291666666
 10
22.0796169704861107
 20
-73.05807291666666
 10
19.7486653645833314
 20
-74.0027180989583258
 10
19.7486653645833314
 20
-74.0027180989583258
 97
        0
 92
       16
 93
        1
 72
     4
 94
        3
 73
     0
 74
     0
 95
       14
 96
       10
 40
0.0
 40
0.0
 40
0.0
 40
0.0
 40
1.0
 40
1.0
 40
1.0
 40
2.0
 40
2.0
 40
2.0
 40
3.0
 40
3.0
 40
3.0
 40
3.0
 10
22.0796169704861107
 20
-74.0027180989583258
 10
22.0796169704861107
 20
-74.0027180989583258
 10
24.43020562065972
 20
-74.9473632812499915
 10
24.43020562065972
 20
-74.9473632812499915
 10
24.43020562065972
 20
-74.9473632812499915
 10
24.43020562065972
 20
-73.05807291666666
 10
24.43020562065972
 20
-73.05807291666666
 10
24.43020562065972
 20
-73.05807291666666
 10
22.0796169704861107
 20
-74.0027180989583258
 10
22.0796169704861107
 20
-74.0027180989583258
 97
        0
 75
     2
 76
     1
 98
        1
 10
0.0
 20
0.0
  0
HATCH
  5
98
100
AcDbEntity
  8
SILK_
390
0
 62
     7
100
AcDbHatch
 10
0.0
 20
0.0
 30
0.0
210
0.0
220
0.0
230
1.0
  2
SOLID
 70
     1
 71
     0
 91
        1
 92
        1
 93
        1
 72
     4
 94
        3
 73
     0
 74
     0
 95
       17
 96
       13
 40
0.0
 40
0.0
 40
0.0
 40
0.0
 40
1.0
 40
1.0
 40
1.0
 40
2.0
 40
2.0
 40
2.0
 40
3.0
 40
3.0
 40
3.0
 40
4.0
 40
4.0
 40
4.0
 40
4.0
 10
42.6871446397569372
 20
-89.0026638454860972
 10
42.6871446397569372
 20
-88.2661024305555486
 10
42.0901095920138886
 20
-87.6687228732638744
 10
41.3535481770833329
 20
-87.6687228732638744
 10
40.6169867621527771
 20
-87.6687228732638744
 10
40.0202962239583329
 20
-88.2661024305555486
 10
40.0202962239583329
 20
-89.0026638454860972
 10
40.0202962239583329
 20
-89.7385362413194372
 10
40.6169867621527771
 20
-90.3359157986110972
 10
41.3535481770833329
 20
-90.3359157986110972
 10
42.0901095920138886
 20
-90.3359157986110972
 10
42.6871446397569372
 20
-89.7385362413194372
 10
42.6871446397569372
 20
-89.0026638454860972
 97
        0
 75
     2
 76
     1
 98
        1
 10
0.0
 20
0.0
  0
HATCH
  5
97
100
AcDbEntity
  8
SILK_
390
0
 62
     7
100
AcDbHatch
 10
0.0
 20
0.0
 30
0.0
210
0.0
220
0.0
230
1.0
  2
SOLID
 70
     1
 71
     0
 91
        8
 92
       16
 93
        1
 72
     4
 94
        3
 73
     0
 74
     0
 95
       44
 96
       40
 40
0.0
 40
0.0
 40
0.0
 40
0.0
 40
1.0
 40
1.0
 40
1.0
 40
2.0
 40
2.0
 40
2.0
 40
3.0
 40
3.0
 40
3.0
 40
4.0
 40
4.0
 40
4.0
 40
5.0
 40
5.0
 40
5.0
 40
6.0
 40
6.0
 40
6.0
 40
7.0
 40
7.0
 40
7.0
 40
8.0
 40
8.0
 40
8.0
 40
9.0
 40
9.0
 40
9.0
 40
10.0
 40
10.0
 40
10.0
 40
11.0
 40
11.0
 40
11.0
 40
12.0
 40
12.0
 40
12.0
 40
13.0
 40
13.0
 40
13.0
 40
13.0
 10
36.1728135850694414
 20
-21.5029079861111079
 10
36.1728135850694414
 20
-21.5029079861111079
 10
36.1728135850694414
 20
-25.5026638454861079
 10
36.1728135850694414
 20
-25.5026638454861079
 10
36.1728135850694414
 20
-25.5026638454861079
 10
37.0988552517361043
 20
-25.5026638454861079
 10
37.0988552517361043
 20
-25.5026638454861079
 10
37.0988552517361043
 20
-25.5026638454861079
 10
37.0988552517361043
 20
-22.9622504340277764
 10
37.0988552517361043
 20
-22.9622504340277764
 10
37.0988552517361043
 20
-22.9622504340277764
 10
38.1089572482638843
 20
-25.5026638454861079
 10
38.1089572482638843
 20
-25.5026638454861079
 10
38.1089572482638843
 20
-25.5026638454861079
 10
38.8427625868055486
 20
-25.5026638454861079
 10
38.8427625868055486
 20
-25.5026638454861079
 10
38.8427625868055486
 20
-25.5026638454861079
 10
39.8790473090277757
 20
-22.9622504340277764
 10
39.8790473090277757
 20
-22.9622504340277764
 10
39.8790473090277757
 20
-22.9622504340277764
 10
39.8790473090277757
 20
-25.5026638454861079
 10
39.8790473090277757
 20
-25.5026638454861079
 10
39.8790473090277757
 20
-25.5026638454861079
 10
40.8126681857638829
 20
-25.5026638454861079
 10
40.8126681857638829
 20
-25.5026638454861079
 10
40.8126681857638829
 20
-25.5026638454861079
 10
40.8126681857638829
 20
-21.5029079861111079
 10
40.8126681857638829
 20
-21.5029079861111079
 10
40.8126681857638829
 20
-21.5029079861111079
 10
39.5331597222222157
 20
-21.5029079861111079
 10
39.5331597222222157
 20
-21.5029079861111079
 10
39.5331597222222157
 20
-21.5029079861111079
 10
38.4768934461805543
 20
-24.16665581597222
 10
38.4768934461805543
 20
-24.16665581597222
 10
38.4768934461805543
 20
-24.16665581597222
 10
37.3885877821180515
 20
-21.5029079861111079
 10
37.3885877821180515
 20
-21.5029079861111079
 10
37.3885877821180515
 20
-21.5029079861111079
 10
36.1728135850694414
 20
-21.5029079861111079
 10
36.1728135850694414
 20
-21.5029079861111079
 97
        0
 92
        1
 93
        1
 72
     4
 94
        3
 73
     0
 74
     0
 95
       14
 96
       10
 40
0.0
 40
0.0
 40
0.0
 40
0.0
 40
1.0
 40
1.0
 40
1.0
 40
2.0
 40
2.0
 40
2.0
 40
3.0
 40
3.0
 40
3.0
 40
3.0
 10
33.6627170138888872
 20
-22.51438802083333
 10
33.6627170138888872
 20
-22.51438802083333
 10
34.2428710937499972
 20
-23.8283474392361079
 10
34.2428710937499972
 20
-23.8283474392361079
 10
34.2428710937499972
 20
-23.8283474392361079
 10
33.0488009982638857
 20
-23.8283474392361079
 10
33.0488009982638857
 20
-23.8283474392361079
 10
33.0488009982638857
 20
-23.8283474392361079
 10
33.6627170138888872
 20
-22.51438802083333
 10
33.6627170138888872
 20
-22.51438802083333
 97
        0
 92
       16
 93
        1
 72
     4
 94
        3
 73
     0
 74
     0
 95
       29
 96
       25
 40
0.0
 40
0.0
 40
0.0
 40
0.0
 40
1.0
 40
1.0
 40
1.0
 40
2.0
 40
2.0
 40
2.0
 40
3.0
 40
3.0
 40
3.0
 40
4.0
 40
4.0
 40
4.0
 40
5.0
 40
5.0
 40
5.0
 40
6.0
 40
6.0
 40
6.0
 40
7.0
 40
7.0
 40
7.0
 40
8.0
 40
8.0
 40
8.0
 40
8.0
 10
33.1225260416666671
 20
-21.5029079861111079
 10
33.1225260416666671
 20
-21.5029079861111079
 10
31.2246229383680536
 20
-25.5026638454861079
 10
31.2246229383680536
 20
-25.5026638454861079
 10
31.2246229383680536
 20
-25.5026638454861079
 10
32.2750325520833314
 20
-25.5026638454861079
 10
32.2750325520833314
 20
-25.5026638454861079
 10
32.2750325520833314
 20
-25.5026638454861079
 10
32.6429687499999943
 20
-24.70271267361111
 10
32.6429687499999943
 20
-24.70271267361111
 10
32.6429687499999943
 20
-24.70271267361111
 10
34.6307888454861086
 20
-24.70271267361111
 10
34.6307888454861086
 20
-24.70271267361111
 10
34.6307888454861086
 20
-24.70271267361111
 10
34.98287760416666
 20
-25.5026638454861079
 10
34.98287760416666
 20
-25.5026638454861079
 10
34.98287760416666
 20
-25.5026638454861079
 10
36.0408664279513857
 20
-25.5026638454861079
 10
36.0408664279513857
 20
-25.5026638454861079
 10
36.0408664279513857
 20
-25.5026638454861079
 10
34.21668836805555
 20
-21.5029079861111079
 10
34.21668836805555
 20
-21.5029079861111079
 10
34.21668836805555
 20
-21.5029079861111079
 10
33.1225260416666671
 20
-21.5029079861111079
 10
33.1225260416666671
 20
-21.5029079861111079
 97
        0
 92
       16
 93
        1
 72
     4
 94
        3
 73
     0
 74
     0
 95
       47
 96
       43
 40
0.0
 40
0.0
 40
0.0
 40
0.0
 40
1.0
 40
1.0
 40
1.0
 40
2.0
 40
2.0
 40
2.0
 40
3.0
 40
3.0
 40
3.0
 40
4.0
 40
4.0
 40
4.0
 40
5.0
 40
5.0
 40
5.0
 40
6.0
 40
6.0
 40
6.0
 40
7.0
 40
7.0
 40
7.0
 40
8.0
 40
8.0
 40
8.0
 40
9.0
 40
9.0
 40
9.0
 40
10.0
 40
10.0
 40
10.0
 40
11.0
 40
11.0
 40
11.0
 40
12.0
 40
12.0
 40
12.0
 40
13.0
 40
13.0
 40
13.0
 40
14.0
 40
14.0
 40
14.0
 40
14.0
 10
31.4626790364583293
 20
-22.5867350260416657
 10
31.2311686197916636
 20
-22.1743570963541643
 10
30.8787353515624972
 20
-21.8425944010416657
 10
30.4529215494791643
 20
-21.6365776909722207
 10
29.72979600694444
 20
-21.3161838107638886
 10
28.9009060329861072
 20
-21.3389214409722214
 10
28.1967285156249972
 20
-21.6985894097222207
 10
27.4122802734374957
 20
-22.0975314670138872
 10
26.96614040798611
 20
-22.9491590711805529
 10
27.0846516927083307
 20
-23.8214572482638864
 10
27.2031629774305515
 20
-24.69375542534722
 10
27.8604871961805536
 20
-25.3951768663194422
 10
28.7227945963541629
 20
-25.5705322265624986
 10
29.1293158637152736
 20
-25.6501139322916636
 10
29.5472059461805543
 20
-25.6480468749999986
 10
29.9530381944444422
 20
-25.5646755642361079
 10
30.6241427951388872
 20
-25.417914496527775
 10
31.1980957031249986
 20
-24.9845214843749979
 10
31.5229682074652757
 20
-24.3785291883680522
 10
31.5229682074652757
 20
-24.3785291883680522
 10
30.6544596354166643
 20
-24.106711154513885
 10
30.6544596354166643
 20
-24.106711154513885
 10
30.4825493706597186
 20
-24.3778401692708329
 10
30.2300238715277736
 20
-24.5890245225694422
 10
29.9327121310763857
 20
-24.7102918836805543
 10
29.5255018446180522
 20
-24.8794460720486086
 10
29.0642035590277743
 20
-24.8618760850694436
 10
28.6711181640624986
 20
-24.66274956597222
 10
28.2759657118055543
 20
-24.4681016710069414
 10
28.0100043402777743
 20
-24.0822509765624986
 10
27.9690077039930536
 20
-23.644034830729165
 10
27.9276665581597214
 20
-23.20547417534722
 10
28.1171468098958321
 20
-22.7772488064236107
 10
28.4688910590277757
 20
-22.5126654730902764
 10
28.8991834852430536
 20
-22.1871039496527764
 10
29.4696912977430543
 20
-22.1133789062499986
 10
29.9688856336805536
 20
-22.3183620876736093
 10
30.2379475911458293
 20
-22.4389404296874986
 10
30.4646348741319422
 20
-22.6377224392361107
 10
30.6189751519097193
 20
-22.8885253906249986
 10
30.6189751519097193
 20
-22.8885253906249986
 10
31.4626790364583293
 20
-22.5867350260416657
 10
31.4626790364583293
 20
-22.5867350260416657
 97
        0
 92
       16
 93
        1
 72
     4
 94
        3
 73
     0
 74
     0
 95
       83
 96
       79
 40
0.0
 40
0.0
 40
0.0
 40
0.0
 40
1.0
 40
1.0
 40
1.0
 40
2.0
 40
2.0
 40
2.0
 40
3.0
 40
3.0
 40
3.0
 40
4.0
 40
4.0
 40
4.0
 40
5.0
 40
5.0
 40
5.0
 40
6.0
 40
6.0
 40
6.0
 40
7.0
 40
7.0
 40
7.0
 40
8.0
 40
8.0
 40
8.0
 40
9.0
 40
9.0
 40
9.0
 40
10.0
 40
10.0
 40
10.0
 40
11.0
 40
11.0
 40
11.0
 40
12.0
 40
12.0
 40
12.0
 40
13.0
 40
13.0
 40
13.0
 40
14.0
 40
14.0
 40
14.0
 40
15.0
 40
15.0
 40
15.0
 40
16.0
 40
16.0
 40
16.0
 40
17.0
 40
17.0
 40
17.0
 40
18.0
 40
18.0
 40
18.0
 40
19.0
 40
19.0
 40
19.0
 40
20.0
 40
20.0
 40
20.0
 40
21.0
 40
21.0
 40
21.0
 40
22.0
 40
22.0
 40
22.0
 40
23.0
 40
23.0
 40
23.0
 40
24.0
 40
24.0
 40
24.0
 40
25.0
 40
25.0
 40
25.0
 40
26.0
 40
26.0
 40
26.0
 40
26.0
 10
26.6309326171874972
 20
-22.1347384982638857
 10
26.3467122395833293
 20
-21.8663655598958329
 10
26.0108154296874972
 20
-21.6600043402777764
 10
25.6428792317708307
 20
-21.5287462022569436
 10
25.1874376085069436
 20
-21.3823296440972186
 10
24.7058132595486093
 20
-21.33616536458333
 10
24.230734592013885
 20
-21.3926649305555543
 10
23.9375569661458307
 20
-21.4298719618055529
 10
23.6523030598958321
 20
-21.5180664062499964
 10
23.3887532552083321
 20
-21.6524251302083321
 10
23.02839626736111
 20
-21.8405273437499972
 10
22.8058430989583307
 20
-22.2167317708333307
 10
22.8148003472222207
 20
-22.6232530381944414
 10
22.8241021050347186
 20
-23.0297743055555522
 10
23.063880750868055
 20
-23.3956434461805536
 10
23.4328504774305522
 20
-23.566520182291665
 10
23.6891655815972193
 20
-23.6932996961805529
 10
23.9692518446180536
 20
-23.7646131727430543
 10
24.2548502604166636
 20
-23.7766710069444436
 10
24.2548502604166636
 20
-23.7766710069444436
 10
25.5705322265624986
 20
-23.91860894097222
 10
25.5705322265624986
 20
-23.91860894097222
 10
25.6873209635416657
 20
-23.9330783420138857
 10
25.7927408854166629
 20
-23.9950900607638857
 10
25.8606092664930536
 20
-24.0908637152777771
 10
25.9215874565972193
 20
-24.1759575737847214
 10
25.9432915581597214
 20
-24.2824110243055529
 10
25.9208984374999964
 20
-24.3850748697916657
 10
25.898505316840275
 20
-24.4870496961805522
 10
25.8337375217013872
 20
-24.5745551215277764
 10
25.7427870008680522
 20
-24.6262315538194407
 10
25.2504828559027743
 20
-24.8949490017361086
 10
24.6651611328124964
 20
-24.9321560329861072
 10
24.1425401475694414
 20
-24.7288953993055536
 10
23.8262803819444429
 20
-24.6062499999999993
 10
23.5472276475694429
 20
-24.403678385416665
 10
23.3325981987847193
 20
-24.1404730902777764
 10
23.3325981987847193
 20
-24.1404730902777764
 10
22.5967258029513864
 20
-24.6448350694444436
 10
22.5967258029513864
 20
-24.6448350694444436
 10
22.8499403211805543
 20
-25.0241400824652764
 10
23.2166707356770807
 20
-25.3131835937499972
 10
23.6448961046006936
 20
-25.470968967013885
 10
24.4763699001736086
 20
-25.75691189236111
 10
25.3858751085069407
 20
-25.7172932942708314
 10
26.1889268663194414
 20
-25.358314344618055
 10
26.589591471354165
 20
-25.1664225260416643
 10
26.8479736328124972
 20
-24.76472439236111
 10
26.8569308810763872
 20
-24.3203070746527743
 10
26.8658881293402736
 20
-23.8758897569444422
 10
26.6233534071180529
 20
-23.464545355902775
 10
26.2309570312499964
 20
-23.256461588541665
 10
26.029074435763885
 20
-23.1503526475694414
 10
25.8092773437499972
 20
-23.0821397569444429
 10
25.5829345703124993
 20
-23.0566460503472186
 10
25.5829345703124993
 20
-23.0566460503472186
 10
24.4009223090277771
 20
-22.9246988932291629
 10
24.4009223090277771
 20
-22.9246988932291629
 10
24.248649088541665
 20
-22.9122965494791657
 10
24.0977539062499986
 20
-22.8850802951388879
 10
23.9509928385416657
 20
-22.84236111111111
 10
23.8552191840277743
 20
-22.8182454427083314
 10
23.7825276692708307
 20
-22.74038628472222
 10
23.7649576822916657
 20
-22.642890082465275
 10
23.7470431857638857
 20
-22.5460828993055529
 10
23.7876953124999986
 20
-22.4468641493055543
 10
23.8689995659722207
 20
-22.39036458333333
 10
23.9823432074652771
 20
-22.3118164062499993
 10
24.1122233072916643
 20
-22.2580729166666629
 10
24.2489935980902764
 20
-22.2346462673611107
 10
24.6134847005208321
 20
-22.1705674913194422
 10
24.9876220703124972
 20
-22.1864149305555536
 10
25.34487847222222
 20
-22.2828776041666643
 10
25.5874131944444407
 20
-22.3783067491319407
 10
25.8082438151041629
 20
-22.521278211805555
 10
25.9946234809027743
 20
-22.7024902343749986
 10
25.9946234809027743
 20
-22.7024902343749986
 10
26.6309326171874972
 20
-22.1347384982638857
 10
26.6309326171874972
 20
-22.1347384982638857
 97
        0
 92
        1
 93
        1
 72
     4
 94
        3
 73
     0
 74
     0
 95
       14
 96
       10
 40
0.0
 40
0.0
 40
0.0
 40
0.0
 40
1.0
 40
1.0
 40
1.0
 40
2.0
 40
2.0
 40
2.0
 40
3.0
 40
3.0
 40
3.0
 40
3.0
 10
20.35293511284722
 20
-22.51438802083333
 10
20.35293511284722
 20
-22.51438802083333
 10
20.9327446831597186
 20
-23.8283474392361079
 10
20.9327446831597186
 20
-23.8283474392361079
 10
20.9327446831597186
 20
-23.8283474392361079
 10
19.7386745876736107
 20
-23.8283474392361079
 10
19.7386745876736107
 20
-23.8283474392361079
 10
19.7386745876736107
 20
-23.8283474392361079
 10
20.35293511284722
 20
-22.51438802083333
 10
20.35293511284722
 20
-22.51438802083333
 97
        0
 92
       16
 93
        1
 72
     4
 94
        3
 73
     0
 74
     0
 95
       29
 96
       25
 40
0.0
 40
0.0
 40
0.0
 40
0.0
 40
1.0
 40
1.0
 40
1.0
 40
2.0
 40
2.0
 40
2.0
 40
3.0
 40
3.0
 40
3.0
 40
4.0
 40
4.0
 40
4.0
 40
5.0
 40
5.0
 40
5.0
 40
6.0
 40
6.0
 40
6.0
 40
7.0
 40
7.0
 40
7.0
 40
8.0
 40
8.0
 40
8.0
 40
8.0
 10
19.8130886501736079
 20
-21.5029079861111079
 10
19.8130886501736079
 20
-21.5029079861111079
 10
17.9148410373263864
 20
-25.5026638454861079
 10
17.9148410373263864
 20
-25.5026638454861079
 10
17.9148410373263864
 20
-25.5026638454861079
 10
18.9649061414930529
 20
-25.5026638454861079
 10
18.9649061414930529
 20
-25.5026638454861079
 10
18.9649061414930529
 20
-25.5026638454861079
 10
19.3328423394097193
 20
-24.70271267361111
 10
19.3328423394097193
 20
-24.70271267361111
 10
19.3328423394097193
 20
-24.70271267361111
 10
21.3210069444444414
 20
-24.70271267361111
 10
21.3210069444444414
 20
-24.70271267361111
 10
21.3210069444444414
 20
-24.70271267361111
 10
21.6727511935763886
 20
-25.5026638454861079
 10
21.6727511935763886
 20
-25.5026638454861079
 10
21.6727511935763886
 20
-25.5026638454861079
 10
22.7309122721354129
 20
-25.5026638454861079
 10
22.7309122721354129
 20
-25.5026638454861079
 10
22.7309122721354129
 20
-25.5026638454861079
 10
20.9069064670138864
 20
-21.5029079861111079
 10
20.9069064670138864
 20
-21.5029079861111079
 10
20.9069064670138864
 20
-21.5029079861111079
 10
19.8130886501736079
 20
-21.5029079861111079
 10
19.8130886501736079
 20
-21.5029079861111079
 97
        0
 92
       16
 93
        1
 72
     4
 94
        3
 73
     0
 74
     0
 95
       29
 96
       25
 40
0.0
 40
0.0
 40
0.0
 40
0.0
 40
1.0
 40
1.0
 40
1.0
 40
2.0
 40
2.0
 40
2.0
 40
3.0
 40
3.0
 40
3.0
 40
4.0
 40
4.0
 40
4.0
 40
5.0
 40
5.0
 40
5.0
 40
6.0
 40
6.0
 40
6.0
 40
7.0
 40
7.0
 40
7.0
 40
8.0
 40
8.0
 40
8.0
 40
8.0
 10
14.8890136718749986
 20
-21.5029079861111079
 10
14.8890136718749986
 20
-21.5029079861111079
 10
14.8890136718749986
 20
-22.3628038194444407
 10
14.8890136718749986
 20
-22.3628038194444407
 10
14.8890136718749986
 20
-22.3628038194444407
 10
16.3907307942708336
 20
-22.3628038194444407
 10
16.3907307942708336
 20
-22.3628038194444407
 10
16.3907307942708336
 20
-22.3628038194444407
 10
16.3907307942708336
 20
-25.5026638454861079
 10
16.3907307942708336
 20
-25.5026638454861079
 10
16.3907307942708336
 20
-25.5026638454861079
 10
17.3925645616319429
 20
-25.5026638454861079
 10
17.3925645616319429
 20
-25.5026638454861079
 10
17.3925645616319429
 20
-25.5026638454861079
 10
17.3925645616319429
 20
-22.3628038194444407
 10
17.3925645616319429
 20
-22.3628038194444407
 10
17.3925645616319429
 20
-22.3628038194444407
 10
18.8811903211805543
 20
-22.3628038194444407
 10
18.8811903211805543
 20
-22.3628038194444407
 10
18.8811903211805543
 20
-22.3628038194444407
 10
18.8811903211805543
 20
-21.5029079861111079
 10
18.8811903211805543
 20
-21.5029079861111079
 10
18.8811903211805543
 20
-21.5029079861111079
 10
14.8890136718749986
 20
-21.5029079861111079
 10
14.8890136718749986
 20
-21.5029079861111079
 97
        0
 75
     2
 76
     1
 98
        1
 10
0.0
 20
0.0
  0
HATCH
  5
96
100
AcDbEntity
  8
SILK_
390
0
 62
     7
100
AcDbHatch
 10
0.0
 20
0.0
 30
0.0
210
0.0
220
0.0
230
1.0
  2
SOLID
 70
     1
 71
     0
 91
       10
 92
        1
 93
        1
 72
     4
 94
        3
 73
     0
 74
     0
 95
       26
 96
       22
 40
0.0
 40
0.0
 40
0.0
 40
0.0
 40
1.0
 40
1.0
 40
1.0
 40
2.0
 40
2.0
 40
2.0
 40
3.0
 40
3.0
 40
3.0
 40
4.0
 40
4.0
 40
4.0
 40
5.0
 40
5.0
 40
5.0
 40
6.0
 40
6.0
 40
6.0
 40
7.0
 40
7.0
 40
7.0
 40
7.0
 10
45.3915445963541657
 20
-83.60247667100694
 10
45.3915445963541657
 20
-83.60247667100694
 10
45.3915445963541657
 20
-82.4053059895833258
 10
45.3915445963541657
 20
-82.4053059895833258
 10
45.3915445963541657
 20
-82.4053059895833258
 10
45.5855034722222214
 20
-82.4053059895833258
 10
45.5855034722222214
 20
-82.4053059895833258
 10
45.6506157769097172
 20
-82.4011718749999886
 10
45.71572808159722
 20
-82.4066840277777715
 10
45.7794623480902771
 20
-82.4214979383680486
 10
45.92794596354166
 20
-82.4521592881944372
 10
46.0499023437499986
 20
-82.55895724826388
 10
46.1002007378472172
 20
-82.7022732204861057
 10
46.16703559027777
 20
-82.8951985677083201
 10
46.1773708767361057
 20
-83.1029378255208258
 10
46.1291395399305486
 20
-83.3010308159722115
 10
46.0833197699652715
 20
-83.47604166666666
 10
45.9265679253472214
 20
-83.5986870659722143
 10
45.7460449218749972
 20
-83.60247667100694
 10
45.7460449218749972
 20
-83.60247667100694
 10
45.3915445963541657
 20
-83.60247667100694
 10
45.3915445963541657
 20
-83.60247667100694
 97
        0
 92
       16
 93
        1
 72
     4
 94
        3
 73
     0
 74
     0
 95
       26
 96
       22
 40
0.0
 40
0.0
 40
0.0
 40
0.0
 40
1.0
 40
1.0
 40
1.0
 40
2.0
 40
2.0
 40
2.0
 40
3.0
 40
3.0
 40
3.0
 40
4.0
 40
4.0
 40
4.0
 40
5.0
 40
5.0
 40
5.0
 40
6.0
 40
6.0
 40
6.0
 40
7.0
 40
7.0
 40
7.0
 40
7.0
 10
45.0232638888888843
 20
-82.1104058159722143
 10
45.0232638888888843
 20
-82.1104058159722143
 10
45.0232638888888843
 20
-83.9028889973958201
 10
45.0232638888888843
 20
-83.9028889973958201
 10
45.0232638888888843
 20
-83.9028889973958201
 10
45.8221815321180515
 20
-83.9028889973958201
 10
45.8221815321180515
 20
-83.9028889973958201
 10
46.0126953124999929
 20
-83.8973768446180515
 10
46.1925292968749943
 20
-83.8133165147569343
 10
46.3186197916666629
 20
-83.6703450520833201
 10
46.4047471788194414
 20
-83.56905924479166
 10
46.46641438802083
 20
-83.44985894097222
 10
46.5005208333333258
 20
-83.32101236979166
 10
46.5680447048611086
 20
-83.0491943359374858
 10
46.5394504123263815
 20
-82.7625623914930486
 10
46.4195610894097186
 20
-82.5096923828124886
 10
46.3013943142361057
 20
-82.2606119791666544
 10
46.0485243055555529
 20
-82.1042046440972086
 10
45.77291666666666
 20
-82.1104058159722143
 10
45.77291666666666
 20
-82.1104058159722143
 10
45.0232638888888843
 20
-82.1104058159722143
 10
45.0232638888888843
 20
-82.1104058159722143
 97
        0
 92
        1
 93
        1
 72
     4
 94
        3
 73
     0
 74
     0
 95
       23
 96
       19
 40
0.0
 40
0.0
 40
0.0
 40
0.0
 40
1.0
 40
1.0
 40
1.0
 40
2.0
 40
2.0
 40
2.0
 40
3.0
 40
3.0
 40
3.0
 40
4.0
 40
4.0
 40
4.0
 40
5.0
 40
5.0
 40
5.0
 40
6.0
 40
6.0
 40
6.0
 40
6.0
 10
43.6634847005208329
 20
-82.39565972222222
 10
43.6634847005208329
 20
-82.39565972222222
 10
44.1199598524305543
 20
-82.39565972222222
 10
44.1199598524305543
 20
-82.39565972222222
 10
44.2109103732638857
 20
-82.3963487413194429
 10
44.2932481553819386
 20
-82.4480251736111001
 10
44.3345893012152743
 20
-82.5286404079861029
 10
44.3762749565972214
 20
-82.6096001519097172
 10
44.3693847656249929
 20
-82.7064073350694429
 10
44.3170193142361057
 20
-82.7804768880208286
 10
44.2636203342013843
 20
-82.85351291232638
 10
44.1788709852430515
 20
-82.8972656249999886
 10
44.0889539930555543
 20
-82.8982991536458229
 10
44.0889539930555543
 20
-82.8982991536458229
 10
43.6634847005208329
 20
-82.8982991536458229
 10
43.6634847005208329
 20
-82.8982991536458229
 10
43.6634847005208329
 20
-82.8982991536458229
 10
43.6634847005208329
 20
-82.39565972222222
 10
43.6634847005208329
 20
-82.39565972222222
 97
        0
 92
       16
 93
        1
 72
     4
 94
        3
 73
     0
 74
     0
 95
       56
 96
       52
 40
0.0
 40
0.0
 40
0.0
 40
0.0
 40
1.0
 40
1.0
 40
1.0
 40
2.0
 40
2.0
 40
2.0
 40
3.0
 40
3.0
 40
3.0
 40
4.0
 40
4.0
 40
4.0
 40
5.0
 40
5.0
 40
5.0
 40
6.0
 40
6.0
 40
6.0
 40
7.0
 40
7.0
 40
7.0
 40
8.0
 40
8.0
 40
8.0
 40
9.0
 40
9.0
 40
9.0
 40
10.0
 40
10.0
 40
10.0
 40
11.0
 40
11.0
 40
11.0
 40
12.0
 40
12.0
 40
12.0
 40
13.0
 40
13.0
 40
13.0
 40
14.0
 40
14.0
 40
14.0
 40
15.0
 40
15.0
 40
15.0
 40
16.0
 40
16.0
 40
16.0
 40
17.0
 40
17.0
 40
17.0
 40
17.0
 10
43.2931369357638829
 20
-82.1031711154513744
 10
43.2931369357638829
 20
-82.1031711154513744
 10
43.2931369357638829
 20
-83.9028889973958201
 10
43.2931369357638829
 20
-83.9028889973958201
 10
43.2931369357638829
 20
-83.9028889973958201
 10
43.6638292100694372
 20
-83.9028889973958201
 10
43.6638292100694372
 20
-83.9028889973958201
 10
43.6638292100694372
 20
-83.9028889973958201
 10
43.6638292100694372
 20
-83.1752848307291544
 10
43.6638292100694372
 20
-83.1752848307291544
 10
43.6638292100694372
 20
-83.1752848307291544
 10
43.9225558810763843
 20
-83.1752848307291544
 10
43.9225558810763843
 20
-83.1752848307291544
 10
43.9845675998263843
 20
-83.1759738498263772
 10
44.0469238281249957
 20
-83.1825195312499943
 10
44.1082465277777729
 20
-83.1935438368055458
 10
44.2040201822916643
 20
-83.2217936197916544
 10
44.2760226779513815
 20
-83.3017198350694343
 10
44.2942816840277729
 20
-83.40093858506944
 10
44.3173638237847172
 20
-83.52013888888888
 10
44.3301106770833258
 20
-83.6407172309027658
 10
44.3321777343749943
 20
-83.7626736111110972
 10
44.33355577256944
 20
-83.8109049479166544
 10
44.34664713541666
 20
-83.8584472656249886
 10
44.3700737847222157
 20
-83.9004774305555543
 10
44.3700737847222157
 20
-83.9004774305555543
 10
44.7166503906249986
 20
-83.9004774305555543
 10
44.7166503906249986
 20
-83.9004774305555543
 10
44.6983913845486072
 20
-83.8584472656249886
 10
44.6866780598958258
 20
-83.8129720052083229
 10
44.6818549262152729
 20
-83.7671522352430458
 10
44.6818549262152729
 20
-83.7671522352430458
 10
44.6649739583333272
 20
-83.4932671440972172
 10
44.6649739583333272
 20
-83.4932671440972172
 10
44.6639404296874929
 20
-83.4312554253472172
 10
44.6573947482638829
 20
-83.36993272569444
 10
44.6456814236111086
 20
-83.3096435546874972
 10
44.6222547743055529
 20
-83.1642605251736029
 10
44.50408799913194
 20
-83.0529839409722115
 10
44.3576714409722186
 20
-83.0388590494791572
 10
44.5588650173611072
 20
-83.0061306423611001
 10
44.7111382378472157
 20
-82.8393880208333258
 10
44.7252631293402771
 20
-82.6361273871527686
 10
44.7438666449652729
 20
-82.3815348307291657
 10
44.5629991319444372
 20
-82.1551920572916572
 10
44.3104736328124957
 20
-82.1179850260416657
 10
44.2302029079861043
 20
-82.1052381727430429
 10
44.1492431640624972
 20
-82.1004150390624972
 10
44.0682834201388829
 20
-82.1031711154513744
 10
44.0682834201388829
 20
-82.1031711154513744
 10
43.2931369357638829
 20
-82.1031711154513744
 10
43.2931369357638829
 20
-82.1031711154513744
 97
        0
 92
        1
 93
        1
 72
     4
 94
        3
 73
     0
 74
     0
 95
       29
 96
       25
 40
0.0
 40
0.0
 40
0.0
 40
0.0
 40
1.0
 40
1.0
 40
1.0
 40
2.0
 40
2.0
 40
2.0
 40
3.0
 40
3.0
 40
3.0
 40
4.0
 40
4.0
 40
4.0
 40
5.0
 40
5.0
 40
5.0
 40
6.0
 40
6.0
 40
6.0
 40
7.0
 40
7.0
 40
7.0
 40
8.0
 40
8.0
 40
8.0
 40
8.0
 10
42.5937825520833329
 20
-83.3110215928819429
 10
42.56863335503472
 20
-83.3795789930555458
 10
42.5324598524305486
 20
-83.4433132595486029
 10
42.4866400824652715
 20
-83.5001573350694315
 10
42.4080919053819372
 20
-83.6004096137152715
 10
42.2892361111111086
 20
-83.6610432942708258
 10
42.1617675781249943
 20
-83.6662109374999972
 10
42.0346435546874986
 20
-83.6610432942708258
 10
41.9154432508680515
 20
-83.6004096137152715
 10
41.8368950737847172
 20
-83.5001573350694315
 10
41.79107530381944
 20
-83.4433132595486029
 10
41.7552463107638872
 20
-83.3795789930555458
 10
41.7297526041666629
 20
-83.3110215928819429
 10
41.6367350260416629
 20
-83.0457492404513857
 10
41.6732530381944386
 20
-82.7525716145833314
 10
41.8282823350694386
 20
-82.5183051215277743
 10
41.9057969835069386
 20
-82.4104736328124972
 10
42.0287868923611043
 20
-82.3439832899305486
 10
42.1617675781249943
 20
-82.3391601562499886
 10
42.2944037543402729
 20
-82.3446723090277715
 10
42.41773817274305
 20
-82.4104736328124972
 10
42.4955973307291615
 20
-82.5183051215277743
 10
42.6499376085069386
 20
-82.7525716145833314
 10
42.6864556206597214
 20
-83.0457492404513857
 10
42.5937825520833329
 20
-83.3110215928819429
 97
        0
 92
       16
 93
        1
 72
     4
 94
        3
 73
     0
 74
     0
 95
       23
 96
       19
 40
0.0
 40
0.0
 40
0.0
 40
0.0
 40
1.0
 40
1.0
 40
1.0
 40
2.0
 40
2.0
 40
2.0
 40
3.0
 40
3.0
 40
3.0
 40
4.0
 40
4.0
 40
4.0
 40
5.0
 40
5.0
 40
5.0
 40
6.0
 40
6.0
 40
6.0
 40
6.0
 10
42.8335611979166657
 20
-83.6269368489583229
 10
43.1246717664930515
 20
-83.1780409071180458
 10
43.05818142361111
 20
-82.5858289930555429
 10
42.6750868055555515
 20
-82.2116916232638744
 10
42.53108181423611
 20
-82.0911132812499886
 10
42.3498697916666629
 20
-82.02358940972222
 10
42.1617675781249943
 20
-82.0194552951388829
 10
41.9740098741319372
 20
-82.02358940972222
 10
41.7927978515624972
 20
-82.0911132812499886
 10
41.6484483506944372
 20
-82.2116916232638744
 10
41.2653537326388857
 20
-82.5858289930555429
 10
41.1992078993055486
 20
-83.1780409071180458
 10
41.48997395833333
 20
-83.6269368489583229
 10
41.64500325520833
 20
-83.8446668836805458
 10
41.8944281684027757
 20
-83.9755805121527743
 10
42.1617675781249943
 20
-83.9797146267360972
 10
42.42910698784722
 20
-83.9755805121527743
 10
42.6785319010416657
 20
-83.8446668836805458
 10
42.8335611979166657
 20
-83.6269368489583229
 97
        0
 92
       16
 93
        1
 72
     4
 94
        3
 73
     0
 74
     0
 95
       56
 96
       52
 40
0.0
 40
0.0
 40
0.0
 40
0.0
 40
1.0
 40
1.0
 40
1.0
 40
2.0
 40
2.0
 40
2.0
 40
3.0
 40
3.0
 40
3.0
 40
4.0
 40
4.0
 40
4.0
 40
5.0
 40
5.0
 40
5.0
 40
6.0
 40
6.0
 40
6.0
 40
7.0
 40
7.0
 40
7.0
 40
8.0
 40
8.0
 40
8.0
 40
9.0
 40
9.0
 40
9.0
 40
10.0
 40
10.0
 40
10.0
 40
11.0
 40
11.0
 40
11.0
 40
12.0
 40
12.0
 40
12.0
 40
13.0
 40
13.0
 40
13.0
 40
14.0
 40
14.0
 40
14.0
 40
15.0
 40
15.0
 40
15.0
 40
16.0
 40
16.0
 40
16.0
 40
17.0
 40
17.0
 40
17.0
 40
17.0
 10
41.0889648437499986
 20
-82.6643771701388772
 10
41.0686387803819386
 20
-82.4080620659722172
 10
40.9025851779513872
 20
-82.18688693576388
 10
40.6624620225694429
 20
-82.0959364149305486
 10
40.4316406249999929
 20
-82.00567491319444
 10
40.1739474826388872
 20
-82.0125651041666544
 10
39.9476047092013857
 20
-82.11419542100694
 10
39.7398654513888872
 20
-82.2041124131944372
 10
39.5817355685763843
 20
-82.3794677734374972
 10
39.5138671874999972
 20
-82.59478624131944
 10
39.4342854817708286
 20
-82.8462782118055543
 10
39.4298068576388872
 20
-83.1156846788194343
 10
39.5004313151041657
 20
-83.3692437065972172
 10
39.5810465494791615
 20
-83.6434733072916572
 10
39.7953314887152771
 20
-83.8577582465277658
 10
40.0699055989583286
 20
-83.9369954427083229
 10
40.2476725260416615
 20
-83.9869493272569372
 10
40.43577473958333
 20
-83.98522677951388
 10
40.61285264756944
 20
-83.9325168185763744
 10
40.8850151909722186
 20
-83.8536241319444429
 10
41.0800075954861086
 20
-83.6148790147569372
 10
41.10240071614583
 20
-83.3320366753472115
 10
41.10240071614583
 20
-83.3320366753472115
 10
40.7289523654513843
 20
-83.3320366753472115
 10
40.7289523654513843
 20
-83.3320366753472115
 10
40.7186170789930486
 20
-83.4057617187499858
 10
40.6883002387152715
 20
-83.4753526475694372
 10
40.6407579210069443
 20
-83.5332302517361001
 10
40.5529079861111086
 20
-83.6228027343749858
 10
40.4306070963541657
 20
-83.6710340711805429
 10
40.3048611111111086
 20
-83.6641438802083286
 10
40.1794596354166629
 20
-83.6572536892361001
 10
40.0626708984374957
 20
-83.5966200086805458
 10
39.9848117404513843
 20
-83.4980902777777771
 10
39.91763237847222
 20
-83.41402994791666
 10
39.8704345703124972
 20
-83.3161892361111001
 10
39.8470079210069414
 20
-83.2114583333333258
 10
39.8239257812499972
 20
-83.1001817491319343
 10
39.8173800998263872
 20
-82.9861490885416657
 10
39.8266818576388886
 20
-82.8731499565972172
 10
39.83770616319444
 20
-82.7505045572916629
 10
39.8807698567708329
 20
-82.6330268012152658
 10
39.9517388237847157
 20
-82.5320855034722172
 10
40.0475124782986072
 20
-82.3970377604166657
 10
40.2083984374999943
 20
-82.3243462456597115
 10
40.3730740017361072
 20
-82.34191623263888
 10
40.5511854383680515
 20
-82.3550075954861001
 10
40.6972574869791615
 20
-82.4883327907986086
 10
40.7265407986111043
 20
-82.6643771701388772
 10
40.7265407986111043
 20
-82.6643771701388772
 10
41.0896538628472214
 20
-82.6643771701388772
 10
41.0889648437499986
 20
-82.6643771701388772
 97
        0
 92
       16
 93
        1
 72
     4
 94
        3
 73
     0
 74
     0
 95
       41
 96
       37
 40
0.0
 40
0.0
 40
0.0
 40
0.0
 40
1.0
 40
1.0
 40
1.0
 40
2.0
 40
2.0
 40
2.0
 40
3.0
 40
3.0
 40
3.0
 40
4.0
 40
4.0
 40
4.0
 40
5.0
 40
5.0
 40
5.0
 40
6.0
 40
6.0
 40
6.0
 40
7.0
 40
7.0
 40
7.0
 40
8.0
 40
8.0
 40
8.0
 40
9.0
 40
9.0
 40
9.0
 40
10.0
 40
10.0
 40
10.0
 40
11.0
 40
11.0
 40
11.0
 40
12.0
 40
12.0
 40
12.0
 40
12.0
 10
37.9008734809027743
 20
-82.1048936631944315
 10
37.9008734809027743
 20
-82.1048936631944315
 10
37.9008734809027743
 20
-83.9028889973958201
 10
37.9008734809027743
 20
-83.9028889973958201
 10
37.9008734809027743
 20
-83.9028889973958201
 10
39.2437717013888872
 20
-83.9028889973958201
 10
39.2437717013888872
 20
-83.9028889973958201
 10
39.2437717013888872
 20
-83.9028889973958201
 10
39.2437717013888872
 20
-83.5997205946180486
 10
39.2437717013888872
 20
-83.5997205946180486
 10
39.2437717013888872
 20
-83.5997205946180486
 10
38.2663981119791643
 20
-83.5997205946180486
 10
38.2663981119791643
 20
-83.5997205946180486
 10
38.2663981119791643
 20
-83.5997205946180486
 10
38.2663981119791643
 20
-83.1074164496527743
 10
38.2663981119791643
 20
-83.1074164496527743
 10
38.2663981119791643
 20
-83.1074164496527743
 10
39.10906846788194
 20
-83.1074164496527743
 10
39.10906846788194
 20
-83.1074164496527743
 10
39.10906846788194
 20
-83.1074164496527743
 10
39.10906846788194
 20
-82.8028700086805429
 10
39.10906846788194
 20
-82.8028700086805429
 10
39.10906846788194
 20
-82.8028700086805429
 10
38.2691541883680486
 20
-82.8028700086805429
 10
38.2691541883680486
 20
-82.8028700086805429
 10
38.2691541883680486
 20
-82.8028700086805429
 10
38.2691541883680486
 20
-82.4101291232638857
 10
38.2691541883680486
 20
-82.4101291232638857
 10
38.2691541883680486
 20
-82.4101291232638857
 10
39.2299913194444443
 20
-82.4101291232638857
 10
39.2299913194444443
 20
-82.4101291232638857
 10
39.2299913194444443
 20
-82.4101291232638857
 10
39.2299913194444443
 20
-82.1048936631944315
 10
39.2299913194444443
 20
-82.1048936631944315
 10
39.2299913194444443
 20
-82.1048936631944315
 10
37.9008734809027743
 20
-82.1048936631944315
 10
37.9008734809027743
 20
-82.1048936631944315
 97
        0
 92
        1
 93
        1
 72
     4
 94
        3
 73
     0
 74
     0
 95
       23
 96
       19
 40
0.0
 40
0.0
 40
0.0
 40
0.0
 40
1.0
 40
1.0
 40
1.0
 40
2.0
 40
2.0
 40
2.0
 40
3.0
 40
3.0
 40
3.0
 40
4.0
 40
4.0
 40
4.0
 40
5.0
 40
5.0
 40
5.0
 40
6.0
 40
6.0
 40
6.0
 40
6.0
 10
36.5407497829861043
 20
-82.39565972222222
 10
36.5407497829861043
 20
-82.39565972222222
 10
36.9975694444444443
 20
-82.39565972222222
 10
36.9975694444444443
 20
-82.39565972222222
 10
37.0881754557291643
 20
-82.3963487413194429
 10
37.1708577473958286
 20
-82.4480251736111001
 10
37.2121988932291643
 20
-82.5286404079861029
 10
37.2535400390625
 20
-82.6096001519097172
 10
37.2466498480902715
 20
-82.7064073350694429
 10
37.1942843967013843
 20
-82.7804768880208286
 10
37.1412299262152743
 20
-82.85351291232638
 10
37.0564805772569414
 20
-82.8972656249999886
 10
36.9662190755208329
 20
-82.8982991536458229
 10
36.9662190755208329
 20
-82.8982991536458229
 10
36.5407497829861043
 20
-82.8982991536458229
 10
36.5407497829861043
 20
-82.8982991536458229
 10
36.5407497829861043
 20
-82.8982991536458229
 10
36.5407497829861043
 20
-82.39565972222222
 10
36.5407497829861043
 20
-82.39565972222222
 97
        0
 92
       16
 93
        1
 72
     4
 94
        3
 73
     0
 74
     0
 95
       56
 96
       52
 40
0.0
 40
0.0
 40
0.0
 40
0.0
 40
1.0
 40
1.0
 40
1.0
 40
2.0
 40
2.0
 40
2.0
 40
3.0
 40
3.0
 40
3.0
 40
4.0
 40
4.0
 40
4.0
 40
5.0
 40
5.0
 40
5.0
 40
6.0
 40
6.0
 40
6.0
 40
7.0
 40
7.0
 40
7.0
 40
8.0
 40
8.0
 40
8.0
 40
9.0
 40
9.0
 40
9.0
 40
10.0
 40
10.0
 40
10.0
 40
11.0
 40
11.0
 40
11.0
 40
12.0
 40
12.0
 40
12.0
 40
13.0
 40
13.0
 40
13.0
 40
14.0
 40
14.0
 40
14.0
 40
15.0
 40
15.0
 40
15.0
 40
16.0
 40
16.0
 40
16.0
 40
17.0
 40
17.0
 40
17.0
 40
17.0
 10
36.1707465277777729
 20
-82.1031711154513744
 10
36.1707465277777729
 20
-82.1031711154513744
 10
36.1707465277777729
 20
-83.9028889973958201
 10
36.1707465277777729
 20
-83.9028889973958201
 10
36.1707465277777729
 20
-83.9028889973958201
 10
36.5410942925347157
 20
-83.9028889973958201
 10
36.5410942925347157
 20
-83.9028889973958201
 10
36.5410942925347157
 20
-83.9028889973958201
 10
36.5410942925347157
 20
-83.1752848307291544
 10
36.5410942925347157
 20
-83.1752848307291544
 10
36.5410942925347157
 20
-83.1752848307291544
 10
36.7998209635416629
 20
-83.1752848307291544
 10
36.7998209635416629
 20
-83.1752848307291544
 10
36.8621771918402743
 20
-83.1759738498263772
 10
36.9241889105902743
 20
-83.1825195312499943
 10
36.9855116102430515
 20
-83.1935438368055458
 10
37.0816297743055543
 20
-83.2217936197916544
 10
37.15328776041666
 20
-83.3017198350694343
 10
37.1715467664930515
 20
-83.40093858506944
 10
37.1946289062499957
 20
-83.52013888888888
 10
37.2073757595486043
 20
-83.6407172309027658
 10
37.2097873263888843
 20
-83.7626736111110972
 10
37.21116536458333
 20
-83.8109049479166544
 10
37.2239122178819386
 20
-83.8584472656249886
 10
37.2473388671874943
 20
-83.9004774305555543
 10
37.2473388671874943
 20
-83.9004774305555543
 10
37.5939154730902771
 20
-83.9004774305555543
 10
37.5939154730902771
 20
-83.9004774305555543
 10
37.5756564670138857
 20
-83.8584472656249886
 10
37.5642876519097157
 20
-83.8129720052083229
 10
37.5591200086805515
 20
-83.7671522352430458
 10
37.5591200086805515
 20
-83.7671522352430458
 10
37.5425835503472172
 20
-83.4932671440972172
 10
37.5425835503472172
 20
-83.4932671440972172
 10
37.5412055121527715
 20
-83.4312554253472172
 10
37.5346598307291615
 20
-83.36993272569444
 10
37.5232910156249986
 20
-83.3096435546874972
 10
37.4995198567708314
 20
-83.1642605251736029
 10
37.3813530815972186
 20
-83.0529839409722115
 10
37.2349365234374972
 20
-83.0388590494791572
 10
37.4364746093749972
 20
-83.0061306423611001
 10
37.5884033203124943
 20
-82.8393880208333258
 10
37.6025282118055486
 20
-82.6361273871527686
 10
37.6211317274305515
 20
-82.3815348307291657
 10
37.4402642144097157
 20
-82.1551920572916572
 10
37.1877387152777743
 20
-82.1179850260416657
 10
37.1078124999999943
 20
-82.1052381727430429
 10
37.0265082465277757
 20
-82.1004150390624972
 10
36.9458930121527729
 20
-82.1031711154513744
 10
36.9458930121527729
 20
-82.1031711154513744
 10
36.1707465277777729
 20
-82.1031711154513744
 10
36.1707465277777729
 20
-82.1031711154513744
 97
        0
 75
     2
 76
     1
 98
        1
 10
0.0
 20
0.0
  0
HATCH
  5
95
100
AcDbEntity
  8
SILK_
390
0
 62
     7
100
AcDbHatch
 10
0.0
 20
0.0
 30
0.0
210
0.0
220
0.0
230
1.0
  2
SOLID
 70
     1
 71
     0
 91
       36
 92
        1
 93
        1
 72
     4
 94
        3
 73
     0
 74
     0
 95
       23
 96
       19
 40
0.0
 40
0.0
 40
0.0
 40
0.0
 40
1.0
 40
1.0
 40
1.0
 40
2.0
 40
2.0
 40
2.0
 40
3.0
 40
3.0
 40
3.0
 40
4.0
 40
4.0
 40
4.0
 40
5.0
 40
5.0
 40
5.0
 40
6.0
 40
6.0
 40
6.0
 40
6.0
 10
46.3596164279513872
 20
-65.3954915364583229
 10
46.3596164279513872
 20
-65.3954915364583229
 10
46.8185031467013815
 20
-65.3954915364583229
 10
46.8185031467013815
 20
-65.3954915364583229
 10
46.90945366753472
 20
-65.3961805555555458
 10
46.9876573350694429
 20
-65.4475124782986057
 10
47.0203857421874929
 20
-65.52847222222222
 10
47.0534586588541615
 20
-65.6090874565972229
 10
47.0365776909722157
 20
-65.7062391493055458
 10
46.9759440104166615
 20
-65.7799641927083343
 10
46.9149658203124957
 20
-65.8536892361111086
 10
46.8250488281249986
 20
-65.8970974392361057
 10
46.73409830729166
 20
-65.89813096788194
 10
46.73409830729166
 20
-65.89813096788194
 10
46.30656195746527
 20
-65.89813096788194
 10
46.30656195746527
 20
-65.89813096788194
 10
46.30656195746527
 20
-65.89813096788194
 10
46.3596164279513872
 20
-65.3954915364583229
 10
46.3596164279513872
 20
-65.3954915364583229
 97
        0
 92
       16
 93
        1
 72
     4
 94
        3
 73
     0
 74
     0
 95
       56
 96
       52
 40
0.0
 40
0.0
 40
0.0
 40
0.0
 40
1.0
 40
1.0
 40
1.0
 40
2.0
 40
2.0
 40
2.0
 40
3.0
 40
3.0
 40
3.0
 40
4.0
 40
4.0
 40
4.0
 40
5.0
 40
5.0
 40
5.0
 40
6.0
 40
6.0
 40
6.0
 40
7.0
 40
7.0
 40
7.0
 40
8.0
 40
8.0
 40
8.0
 40
9.0
 40
9.0
 40
9.0
 40
10.0
 40
10.0
 40
10.0
 40
11.0
 40
11.0
 40
11.0
 40
12.0
 40
12.0
 40
12.0
 40
13.0
 40
13.0
 40
13.0
 40
14.0
 40
14.0
 40
14.0
 40
15.0
 40
15.0
 40
15.0
 40
16.0
 40
16.0
 40
16.0
 40
17.0
 40
17.0
 40
17.0
 40
17.0
 10
46.0182074652777757
 20
-65.10265842013888
 10
46.0182074652777757
 20
-65.10265842013888
 10
45.8290717230902729
 20
-66.9023763020833258
 10
45.8290717230902729
 20
-66.9023763020833258
 10
45.8290717230902729
 20
-66.9023763020833258
 10
46.2014865451388843
 20
-66.9023763020833258
 10
46.2014865451388843
 20
-66.9023763020833258
 10
46.2014865451388843
 20
-66.9023763020833258
 10
46.2776231553819386
 20
-66.1754611545138829
 10
46.2776231553819386
 20
-66.1754611545138829
 10
46.2776231553819386
 20
-66.1754611545138829
 10
46.5380723741319429
 20
-66.1754611545138829
 10
46.5380723741319429
 20
-66.1754611545138829
 10
46.6004286024305543
 20
-66.1761501736111057
 10
46.6624403211805543
 20
-66.1820068359375
 10
46.7223849826388857
 20
-66.1933756510416629
 10
46.8160915798611086
 20
-66.2216254340277715
 10
46.8798258463541657
 20
-66.3018961588541629
 10
46.8877495659722214
 20
-66.4000813802083343
 10
46.8987738715277729
 20
-66.5196261935763857
 10
46.8987738715277729
 20
-66.6408935546874943
 10
46.8880940755208258
 20
-66.7625054253472143
 10
46.8843044704861072
 20
-66.8107367621527715
 10
46.8925726996527743
 20
-66.8579345703124943
 10
46.9118652343749929
 20
-66.9003092447916572
 10
46.9118652343749929
 20
-66.9003092447916572
 10
47.2605088975694372
 20
-66.9003092447916572
 10
47.2605088975694372
 20
-66.9003092447916572
 10
47.2463840060763829
 20
-66.8579345703124943
 10
47.23914930555555
 20
-66.8131483289930515
 10
47.23914930555555
 20
-66.7666395399305515
 10
47.23914930555555
 20
-66.7666395399305515
 10
47.2508626302083314
 20
-66.4927544487847229
 10
47.2508626302083314
 20
-66.4927544487847229
 10
47.2563747829861072
 20
-66.4314317491319315
 10
47.2563747829861072
 20
-66.3701090494791544
 10
47.2508626302083314
 20
-66.3091308593749886
 10
47.2429389105902757
 20
-66.16409233940972
 10
47.1357964409722214
 20
-66.0528157552083286
 10
46.9900689019097157
 20
-66.0383463541666629
 10
47.1957411024305529
 20
-66.0059624565972172
 10
47.3659288194444414
 20
-65.8392198350694429
 10
47.4017578124999943
 20
-65.6359592013888857
 10
47.44723307291666
 20
-65.3810221354166572
 10
47.2891031901041643
 20
-65.1550238715277743
 10
47.0389892578124957
 20
-65.1178168402777686
 10
46.96009657118055
 20
-65.1054144965277715
 10
46.8787923177083314
 20
-65.1005913628472115
 10
46.7974880642361057
 20
-65.10265842013888
 10
46.7974880642361057
 20
-65.10265842013888
 10
46.0182074652777757
 20
-65.10265842013888
 10
46.0182074652777757
 20
-65.10265842013888
 97
        0
 92
       16
 93
        1
 72
     4
 94
        3
 73
     0
 74
     0
 95
       41
 96
       37
 40
0.0
 40
0.0
 40
0.0
 40
0.0
 40
1.0
 40
1.0
 40
1.0
 40
2.0
 40
2.0
 40
2.0
 40
3.0
 40
3.0
 40
3.0
 40
4.0
 40
4.0
 40
4.0
 40
5.0
 40
5.0
 40
5.0
 40
6.0
 40
6.0
 40
6.0
 40
7.0
 40
7.0
 40
7.0
 40
8.0
 40
8.0
 40
8.0
 40
9.0
 40
9.0
 40
9.0
 40
10.0
 40
10.0
 40
10.0
 40
11.0
 40
11.0
 40
11.0
 40
12.0
 40
12.0
 40
12.0
 40
12.0
 10
44.3779975043402715
 20
-65.1043809678819372
 10
44.3779975043402715
 20
-65.1043809678819372
 10
44.1892062717013872
 20
-66.9023763020833258
 10
44.1892062717013872
 20
-66.9023763020833258
 10
44.1892062717013872
 20
-66.9023763020833258
 10
45.5393391927083258
 20
-66.9023763020833258
 10
45.5393391927083258
 20
-66.9023763020833258
 10
45.5393391927083258
 20
-66.9023763020833258
 10
45.5710340711805486
 20
-66.5998969184027771
 10
45.5710340711805486
 20
-66.5998969184027771
 10
45.5710340711805486
 20
-66.5998969184027771
 10
44.5884928385416615
 20
-66.5998969184027771
 10
44.5884928385416615
 20
-66.5998969184027771
 10
44.5884928385416615
 20
-66.5998969184027771
 10
44.6401692708333258
 20
-66.1075927734374886
 10
44.6401692708333258
 20
-66.1075927734374886
 10
44.6401692708333258
 20
-66.1075927734374886
 10
45.4876627604166615
 20
-66.1075927734374886
 10
45.4876627604166615
 20
-66.1075927734374886
 10
45.4876627604166615
 20
-66.1075927734374886
 10
45.5197021484374957
 20
-65.80270182291666
 10
45.5197021484374957
 20
-65.80270182291666
 10
45.5197021484374957
 20
-65.80270182291666
 10
44.6749647352430515
 20
-65.80270182291666
 10
44.6749647352430515
 20
-65.80270182291666
 10
44.6749647352430515
 20
-65.80270182291666
 10
44.7163058810763872
 20
-65.4099609374999886
 10
44.7163058810763872
 20
-65.4099609374999886
 10
44.7163058810763872
 20
-65.4099609374999886
 10
45.6826551649305515
 20
-65.4099609374999886
 10
45.6826551649305515
 20
-65.4099609374999886
 10
45.6826551649305515
 20
-65.4099609374999886
 10
45.7146945529513857
 20
-65.1043809678819372
 10
45.7146945529513857
 20
-65.1043809678819372
 10
45.7146945529513857
 20
-65.1043809678819372
 10
44.3779975043402715
 20
-65.1043809678819372
 10
44.3779975043402715
 20
-65.1043809678819372
 97
        0
 92
        1
 93
        1
 72
     4
 94
        3
 73
     0
 74
     0
 95
       26
 96
       22
 40
0.0
 40
0.0
 40
0.0
 40
0.0
 40
1.0
 40
1.0
 40
1.0
 40
2.0
 40
2.0
 40
2.0
 40
3.0
 40
3.0
 40
3.0
 40
4.0
 40
4.0
 40
4.0
 40
5.0
 40
5.0
 40
5.0
 40
6.0
 40
6.0
 40
6.0
 40
7.0
 40
7.0
 40
7.0
 40
7.0
 10
42.7894639756944386
 20
-66.6026529947916544
 10
42.7894639756944386
 20
-66.6026529947916544
 10
42.9152099609374957
 20
-65.4051378038194429
 10
42.9152099609374957
 20
-65.4051378038194429
 10
42.9152099609374957
 20
-65.4051378038194429
 10
43.1105468749999972
 20
-65.4051378038194429
 10
43.1105468749999972
 20
-65.4051378038194429
 10
43.1760036892361043
 20
-65.4010036892361057
 10
43.2411159939236072
 20
-65.4065158420138886
 10
43.3034722222222186
 20
-65.4213297526041657
 10
43.44988878038194
 20
-65.4519911024305543
 10
43.5611653645833314
 20
-65.5587890624999972
 10
43.5963053385416615
 20
-65.7021050347222229
 10
43.6431586371527729
 20
-65.8950303819444372
 10
43.6314453124999986
 20
-66.1024251302083314
 10
43.5628879123263815
 20
-66.3008626302083286
 10
43.4981201171874972
 20
-66.4758734809027771
 10
43.3279324001736086
 20
-66.5985188802083314
 10
43.1456868489583272
 20
-66.6026529947916544
 10
43.1456868489583272
 20
-66.6026529947916544
 10
42.7894639756944386
 20
-66.6026529947916544
 10
42.7894639756944386
 20
-66.6026529947916544
 97
        0
 92
       16
 93
        1
 72
     4
 94
        3
 73
     0
 74
     0
 95
       26
 96
       22
 40
0.0
 40
0.0
 40
0.0
 40
0.0
 40
1.0
 40
1.0
 40
1.0
 40
2.0
 40
2.0
 40
2.0
 40
3.0
 40
3.0
 40
3.0
 40
4.0
 40
4.0
 40
4.0
 40
5.0
 40
5.0
 40
5.0
 40
6.0
 40
6.0
 40
6.0
 40
7.0
 40
7.0
 40
7.0
 40
7.0
 10
42.5762125651041643
 20
-65.1102376302083314
 10
42.5762125651041643
 20
-65.1102376302083314
 10
42.3877658420138843
 20
-66.9023763020833258
 10
42.3877658420138843
 20
-66.9023763020833258
 10
42.3877658420138843
 20
-66.9023763020833258
 10
43.1908175998263815
 20
-66.9023763020833258
 10
43.1908175998263815
 20
-66.9023763020833258
 10
43.3833984374999986
 20
-66.8975531684027658
 10
43.5725341796874943
 20
-66.8131483289930515
 10
43.7144721137152743
 20
-66.6701768663194372
 10
43.8112792968749929
 20
-66.5688910590277771
 10
43.88638237847222
 20
-66.4493462456597115
 10
43.9335801866319429
 20
-66.3208441840277771
 10
44.0303873697916615
 20
-66.0493706597222143
 10
44.0317654079861072
 20
-65.7627387152777771
 10
43.9373697916666615
 20
-65.5095241970486057
 10
43.8450412326388843
 20
-65.2604437934027715
 10
43.6069851345486086
 20
-65.1040364583333258
 10
43.3293104383680543
 20
-65.10989312065972
 10
43.3293104383680543
 20
-65.10989312065972
 10
42.5762125651041643
 20
-65.1102376302083314
 10
42.5762125651041643
 20
-65.1102376302083314
 97
        0
 92
        1
 93
        1
 72
     4
 94
        3
 73
     0
 74
     0
 95
       23
 96
       19
 40
0.0
 40
0.0
 40
0.0
 40
0.0
 40
1.0
 40
1.0
 40
1.0
 40
2.0
 40
2.0
 40
2.0
 40
3.0
 40
3.0
 40
3.0
 40
4.0
 40
4.0
 40
4.0
 40
5.0
 40
5.0
 40
5.0
 40
6.0
 40
6.0
 40
6.0
 40
6.0
 10
41.1785373263888843
 20
-65.3954915364583229
 10
41.1785373263888843
 20
-65.3954915364583229
 10
41.6377685546874972
 20
-65.3954915364583229
 10
41.6377685546874972
 20
-65.3954915364583229
 10
41.7287190755208286
 20
-65.3961805555555458
 10
41.80657823350694
 20
-65.4475124782986057
 10
41.8393066406249972
 20
-65.52847222222222
 10
41.8727240668402771
 20
-65.6090874565972229
 10
41.8558430989583314
 20
-65.7062391493055458
 10
41.7952094184027771
 20
-65.7799641927083343
 10
41.7338867187499929
 20
-65.8536892361111086
 10
41.6443142361111072
 20
-65.8970974392361057
 10
41.5533637152777757
 20
-65.89813096788194
 10
41.5533637152777757
 20
-65.89813096788194
 10
41.1258273654513857
 20
-65.89813096788194
 10
41.1258273654513857
 20
-65.89813096788194
 10
41.1258273654513857
 20
-65.89813096788194
 10
41.1785373263888843
 20
-65.3954915364583229
 10
41.1785373263888843
 20
-65.3954915364583229
 97
        0
 92
       16
 93
        1
 72
     4
 94
        3
 73
     0
 74
     0
 95
       56
 96
       52
 40
0.0
 40
0.0
 40
0.0
 40
0.0
 40
1.0
 40
1.0
 40
1.0
 40
2.0
 40
2.0
 40
2.0
 40
3.0
 40
3.0
 40
3.0
 40
4.0
 40
4.0
 40
4.0
 40
5.0
 40
5.0
 40
5.0
 40
6.0
 40
6.0
 40
6.0
 40
7.0
 40
7.0
 40
7.0
 40
8.0
 40
8.0
 40
8.0
 40
9.0
 40
9.0
 40
9.0
 40
10.0
 40
10.0
 40
10.0
 40
11.0
 40
11.0
 40
11.0
 40
12.0
 40
12.0
 40
12.0
 40
13.0
 40
13.0
 40
13.0
 40
14.0
 40
14.0
 40
14.0
 40
15.0
 40
15.0
 40
15.0
 40
16.0
 40
16.0
 40
16.0
 40
17.0
 40
17.0
 40
17.0
 40
17.0
 10
40.8367838541666615
 20
-65.10265842013888
 10
40.8367838541666615
 20
-65.10265842013888
 10
40.6476481119791657
 20
-66.9023763020833258
 10
40.6476481119791657
 20
-66.9023763020833258
 10
40.6476481119791657
 20
-66.9023763020833258
 10
41.0207519531249929
 20
-66.9023763020833258
 10
41.0207519531249929
 20
-66.9023763020833258
 10
41.0207519531249929
 20
-66.9023763020833258
 10
41.0968885633680543
 20
-66.1754611545138829
 10
41.0968885633680543
 20
-66.1754611545138829
 10
41.0968885633680543
 20
-66.1754611545138829
 10
41.35699327256944
 20
-66.1754611545138829
 10
41.35699327256944
 20
-66.1754611545138829
 10
41.4196940104166629
 20
-66.1761501736111057
 10
41.4813612196180515
 20
-66.1820068359375
 10
41.5416503906249943
 20
-66.1933756510416629
 10
41.6353569878472172
 20
-66.2216254340277715
 10
41.6990912543402743
 20
-66.3018961588541629
 10
41.70701497395833
 20
-66.4000813802083343
 10
41.7176947699652771
 20
-66.5196261935763857
 10
41.7180392795138886
 20
-66.6408935546874943
 10
41.70701497395833
 20
-66.7625054253472143
 10
41.7035698784722157
 20
-66.8107367621527715
 10
41.7118381076388829
 20
-66.8579345703124943
 10
41.7307861328124972
 20
-66.9003092447916572
 10
41.7307861328124972
 20
-66.9003092447916572
 10
42.0797743055555529
 20
-66.9003092447916572
 10
42.0797743055555529
 20
-66.9003092447916572
 10
42.0656494140624986
 20
-66.8579345703124943
 10
42.0580702039930543
 20
-66.8131483289930515
 10
42.0580702039930543
 20
-66.7666395399305515
 10
42.0580702039930543
 20
-66.7666395399305515
 10
42.07012803819444
 20
-66.4927544487847229
 10
42.07012803819444
 20
-66.4927544487847229
 10
42.0756401909722157
 20
-66.4314317491319315
 10
42.0756401909722157
 20
-66.3701090494791544
 10
42.07012803819444
 20
-66.3091308593749886
 10
42.0622043185763843
 20
-66.16409233940972
 10
41.9547173394097186
 20
-66.0528157552083286
 10
41.80898980034722
 20
-66.0383463541666629
 10
42.01466200086805
 20
-66.0059624565972172
 10
42.18519422743055
 20
-65.8392198350694429
 10
42.2206787109374986
 20
-65.6359592013888857
 10
42.2664984809027757
 20
-65.3810221354166572
 10
42.1083685980902729
 20
-65.1550238715277743
 10
41.8582546657986043
 20
-65.1178168402777686
 10
41.7790174696180543
 20
-65.1054144965277715
 10
41.69805772569444
 20
-65.1005913628472115
 10
41.61640896267361
 20
-65.10265842013888
 10
41.61640896267361
 20
-65.10265842013888
 10
40.8367838541666615
 20
-65.10265842013888
 10
40.8367838541666615
 20
-65.10265842013888
 97
        0
 92
        1
 93
        1
 72
     4
 94
        3
 73
     0
 74
     0
 95
       29
 96
       25
 40
0.0
 40
0.0
 40
0.0
 40
0.0
 40
1.0
 40
1.0
 40
1.0
 40
2.0
 40
2.0
 40
2.0
 40
3.0
 40
3.0
 40
3.0
 40
4.0
 40
4.0
 40
4.0
 40
5.0
 40
5.0
 40
5.0
 40
6.0
 40
6.0
 40
6.0
 40
7.0
 40
7.0
 40
7.0
 40
8.0
 40
8.0
 40
8.0
 40
8.0
 10
40.0068603515624943
 20
-66.3105088975694343
 10
39.9744764539930486
 20
-66.3794108072916629
 10
39.9314127604166629
 20
-66.4428005642361086
 10
39.8793918185763872
 20
-66.4999891493055486
 10
39.7894748263888829
 20
-66.5998969184027771
 10
39.6637288411458329
 20
-66.6605305989583314
 10
39.5352267795138843
 20
-66.6653537326388772
 10
39.4077582465277771
 20
-66.6605305989583314
 10
39.2944146050347172
 20
-66.5998969184027771
 10
39.2258572048611072
 20
-66.4999891493055486
 10
39.1862386067708286
 20
-66.4428005642361086
 10
39.1566107855902743
 20
-66.3794108072916629
 10
39.1383517795138829
 20
-66.3105088975694343
 10
39.0728949652777757
 20
-66.0459255642361001
 10
39.1404188368055515
 20
-65.7524034288194343
 10
39.3202528211805529
 20
-65.5181369357638772
 10
39.4098253038194386
 20
-65.4099609374999886
 10
39.5403944227430486
 20
-65.3441596137152771
 10
39.6747531467013843
 20
-65.3389919704861057
 10
39.8077338324652743
 20
-65.3441596137152771
 10
39.9245225694444414
 20
-65.4099609374999886
 10
39.9913574218749943
 20
-65.5181369357638772
 10
40.1219265407986043
 20
-65.7524034288194343
 10
40.12812771267361
 20
-66.0459255642361001
 10
40.0068603515624943
 20
-66.3105088975694343
 97
        0
 92
       16
 93
        1
 72
     4
 94
        3
 73
     0
 74
     0
 95
       23
 96
       19
 40
0.0
 40
0.0
 40
0.0
 40
0.0
 40
1.0
 40
1.0
 40
1.0
 40
2.0
 40
2.0
 40
2.0
 40
3.0
 40
3.0
 40
3.0
 40
4.0
 40
4.0
 40
4.0
 40
5.0
 40
5.0
 40
5.0
 40
6.0
 40
6.0
 40
6.0
 40
6.0
 10
40.2149441189236043
 20
-66.6271131727430515
 10
40.5546305338541657
 20
-66.1775282118055515
 10
40.5501519097222172
 20
-65.58566080729166
 10
40.2042643229166643
 20
-65.2115234374999915
 10
40.0716281467013857
 20
-65.0909450954861057
 10
39.8966172960069443
 20
-65.0230767144097115
 10
39.7081705729166643
 20
-65.019287109375
 10
39.5190348307291615
 20
-65.0230767144097115
 10
39.3298990885416657
 20
-65.0909450954861057
 10
39.1721137152777743
 20
-65.2115234374999915
 10
38.7473334418402757
 20
-65.58566080729166
 10
38.6184868706597157
 20
-66.1775282118055515
 10
38.8637776692708314
 20
-66.6271131727430515
 10
38.9971028645833329
 20
-66.8444986979166629
 10
39.2341254340277743
 20
-66.9754123263888772
 10
39.5021538628472157
 20
-66.9795464409722143
 10
39.77156032986111
 20
-66.9754123263888772
 10
40.0361436631944443
 20
-66.8444986979166629
 10
40.2149441189236043
 20
-66.6271131727430515
 97
        0
 92
       16
 93
        1
 72
     4
 94
        3
 73
     0
 74
     0
 95
       56
 96
       52
 40
0.0
 40
0.0
 40
0.0
 40
0.0
 40
1.0
 40
1.0
 40
1.0
 40
2.0
 40
2.0
 40
2.0
 40
3.0
 40
3.0
 40
3.0
 40
4.0
 40
4.0
 40
4.0
 40
5.0
 40
5.0
 40
5.0
 40
6.0
 40
6.0
 40
6.0
 40
7.0
 40
7.0
 40
7.0
 40
8.0
 40
8.0
 40
8.0
 40
9.0
 40
9.0
 40
9.0
 40
10.0
 40
10.0
 40
10.0
 40
11.0
 40
11.0
 40
11.0
 40
12.0
 40
12.0
 40
12.0
 40
13.0
 40
13.0
 40
13.0
 40
14.0
 40
14.0
 40
14.0
 40
15.0
 40
15.0
 40
15.0
 40
16.0
 40
16.0
 40
16.0
 40
17.0
 40
17.0
 40
17.0
 40
17.0
 10
38.56233181423611
 20
-65.6642089843749943
 10
38.5685329861111086
 20
-65.4085828993055429
 10
38.42452799479166
 20
-65.1867187499999972
 10
38.1926730685763829
 20
-65.0957682291666657
 10
37.9697753906249957
 20
-65.0058512369791544
 10
37.7100151909722214
 20
-65.0123969184027715
 10
37.4719590928819386
 20
-65.1140272352430429
 10
37.2542290581597157
 20
-65.2039442274305543
 10
37.0761176215277715
 20
-65.3796440972222115
 10
36.98516710069444
 20
-65.5949625651041544
 10
36.8787136501736086
 20
-65.8461100260416572
 10
36.8459852430555515
 20
-66.1155164930555515
 10
36.8907714843749943
 20
-66.3690755208333343
 10
36.9424479166666657
 20
-66.6433051215277743
 10
37.1357177734374986
 20
-66.8572455512152715
 10
37.4034016927083286
 20
-66.9364827473958286
 10
37.57668999565972
 20
-66.9864366319444429
 10
37.7661702473958272
 20
-66.9850585937499972
 10
37.9497938368055543
 20
-66.93200412326388
 10
38.2316026475694386
 20
-66.8534559461805458
 10
38.4527777777777757
 20
-66.6143663194444429
 10
38.5047987196180515
 20
-66.33221299913194
 10
38.5047987196180515
 20
-66.33221299913194
 10
38.1296278211805486
 20
-66.33221299913194
 10
38.1296278211805486
 20
-66.33221299913194
 10
38.1117133246527757
 20
-66.4059380425347143
 10
38.0734727647569429
 20
-66.4755289713541657
 10
38.0200737847222214
 20
-66.5323730468749943
 10
37.9222330729166615
 20
-66.6229790581597143
 10
37.7940755208333314
 20
-66.6705213758680486
 10
37.6686740451388857
 20
-66.6639756944444315
 10
37.5425835503472172
 20
-66.6570855034722172
 10
37.4319959852430486
 20
-66.5967963324652743
 10
37.3641276041666615
 20
-66.49792209201388
 10
37.3052164713541643
 20
-66.4138617621527771
 10
37.2676649305555543
 20
-66.3160210503472172
 10
37.2556070963541615
 20
-66.2109456380208314
 10
37.2442382812499986
 20
-66.09966905381944
 10
37.2490614149305515
 20
-65.9859809027777686
 10
37.2704210069444386
 20
-65.8729817708333343
 10
37.2945366753472172
 20
-65.7503363715277658
 10
37.3503472222222186
 20
-65.6325141059027715
 10
37.43234049479166
 20
-65.5319173177083343
 10
37.5425835503472172
 20
-65.3968695746527686
 10
37.7120822482638829
 20
-65.3238335503472172
 10
37.8760687934027729
 20
-65.3417480468749972
 10
38.0534912109374943
 20
-65.3548394097222172
 10
38.1861273871527729
 20
-65.4881646050347115
 10
38.1971516927083314
 20
-65.6642089843749943
 10
38.1971516927083314
 20
-65.6642089843749943
 10
38.56233181423611
 20
-65.6642089843749943
 10
38.56233181423611
 20
-65.6642089843749943
 97
        0
 92
       16
 93
        1
 72
     4
 94
        3
 73
     0
 74
     0
 95
       41
 96
       37
 40
0.0
 40
0.0
 40
0.0
 40
0.0
 40
1.0
 40
1.0
 40
1.0
 40
2.0
 40
2.0
 40
2.0
 40
3.0
 40
3.0
 40
3.0
 40
4.0
 40
4.0
 40
4.0
 40
5.0
 40
5.0
 40
5.0
 40
6.0
 40
6.0
 40
6.0
 40
7.0
 40
7.0
 40
7.0
 40
8.0
 40
8.0
 40
8.0
 40
9.0
 40
9.0
 40
9.0
 40
10.0
 40
10.0
 40
10.0
 40
11.0
 40
11.0
 40
11.0
 40
12.0
 40
12.0
 40
12.0
 40
12.0
 10
35.4148925781249986
 20
-65.1043809678819372
 10
35.4148925781249986
 20
-65.1043809678819372
 10
35.2261013454861072
 20
-66.9023763020833258
 10
35.2261013454861072
 20
-66.9023763020833258
 10
35.2261013454861072
 20
-66.9023763020833258
 10
36.5758897569444414
 20
-66.9023763020833258
 10
36.5758897569444414
 20
-66.9023763020833258
 10
36.5758897569444414
 20
-66.9023763020833258
 10
36.6079291449652757
 20
-66.5998969184027771
 10
36.6079291449652757
 20
-66.5998969184027771
 10
36.6079291449652757
 20
-66.5998969184027771
 10
35.625732421875
 20
-66.5998969184027771
 10
35.625732421875
 20
-66.5998969184027771
 10
35.625732421875
 20
-66.5998969184027771
 10
35.6770643446180529
 20
-66.1075927734374886
 10
35.6770643446180529
 20
-66.1075927734374886
 10
35.6770643446180529
 20
-66.1075927734374886
 10
36.5242133246527771
 20
-66.1075927734374886
 10
36.5242133246527771
 20
-66.1075927734374886
 10
36.5242133246527771
 20
-66.1075927734374886
 10
36.5562527126736043
 20
-65.80270182291666
 10
36.5562527126736043
 20
-65.80270182291666
 10
36.5562527126736043
 20
-65.80270182291666
 10
35.7122043185763829
 20
-65.80270182291666
 10
35.7122043185763829
 20
-65.80270182291666
 10
35.7122043185763829
 20
-65.80270182291666
 10
35.7532009548611072
 20
-65.4099609374999886
 10
35.7532009548611072
 20
-65.4099609374999886
 10
35.7532009548611072
 20
-65.4099609374999886
 10
36.7195502387152715
 20
-65.4099609374999886
 10
36.7195502387152715
 20
-65.4099609374999886
 10
36.7195502387152715
 20
-65.4099609374999886
 10
36.7512451171874943
 20
-65.1043809678819372
 10
36.7512451171874943
 20
-65.1043809678819372
 10
36.7512451171874943
 20
-65.1043809678819372
 10
35.4148925781249986
 20
-65.1043809678819372
 10
35.4148925781249986
 20
-65.1043809678819372
 97
        0
 92
        1
 93
        1
 72
     4
 94
        3
 73
     0
 74
     0
 95
       23
 96
       19
 40
0.0
 40
0.0
 40
0.0
 40
0.0
 40
1.0
 40
1.0
 40
1.0
 40
2.0
 40
2.0
 40
2.0
 40
3.0
 40
3.0
 40
3.0
 40
4.0
 40
4.0
 40
4.0
 40
5.0
 40
5.0
 40
5.0
 40
6.0
 40
6.0
 40
6.0
 40
6.0
 10
34.0168728298611072
 20
-65.3954915364583229
 10
34.0168728298611072
 20
-65.3954915364583229
 10
34.4757595486111086
 20
-65.3954915364583229
 10
34.4757595486111086
 20
-65.3954915364583229
 10
34.5673990885416629
 20
-65.3961805555555458
 10
34.6449137369791629
 20
-65.4475124782986057
 10
34.6779866536458314
 20
-65.52847222222222
 10
34.7114040798611114
 20
-65.6090874565972229
 10
34.6938340928819429
 20
-65.7062391493055458
 10
34.633544921875
 20
-65.7799641927083343
 10
34.5722222222222157
 20
-65.8536892361111086
 10
34.48264973958333
 20
-65.8970974392361057
 10
34.3916992187499986
 20
-65.89813096788194
 10
34.3916992187499986
 20
-65.89813096788194
 10
33.96450737847222
 20
-65.89813096788194
 10
33.96450737847222
 20
-65.89813096788194
 10
33.96450737847222
 20
-65.89813096788194
 10
34.0168728298611072
 20
-65.3954915364583229
 10
34.0168728298611072
 20
-65.3954915364583229
 97
        0
 92
       16
 93
        1
 72
     4
 94
        3
 73
     0
 74
     0
 95
       56
 96
       52
 40
0.0
 40
0.0
 40
0.0
 40
0.0
 40
1.0
 40
1.0
 40
1.0
 40
2.0
 40
2.0
 40
2.0
 40
3.0
 40
3.0
 40
3.0
 40
4.0
 40
4.0
 40
4.0
 40
5.0
 40
5.0
 40
5.0
 40
6.0
 40
6.0
 40
6.0
 40
7.0
 40
7.0
 40
7.0
 40
8.0
 40
8.0
 40
8.0
 40
9.0
 40
9.0
 40
9.0
 40
10.0
 40
10.0
 40
10.0
 40
11.0
 40
11.0
 40
11.0
 40
12.0
 40
12.0
 40
12.0
 40
13.0
 40
13.0
 40
13.0
 40
14.0
 40
14.0
 40
14.0
 40
15.0
 40
15.0
 40
15.0
 40
16.0
 40
16.0
 40
16.0
 40
17.0
 40
17.0
 40
17.0
 40
17.0
 10
33.6754638671874957
 20
-65.10265842013888
 10
33.6754638671874957
 20
-65.10265842013888
 10
33.486328125
 20
-66.9023763020833258
 10
33.486328125
 20
-66.9023763020833258
 10
33.486328125
 20
-66.9023763020833258
 10
33.8590874565972157
 20
-66.9023763020833258
 10
33.8590874565972157
 20
-66.9023763020833258
 10
33.8590874565972157
 20
-66.9023763020833258
 10
33.9355685763888886
 20
-66.1754611545138829
 10
33.9355685763888886
 20
-66.1754611545138829
 10
33.9355685763888886
 20
-66.1754611545138829
 10
34.1953287760416629
 20
-66.1754611545138829
 10
34.1953287760416629
 20
-66.1754611545138829
 10
34.2580295138888857
 20
-66.1761501736111057
 10
34.3200412326388857
 20
-66.1820068359375
 10
34.3803304036458286
 20
-66.1933756510416629
 10
34.47369249131944
 20
-66.2216254340277715
 10
34.5377712673611086
 20
-66.3018961588541629
 10
34.5450059678819414
 20
-66.4000813802083343
 10
34.5563747829861114
 20
-66.5196261935763857
 10
34.5563747829861114
 20
-66.6408935546874943
 10
34.5456949869791643
 20
-66.7625054253472143
 10
34.54224989149305
 20
-66.8107367621527715
 10
34.5505181206597172
 20
-66.8579345703124943
 10
34.5694661458333314
 20
-66.9003092447916572
 10
34.5694661458333314
 20
-66.9003092447916572
 10
34.9181098090277757
 20
-66.9003092447916572
 10
34.9181098090277757
 20
-66.9003092447916572
 10
34.9043294270833329
 20
-66.8579345703124943
 10
34.8967502170138886
 20
-66.8131483289930515
 10
34.8967502170138886
 20
-66.7666395399305515
 10
34.8967502170138886
 20
-66.7666395399305515
 10
34.9088080512152743
 20
-66.4927544487847229
 10
34.9088080512152743
 20
-66.4927544487847229
 10
34.9139756944444386
 20
-66.4314317491319315
 10
34.9139756944444386
 20
-66.3701090494791544
 10
34.9088080512152743
 20
-66.3091308593749886
 10
34.9001953124999957
 20
-66.16409233940972
 10
34.7930528428819414
 20
-66.0528157552083286
 10
34.6473253038194429
 20
-66.0383463541666629
 10
34.8529975043402729
 20
-66.0059624565972172
 10
35.0235297309027729
 20
-65.8392198350694429
 10
35.0593587239583329
 20
-65.6359592013888857
 10
35.1048339843749986
 20
-65.3810221354166572
 10
34.9463595920138843
 20
-65.1550238715277743
 10
34.6965901692708272
 20
-65.1178168402777686
 10
34.6173529730902771
 20
-65.1054144965277715
 10
34.5363932291666629
 20
-65.1005913628472115
 10
34.4547444661458329
 20
-65.10265842013888
 10
34.4547444661458329
 20
-65.10265842013888
 10
33.6754638671874957
 20
-65.10265842013888
 10
33.6754638671874957
 20
-65.10265842013888
 97
        0
 92
       16
 93
        1
 72
     4
 94
        3
 73
     0
 74
     0
 95
       23
 96
       19
 40
0.0
 40
0.0
 40
0.0
 40
0.0
 40
1.0
 40
1.0
 40
1.0
 40
2.0
 40
2.0
 40
2.0
 40
3.0
 40
3.0
 40
3.0
 40
4.0
 40
4.0
 40
4.0
 40
5.0
 40
5.0
 40
5.0
 40
6.0
 40
6.0
 40
6.0
 40
6.0
 10
31.1660563151041643
 20
-65.1019694010416572
 10
31.1660563151041643
 20
-65.1019694010416572
 10
30.976920572916665
 20
-66.9023763020833258
 10
30.976920572916665
 20
-66.9023763020833258
 10
30.976920572916665
 20
-66.9023763020833258
 10
32.2374810112847214
 20
-66.9023763020833258
 10
32.2374810112847214
 20
-66.9023763020833258
 10
32.2374810112847214
 20
-66.9023763020833258
 10
32.2695203993055557
 20
-66.59817437065972
 10
32.2695203993055557
 20
-66.59817437065972
 10
32.2695203993055557
 20
-66.59817437065972
 10
31.3837863498263872
 20
-66.59817437065972
 10
31.3837863498263872
 20
-66.59817437065972
 10
31.3837863498263872
 20
-66.59817437065972
 10
31.5412272135416636
 20
-65.1019694010416572
 10
31.5412272135416636
 20
-65.1019694010416572
 10
31.5412272135416636
 20
-65.1019694010416572
 10
31.1660563151041643
 20
-65.1019694010416572
 10
31.1660563151041643
 20
-65.1019694010416572
 97
        0
 92
        1
 93
        1
 72
     4
 94
        3
 73
     0
 74
     0
 95
       14
 96
       10
 40
0.0
 40
0.0
 40
0.0
 40
0.0
 40
1.0
 40
1.0
 40
1.0
 40
2.0
 40
2.0
 40
2.0
 40
3.0
 40
3.0
 40
3.0
 40
3.0
 10
30.1035888671874972
 20
-65.4671495225694429
 10
30.1035888671874972
 20
-65.4671495225694429
 10
30.2606852213541622
 20
-66.2453965928819315
 10
30.2606852213541622
 20
-66.2453965928819315
 10
30.2606852213541622
 20
-66.2453965928819315
 10
29.7769938151041629
 20
-66.2453965928819315
 10
29.7769938151041629
 20
-66.2453965928819315
 10
29.7769938151041629
 20
-66.2453965928819315
 10
30.1035888671874972
 20
-65.4671495225694429
 10
30.1035888671874972
 20
-65.4671495225694429
 97
        0
 92
       16
 93
        1
 72
     4
 94
        3
 73
     0
 74
     0
 95
       29
 96
       25
 40
0.0
 40
0.0
 40
0.0
 40
0.0
 40
1.0
 40
1.0
 40
1.0
 40
2.0
 40
2.0
 40
2.0
 40
3.0
 40
3.0
 40
3.0
 40
4.0
 40
4.0
 40
4.0
 40
5.0
 40
5.0
 40
5.0
 40
6.0
 40
6.0
 40
6.0
 40
7.0
 40
7.0
 40
7.0
 40
8.0
 40
8.0
 40
8.0
 40
8.0
 10
29.9437364366319407
 20
-65.1047254774305486
 10
29.9437364366319407
 20
-65.1047254774305486
 10
29.1182915581597186
 20
-66.9023763020833258
 10
29.1182915581597186
 20
-66.9023763020833258
 10
29.1182915581597186
 20
-66.9023763020833258
 10
29.5020751953124964
 20
-66.9023763020833258
 10
29.5020751953124964
 20
-66.9023763020833258
 10
29.5020751953124964
 20
-66.9023763020833258
 10
29.6622721354166643
 20
-66.52065972222222
 10
29.6622721354166643
 20
-66.52065972222222
 10
29.6622721354166643
 20
-66.52065972222222
 10
30.3161512586805522
 20
-66.52065972222222
 10
30.3161512586805522
 20
-66.52065972222222
 10
30.3161512586805522
 20
-66.52065972222222
 10
30.3971110026041629
 20
-66.8992757161458229
 10
30.3971110026041629
 20
-66.8992757161458229
 10
30.3971110026041629
 20
-66.8992757161458229
 10
30.7781385633680529
 20
-66.8992757161458229
 10
30.7781385633680529
 20
-66.8992757161458229
 10
30.7781385633680529
 20
-66.8992757161458229
 10
30.3385443793402736
 20
-65.1047254774305486
 10
30.3385443793402736
 20
-65.1047254774305486
 10
30.3385443793402736
 20
-65.1047254774305486
 10
29.9437364366319407
 20
-65.1047254774305486
 10
29.9437364366319407
 20
-65.1047254774305486
 97
        0
 92
       16
 93
        1
 72
     4
 94
        3
 73
     0
 74
     0
 95
       29
 96
       25
 40
0.0
 40
0.0
 40
0.0
 40
0.0
 40
1.0
 40
1.0
 40
1.0
 40
2.0
 40
2.0
 40
2.0
 40
3.0
 40
3.0
 40
3.0
 40
4.0
 40
4.0
 40
4.0
 40
5.0
 40
5.0
 40
5.0
 40
6.0
 40
6.0
 40
6.0
 40
7.0
 40
7.0
 40
7.0
 40
8.0
 40
8.0
 40
8.0
 40
8.0
 10
27.9149197048611093
 20
-65.1033474392361029
 10
27.9149197048611093
 20
-65.1033474392361029
 10
27.8825358072916636
 20
-65.41271701388888
 10
27.8825358072916636
 20
-65.41271701388888
 10
27.8825358072916636
 20
-65.41271701388888
 10
28.4437418619791629
 20
-65.41271701388888
 10
28.4437418619791629
 20
-65.41271701388888
 10
28.4437418619791629
 20
-65.41271701388888
 10
28.2869900173611093
 20
-66.9023763020833258
 10
28.2869900173611093
 20
-66.9023763020833258
 10
28.2869900173611093
 20
-66.9023763020833258
 10
28.6563042534722179
 20
-66.9023763020833258
 10
28.6563042534722179
 20
-66.9023763020833258
 10
28.6563042534722179
 20
-66.9023763020833258
 10
28.8123670789930522
 20
-65.4134060329861029
 10
28.8123670789930522
 20
-65.4134060329861029
 10
28.8123670789930522
 20
-65.4134060329861029
 10
29.3742621527777743
 20
-65.4134060329861029
 10
29.3742621527777743
 20
-65.4134060329861029
 10
29.3742621527777743
 20
-65.4134060329861029
 10
29.40664605034722
 20
-65.1033474392361029
 10
29.40664605034722
 20
-65.1033474392361029
 10
29.40664605034722
 20
-65.1033474392361029
 10
27.9149197048611093
 20
-65.1033474392361029
 10
27.9149197048611093
 20
-65.1033474392361029
 97
        0
 92
       16
 93
        1
 72
     4
 94
        3
 73
     0
 74
     0
 95
       17
 96
       13
 40
0.0
 40
0.0
 40
0.0
 40
0.0
 40
1.0
 40
1.0
 40
1.0
 40
2.0
 40
2.0
 40
2.0
 40
3.0
 40
3.0
 40
3.0
 40
4.0
 40
4.0
 40
4.0
 40
4.0
 10
27.2675862630208314
 20
-65.1061035156249943
 10
27.2675862630208314
 20
-65.1061035156249943
 10
27.0787950303819436
 20
-66.9023763020833258
 10
27.0787950303819436
 20
-66.9023763020833258
 10
27.0787950303819436
 20
-66.9023763020833258
 10
27.4546549479166657
 20
-66.9023763020833258
 10
27.4546549479166657
 20
-66.9023763020833258
 10
27.4546549479166657
 20
-66.9023763020833258
 10
27.6434461805555536
 20
-65.1061035156249943
 10
27.6434461805555536
 20
-65.1061035156249943
 10
27.6434461805555536
 20
-65.1061035156249943
 10
27.2675862630208314
 20
-65.1061035156249943
 10
27.2675862630208314
 20
-65.1061035156249943
 97
        0
 92
       16
 93
        1
 72
     4
 94
        3
 73
     0
 74
     0
 95
       68
 96
       64
 40
0.0
 40
0.0
 40
0.0
 40
0.0
 40
1.0
 40
1.0
 40
1.0
 40
2.0
 40
2.0
 40
2.0
 40
3.0
 40
3.0
 40
3.0
 40
4.0
 40
4.0
 40
4.0
 40
5.0
 40
5.0
 40
5.0
 40
6.0
 40
6.0
 40
6.0
 40
7.0
 40
7.0
 40
7.0
 40
8.0
 40
8.0
 40
8.0
 40
9.0
 40
9.0
 40
9.0
 40
10.0
 40
10.0
 40
10.0
 40
11.0
 40
11.0
 40
11.0
 40
12.0
 40
12.0
 40
12.0
 40
13.0
 40
13.0
 40
13.0
 40
14.0
 40
14.0
 40
14.0
 40
15.0
 40
15.0
 40
15.0
 40
16.0
 40
16.0
 40
16.0
 40
17.0
 40
17.0
 40
17.0
 40
18.0
 40
18.0
 40
18.0
 40
19.0
 40
19.0
 40
19.0
 40
20.0
 40
20.0
 40
20.0
 40
21.0
 40
21.0
 40
21.0
 40
21.0
 10
25.6656168619791636
 20
-66.9251139322916657
 10
25.9336452907986086
 20
-67.02984483506944
 10
26.2567952473958321
 20
-66.9533637152777743
 10
26.4796929253472193
 20
-66.73287760416666
 10
26.4796929253472193
 20
-66.73287760416666
 10
26.4790039062499964
 20
-66.8961751302083343
 10
26.4790039062499964
 20
-66.8961751302083343
 10
26.4790039062499964
 20
-66.8961751302083343
 10
26.7628797743055529
 20
-66.8961751302083343
 10
26.7628797743055529
 20
-66.8961751302083343
 10
26.7628797743055529
 20
-66.8961751302083343
 10
26.8627875434027743
 20
-65.94705132378472
 10
26.8627875434027743
 20
-65.94705132378472
 10
26.8627875434027743
 20
-65.94705132378472
 10
26.1086561414930536
 20
-65.94705132378472
 10
26.1086561414930536
 20
-65.94705132378472
 10
26.1086561414930536
 20
-65.94705132378472
 10
26.0793728298611072
 20
-66.2257595486111086
 10
26.0793728298611072
 20
-66.2257595486111086
 10
26.0793728298611072
 20
-66.2257595486111086
 10
26.5227566189236086
 20
-66.2257595486111086
 10
26.5227566189236086
 20
-66.2257595486111086
 10
26.4841715494791643
 20
-66.44073350694444
 10
26.3050265842013857
 20
-66.6178114149305429
 10
26.0879855685763857
 20
-66.6560519748263829
 10
25.8706000434027743
 20
-66.6949815538194315
 10
25.6690619574652743
 20
-66.5861165364583343
 10
25.5984374999999993
 20
-66.3904351128472143
 10
25.5319471571180543
 20
-66.1906195746527715
 10
25.5364257812499993
 20
-65.9687554253472115
 10
25.6108398437499964
 20
-65.7572265624999943
 10
25.6532145182291629
 20
-65.6352701822916629
 10
25.7307291666666629
 20
-65.5243381076388829
 10
25.8327039930555529
 20
-65.4395887586805429
 10
25.9587944878472214
 20
-65.3334798177083229
 10
26.1262261284722186
 20
-65.2962727864583314
 10
26.2716091579861093
 20
-65.3417480468749972
 10
26.4169921874999964
 20
-65.38653428819444
 10
26.5193115234374979
 20
-65.50814615885416
 10
26.5399820963541657
 20
-65.6600748697916572
 10
26.5399820963541657
 20
-65.6600748697916572
 10
26.8831136067708307
 20
-65.6600748697916572
 10
26.8831136067708307
 20
-65.6600748697916572
 10
26.8779459635416629
 20
-65.3610405815972229
 10
26.6819200303819422
 20
-65.1174723307291572
 10
26.3932210286458293
 20
-65.0520155164930429
 10
26.270575629340275
 20
-65.0223876953124886
 10
26.1406955295138879
 20
-65.0175645616319429
 10
26.0108154296874972
 20
-65.0375461154513772
 10
25.8078993055555515
 20
-65.0613172743055515
 10
25.6142849392361072
 20
-65.1660481770833258
 10
25.4761366102430529
 20
-65.3265896267361086
 10
25.3607259114583314
 20
-65.4602593315972143
 10
25.2790771484374979
 20
-65.61666666666666
 10
25.238425021701385
 20
-65.7827202690972115
 10
25.238425021701385
 20
-65.7827202690972115
 10
25.2243001302083307
 20
-65.83853081597222
 10
25.2243001302083307
 20
-65.83853081597222
 10
25.1850260416666636
 20
-66.0032063802083258
 10
25.176413302951385
 20
-66.1713270399305458
 10
25.1984619140624986
 20
-66.3332465277777743
 10
25.2349799262152743
 20
-66.6067871093749915
 10
25.4103352864583307
 20
-66.8289957682291629
 10
25.6656168619791636
 20
-66.9251139322916657
 97
        0
 92
       16
 93
        1
 72
     4
 94
        3
 73
     0
 74
     0
 95
       17
 96
       13
 40
0.0
 40
0.0
 40
0.0
 40
0.0
 40
1.0
 40
1.0
 40
1.0
 40
2.0
 40
2.0
 40
2.0
 40
3.0
 40
3.0
 40
3.0
 40
4.0
 40
4.0
 40
4.0
 40
4.0
 10
24.6065945095486072
 20
-65.1061035156249943
 10
24.6065945095486072
 20
-65.1061035156249943
 10
24.4174587673611079
 20
-66.9023763020833258
 10
24.4174587673611079
 20
-66.9023763020833258
 10
24.4174587673611079
 20
-66.9023763020833258
 10
24.79331868489583
 20
-66.9023763020833258
 10
24.79331868489583
 20
-66.9023763020833258
 10
24.79331868489583
 20
-66.9023763020833258
 10
24.98176540798611
 20
-65.1061035156249943
 10
24.98176540798611
 20
-65.1061035156249943
 10
24.98176540798611
 20
-65.1061035156249943
 10
24.6065945095486072
 20
-65.1061035156249943
 10
24.6065945095486072
 20
-65.1061035156249943
 97
        0
 92
        1
 93
        1
 72
     4
 94
        3
 73
     0
 74
     0
 95
       26
 96
       22
 40
0.0
 40
0.0
 40
0.0
 40
0.0
 40
1.0
 40
1.0
 40
1.0
 40
2.0
 40
2.0
 40
2.0
 40
3.0
 40
3.0
 40
3.0
 40
4.0
 40
4.0
 40
4.0
 40
5.0
 40
5.0
 40
5.0
 40
6.0
 40
6.0
 40
6.0
 40
7.0
 40
7.0
 40
7.0
 40
7.0
 10
23.0177164713541629
 20
-66.6026529947916544
 10
23.0177164713541629
 20
-66.6026529947916544
 10
23.1438069661458314
 20
-65.4051378038194429
 10
23.1438069661458314
 20
-65.4051378038194429
 10
23.1438069661458314
 20
-65.4051378038194429
 10
23.3387993706597214
 20
-65.4051378038194429
 10
23.3387993706597214
 20
-65.4051378038194429
 10
23.4046006944444436
 20
-65.4010036892361057
 10
23.4697129991319429
 20
-65.4065158420138886
 10
23.5317247178819429
 20
-65.4213297526041657
 10
23.6781412760416643
 20
-65.4519911024305543
 10
23.7890733506944407
 20
-65.5587890624999972
 10
23.8249023437499972
 20
-65.7021050347222229
 10
23.8717556423611086
 20
-65.8950303819444372
 10
23.8600423177083307
 20
-66.1024251302083314
 10
23.7911404079861093
 20
-66.3008626302083286
 10
23.7263726128472214
 20
-66.4758734809027771
 10
23.5560126410590271
 20
-66.5985188802083314
 10
23.373939344618055
 20
-66.6026529947916544
 10
23.373939344618055
 20
-66.6026529947916544
 10
23.0177164713541629
 20
-66.6026529947916544
 10
23.0177164713541629
 20
-66.6026529947916544
 97
        0
 92
       16
 93
        1
 72
     4
 94
        3
 73
     0
 74
     0
 95
       26
 96
       22
 40
0.0
 40
0.0
 40
0.0
 40
0.0
 40
1.0
 40
1.0
 40
1.0
 40
2.0
 40
2.0
 40
2.0
 40
3.0
 40
3.0
 40
3.0
 40
4.0
 40
4.0
 40
4.0
 40
5.0
 40
5.0
 40
5.0
 40
6.0
 40
6.0
 40
6.0
 40
7.0
 40
7.0
 40
7.0
 40
7.0
 10
22.8042928059895829
 20
-65.1102376302083314
 10
22.8042928059895829
 20
-65.1102376302083314
 10
22.6156738281249972
 20
-66.9023763020833258
 10
22.6156738281249972
 20
-66.9023763020833258
 10
22.6156738281249972
 20
-66.9023763020833258
 10
23.4190700954861093
 20
-66.9023763020833258
 10
23.4190700954861093
 20
-66.9023763020833258
 10
23.6113064236111079
 20
-66.8975531684027658
 10
23.80113118489583
 20
-66.8131483289930515
 10
23.94306911892361
 20
-66.6701768663194372
 10
24.0398763020833321
 20
-66.5688910590277771
 10
24.1149793836805522
 20
-66.4493462456597115
 10
24.162177191840275
 20
-66.3208441840277771
 10
24.2586398654513857
 20
-66.0493706597222143
 10
24.2603624131944429
 20
-65.7627387152777771
 10
24.1659667968749972
 20
-65.5095241970486057
 10
24.07363823784722
 20
-65.2604437934027715
 10
23.8352376302083329
 20
-65.1040364583333258
 10
23.5579074435763864
 20
-65.10989312065972
 10
23.5579074435763864
 20
-65.10989312065972
 10
22.8042928059895829
 20
-65.1102376302083314
 10
22.8042928059895829
 20
-65.1102376302083314
 97
        0
 92
       16
 93
        1
 72
     4
 94
        3
 73
     0
 74
     0
 95
       41
 96
       37
 40
0.0
 40
0.0
 40
0.0
 40
0.0
 40
1.0
 40
1.0
 40
1.0
 40
2.0
 40
2.0
 40
2.0
 40
3.0
 40
3.0
 40
3.0
 40
4.0
 40
4.0
 40
4.0
 40
5.0
 40
5.0
 40
5.0
 40
6.0
 40
6.0
 40
6.0
 40
7.0
 40
7.0
 40
7.0
 40
8.0
 40
8.0
 40
8.0
 40
9.0
 40
9.0
 40
9.0
 40
10.0
 40
10.0
 40
10.0
 40
11.0
 40
11.0
 40
11.0
 40
12.0
 40
12.0
 40
12.0
 40
12.0
 10
20.1700005425347193
 20
-65.1043809678819372
 10
20.1700005425347193
 20
-65.1043809678819372
 10
19.98086480034722
 20
-66.9023763020833258
 10
19.98086480034722
 20
-66.9023763020833258
 10
19.98086480034722
 20
-66.9023763020833258
 10
21.3309977213541657
 20
-66.9023763020833258
 10
21.3309977213541657
 20
-66.9023763020833258
 10
21.3309977213541657
 20
-66.9023763020833258
 10
21.3626925998263886
 20
-66.5998969184027771
 10
21.3626925998263886
 20
-66.5998969184027771
 10
21.3626925998263886
 20
-66.5998969184027771
 10
20.3804958767361093
 20
-66.5998969184027771
 10
20.3804958767361093
 20
-66.5998969184027771
 10
20.3804958767361093
 20
-66.5998969184027771
 10
20.4321723090277771
 20
-66.1075927734374886
 10
20.4321723090277771
 20
-66.1075927734374886
 10
20.4321723090277771
 20
-66.1075927734374886
 10
21.2793212890624979
 20
-66.1075927734374886
 10
21.2793212890624979
 20
-66.1075927734374886
 10
21.2793212890624979
 20
-66.1075927734374886
 10
21.3113606770833321
 20
-65.80270182291666
 10
21.3113606770833321
 20
-65.80270182291666
 10
21.3113606770833321
 20
-65.80270182291666
 10
20.4667955186631936
 20
-65.80270182291666
 10
20.4667955186631936
 20
-65.80270182291666
 10
20.4667955186631936
 20
-65.80270182291666
 10
20.50796440972222
 20
-65.4099609374999886
 10
20.50796440972222
 20
-65.4099609374999886
 10
20.50796440972222
 20
-65.4099609374999886
 10
21.4743136935763879
 20
-65.4099609374999886
 10
21.4743136935763879
 20
-65.4099609374999886
 10
21.4743136935763879
 20
-65.4099609374999886
 10
21.5063530815972186
 20
-65.1043809678819372
 10
21.5063530815972186
 20
-65.1043809678819372
 10
21.5063530815972186
 20
-65.1043809678819372
 10
20.1700005425347193
 20
-65.1043809678819372
 10
20.1700005425347193
 20
-65.1043809678819372
 97
        0
 92
       16
 93
        1
 72
     4
 94
        3
 73
     0
 74
     0
 95
       23
 96
       19
 40
0.0
 40
0.0
 40
0.0
 40
0.0
 40
1.0
 40
1.0
 40
1.0
 40
2.0
 40
2.0
 40
2.0
 40
3.0
 40
3.0
 40
3.0
 40
4.0
 40
4.0
 40
4.0
 40
5.0
 40
5.0
 40
5.0
 40
6.0
 40
6.0
 40
6.0
 40
6.0
 10
18.6558810763888872
 20
-65.1019694010416572
 10
18.6558810763888872
 20
-65.1019694010416572
 10
18.4667453342013879
 20
-66.9023763020833258
 10
18.4667453342013879
 20
-66.9023763020833258
 10
18.4667453342013879
 20
-66.9023763020833258
 10
19.7276502821180522
 20
-66.9023763020833258
 10
19.7276502821180522
 20
-66.9023763020833258
 10
19.7276502821180522
 20
-66.9023763020833258
 10
19.759345160590275
 20
-66.59817437065972
 10
19.759345160590275
 20
-66.59817437065972
 10
19.759345160590275
 20
-66.59817437065972
 10
18.87361111111111
 20
-66.59817437065972
 10
18.87361111111111
 20
-66.59817437065972
 10
18.87361111111111
 20
-66.59817437065972
 10
19.0310519748263864
 20
-65.1019694010416572
 10
19.0310519748263864
 20
-65.1019694010416572
 10
19.0310519748263864
 20
-65.1019694010416572
 10
18.6558810763888872
 20
-65.1019694010416572
 10
18.6558810763888872
 20
-65.1019694010416572
 97
        0
 92
        1
 93
        1
 72
     4
 94
        3
 73
     0
 74
     0
 95
       26
 96
       22
 40
0.0
 40
0.0
 40
0.0
 40
0.0
 40
1.0
 40
1.0
 40
1.0
 40
2.0
 40
2.0
 40
2.0
 40
3.0
 40
3.0
 40
3.0
 40
4.0
 40
4.0
 40
4.0
 40
5.0
 40
5.0
 40
5.0
 40
6.0
 40
6.0
 40
6.0
 40
7.0
 40
7.0
 40
7.0
 40
7.0
 10
17.1913709852430543
 20
-65.8295735677083229
 10
17.1913709852430543
 20
-65.8295735677083229
 10
17.2378797743055543
 20
-65.3879123263888857
 10
17.2378797743055543
 20
-65.3879123263888857
 10
17.2378797743055543
 20
-65.3879123263888857
 10
17.628898111979165
 20
-65.3879123263888857
 10
17.628898111979165
 20
-65.3879123263888857
 10
17.6674831814236093
 20
-65.3879123263888857
 10
17.7057237413194422
 20
-65.3910129123263886
 10
17.7436197916666636
 20
-65.3975585937499915
 10
17.8411159939236086
 20
-65.4147840711805486
 10
17.9051947699652771
 20
-65.4995334201388886
 10
17.8965820312499986
 20
-65.5990966796874915
 10
17.8876247829861086
 20
-65.6993489583333314
 10
17.8087320963541664
 20
-65.7865098741319372
 10
17.7077907986111107
 20
-65.8068359374999972
 10
17.64887966579861
 20
-65.8213053385416629
 10
17.5891072591145807
 20
-65.8288845486111001
 10
17.5298516167534721
 20
-65.8295735677083229
 10
17.5298516167534721
 20
-65.8295735677083229
 10
17.1913709852430543
 20
-65.8295735677083229
 10
17.1913709852430543
 20
-65.8295735677083229
 97
        0
 92
        1
 93
        1
 72
     4
 94
        3
 73
     0
 74
     0
 95
       26
 96
       22
 40
0.0
 40
0.0
 40
0.0
 40
0.0
 40
1.0
 40
1.0
 40
1.0
 40
2.0
 40
2.0
 40
2.0
 40
3.0
 40
3.0
 40
3.0
 40
4.0
 40
4.0
 40
4.0
 40
5.0
 40
5.0
 40
5.0
 40
6.0
 40
6.0
 40
6.0
 40
7.0
 40
7.0
 40
7.0
 40
7.0
 10
17.1135118272569429
 20
-66.6185004340277658
 10
17.1135118272569429
 20
-66.6185004340277658
 10
17.1679443359374986
 20
-66.1024251302083314
 10
17.1679443359374986
 20
-66.1024251302083314
 10
17.1679443359374986
 20
-66.1024251302083314
 10
17.6319986979166643
 20
-66.1024251302083314
 10
17.6319986979166643
 20
-66.1024251302083314
 10
17.6650716145833329
 20
-66.1038031684027771
 10
17.6971110026041636
 20
-66.1096598307291572
 10
17.7274278428819443
 20
-66.1210286458333343
 10
17.8252685546874972
 20
-66.1565131293402686
 10
17.8821126302083329
 20
-66.2533203124999943
 10
17.8678154839409693
 20
-66.3604627821180486
 10
17.853690592447915
 20
-66.4676052517361029
 10
17.7725585937499986
 20
-66.5613118489583258
 10
17.6661051432291636
 20
-66.5916286892361029
 10
17.5854899088541643
 20
-66.6119547526041629
 10
17.5034966362847193
 20
-66.6205674913194343
 10
17.4225368923611086
 20
-66.6185004340277658
 10
17.4225368923611086
 20
-66.6185004340277658
 10
17.1135118272569429
 20
-66.6185004340277658
 10
17.1135118272569429
 20
-66.6185004340277658
 97
        0
 92
       16
 93
        1
 72
     4
 94
        3
 73
     0
 74
     0
 95
       35
 96
       31
 40
0.0
 40
0.0
 40
0.0
 40
0.0
 40
1.0
 40
1.0
 40
1.0
 40
2.0
 40
2.0
 40
2.0
 40
3.0
 40
3.0
 40
3.0
 40
4.0
 40
4.0
 40
4.0
 40
5.0
 40
5.0
 40
5.0
 40
6.0
 40
6.0
 40
6.0
 40
7.0
 40
7.0
 40
7.0
 40
8.0
 40
8.0
 40
8.0
 40
9.0
 40
9.0
 40
9.0
 40
10.0
 40
10.0
 40
10.0
 40
10.0
 10
16.9107679578993029
 20
-65.1047254774305486
 10
16.9107679578993029
 20
-65.1047254774305486
 10
16.7214599609374979
 20
-66.9023763020833258
 10
16.7214599609374979
 20
-66.9023763020833258
 10
16.7214599609374979
 20
-66.9023763020833258
 10
17.6075385199652779
 20
-66.9023763020833258
 10
17.6075385199652779
 20
-66.9023763020833258
 10
17.6805745442708329
 20
-66.8982421874999886
 10
17.7537828233506936
 20
-66.8889404296874943
 10
17.8266465928819429
 20
-66.8734374999999943
 10
18.0467881944444422
 20
-66.8203830295138772
 10
18.2188707139756936
 20
-66.6309027777777771
 10
18.2466037326388886
 20
-66.4117947048611086
 10
18.2745090060763857
 20
-66.1919976128472172
 10
18.15151909722222
 20
-65.9959716796875
 10
17.9461914062499979
 20
-65.9339599609375
 10
18.0554009331597207
 20
-65.8977864583333286
 10
18.1501410590277779
 20
-65.82061631944444
 10
18.2076741536458329
 20
-65.7200195312499886
 10
18.2650349934895821
 20
-65.6194227430555515
 10
18.2813991970486107
 20
-65.5043565538194343
 10
18.2517713758680529
 20
-65.4003146701388829
 10
18.2111192491319436
 20
-65.2631998697916629
 10
18.1022542317708321
 20
-65.1619140624999886
 10
17.9603162977430522
 20
-65.1302191840277658
 10
17.8678154839409693
 20
-65.1112711588541657
 10
17.77290310329861
 20
-65.10265842013888
 10
17.6764404296874993
 20
-65.1047254774305486
 10
17.6764404296874993
 20
-65.1047254774305486
 10
16.9107679578993029
 20
-65.1047254774305486
 10
16.9107679578993029
 20
-65.1047254774305486
 97
        0
 92
        1
 93
        1
 72
     4
 94
        3
 73
     0
 74
     0
 95
       14
 96
       10
 40
0.0
 40
0.0
 40
0.0
 40
0.0
 40
1.0
 40
1.0
 40
1.0
 40
2.0
 40
2.0
 40
2.0
 40
3.0
 40
3.0
 40
3.0
 40
3.0
 10
15.8488172743055546
 20
-65.4671495225694429
 10
15.8488172743055546
 20
-65.4671495225694429
 10
16.00556911892361
 20
-66.2453965928819315
 10
16.00556911892361
 20
-66.2453965928819315
 10
16.00556911892361
 20
-66.2453965928819315
 10
15.5218777126736089
 20
-66.2453965928819315
 10
15.5218777126736089
 20
-66.2453965928819315
 10
15.5218777126736089
 20
-66.2453965928819315
 10
15.8488172743055546
 20
-65.4671495225694429
 10
15.8488172743055546
 20
-65.4671495225694429
 97
        0
 92
       16
 93
        1
 72
     4
 94
        3
 73
     0
 74
     0
 95
       29
 96
       25
 40
0.0
 40
0.0
 40
0.0
 40
0.0
 40
1.0
 40
1.0
 40
1.0
 40
2.0
 40
2.0
 40
2.0
 40
3.0
 40
3.0
 40
3.0
 40
4.0
 40
4.0
 40
4.0
 40
5.0
 40
5.0
 40
5.0
 40
6.0
 40
6.0
 40
6.0
 40
7.0
 40
7.0
 40
7.0
 40
8.0
 40
8.0
 40
8.0
 40
8.0
 10
15.6886203342013868
 20
-65.1047254774305486
 10
15.6886203342013868
 20
-65.1047254774305486
 10
14.8631754557291647
 20
-66.9023763020833258
 10
14.8631754557291647
 20
-66.9023763020833258
 10
14.8631754557291647
 20
-66.9023763020833258
 10
15.2469590928819425
 20
-66.9023763020833258
 10
15.2469590928819425
 20
-66.9023763020833258
 10
15.2469590928819425
 20
-66.9023763020833258
 10
15.40750054253472
 20
-66.52065972222222
 10
15.40750054253472
 20
-66.52065972222222
 10
15.40750054253472
 20
-66.52065972222222
 10
16.0617241753472193
 20
-66.52065972222222
 10
16.0617241753472193
 20
-66.52065972222222
 10
16.0617241753472193
 20
-66.52065972222222
 10
16.1419949001736107
 20
-66.8992757161458229
 10
16.1419949001736107
 20
-66.8992757161458229
 10
16.1419949001736107
 20
-66.8992757161458229
 10
16.5230224609374972
 20
-66.8992757161458229
 10
16.5230224609374972
 20
-66.8992757161458229
 10
16.5230224609374972
 20
-66.8992757161458229
 10
16.0834282769097214
 20
-65.1047254774305486
 10
16.0834282769097214
 20
-65.1047254774305486
 10
16.0834282769097214
 20
-65.1047254774305486
 10
15.6886203342013868
 20
-65.1047254774305486
 10
15.6886203342013868
 20
-65.1047254774305486
 97
        0
 92
       16
 93
        1
 72
     4
 94
        3
 73
     0
 74
     0
 95
       29
 96
       25
 40
0.0
 40
0.0
 40
0.0
 40
0.0
 40
1.0
 40
1.0
 40
1.0
 40
2.0
 40
2.0
 40
2.0
 40
3.0
 40
3.0
 40
3.0
 40
4.0
 40
4.0
 40
4.0
 40
5.0
 40
5.0
 40
5.0
 40
6.0
 40
6.0
 40
6.0
 40
7.0
 40
7.0
 40
7.0
 40
8.0
 40
8.0
 40
8.0
 40
8.0
 10
13.660148111979165
 20
-65.1033474392361029
 10
13.660148111979165
 20
-65.1033474392361029
 10
13.6274197048611097
 20
-65.41271701388888
 10
13.6274197048611097
 20
-65.41271701388888
 10
13.6274197048611097
 20
-65.41271701388888
 10
14.1886257595486089
 20
-65.41271701388888
 10
14.1886257595486089
 20
-65.41271701388888
 10
14.1886257595486089
 20
-65.41271701388888
 10
14.0318739149305536
 20
-66.9023763020833258
 10
14.0318739149305536
 20
-66.9023763020833258
 10
14.0318739149305536
 20
-66.9023763020833258
 10
14.4011881510416657
 20
-66.9023763020833258
 10
14.4011881510416657
 20
-66.9023763020833258
 10
14.4011881510416657
 20
-66.9023763020833258
 10
14.5572509765624982
 20
-65.4134060329861029
 10
14.5572509765624982
 20
-65.4134060329861029
 10
14.5572509765624982
 20
-65.4134060329861029
 10
15.1191460503472204
 20
-65.4134060329861029
 10
15.1191460503472204
 20
-65.4134060329861029
 10
15.1191460503472204
 20
-65.4134060329861029
 10
15.1518744574652757
 20
-65.1033474392361029
 10
15.1518744574652757
 20
-65.1033474392361029
 10
15.1518744574652757
 20
-65.1033474392361029
 10
13.660148111979165
 20
-65.1033474392361029
 10
13.660148111979165
 20
-65.1033474392361029
 97
        0
 92
        1
 93
        1
 72
     4
 94
        3
 73
     0
 74
     0
 95
       23
 96
       19
 40
0.0
 40
0.0
 40
0.0
 40
0.0
 40
1.0
 40
1.0
 40
1.0
 40
2.0
 40
2.0
 40
2.0
 40
3.0
 40
3.0
 40
3.0
 40
4.0
 40
4.0
 40
4.0
 40
5.0
 40
5.0
 40
5.0
 40
6.0
 40
6.0
 40
6.0
 40
6.0
 10
12.3885633680555536
 20
-65.3954915364583229
 10
12.3885633680555536
 20
-65.3954915364583229
 10
12.8477945963541647
 20
-65.3954915364583229
 10
12.8477945963541647
 20
-65.3954915364583229
 10
12.9387451171874996
 20
-65.3961805555555458
 10
13.0166042751736093
 20
-65.4475124782986057
 10
13.0496771918402761
 20
-65.52847222222222
 10
13.0827501085069429
 20
-65.6090874565972229
 10
13.0655246310763875
 20
-65.7062391493055458
 10
13.0052354600694429
 20
-65.7799641927083343
 10
12.94374050564236
 20
-65.8536892361111086
 10
12.8543402777777764
 20
-65.8970974392361057
 10
12.7630452473958318
 20
-65.89813096788194
 10
12.7630452473958318
 20
-65.89813096788194
 10
12.3355088975694436
 20
-65.89813096788194
 10
12.3355088975694436
 20
-65.89813096788194
 10
12.3355088975694436
 20
-65.89813096788194
 10
12.3885633680555536
 20
-65.3954915364583229
 10
12.3885633680555536
 20
-65.3954915364583229
 97
        0
 92
       16
 93
        1
 72
     4
 94
        3
 73
     0
 74
     0
 95
       56
 96
       52
 40
0.0
 40
0.0
 40
0.0
 40
0.0
 40
1.0
 40
1.0
 40
1.0
 40
2.0
 40
2.0
 40
2.0
 40
3.0
 40
3.0
 40
3.0
 40
4.0
 40
4.0
 40
4.0
 40
5.0
 40
5.0
 40
5.0
 40
6.0
 40
6.0
 40
6.0
 40
7.0
 40
7.0
 40
7.0
 40
8.0
 40
8.0
 40
8.0
 40
9.0
 40
9.0
 40
9.0
 40
10.0
 40
10.0
 40
10.0
 40
11.0
 40
11.0
 40
11.0
 40
12.0
 40
12.0
 40
12.0
 40
13.0
 40
13.0
 40
13.0
 40
14.0
 40
14.0
 40
14.0
 40
15.0
 40
15.0
 40
15.0
 40
16.0
 40
16.0
 40
16.0
 40
17.0
 40
17.0
 40
17.0
 40
17.0
 10
12.0469821506076382
 20
-65.10265842013888
 10
12.0469821506076382
 20
-65.10265842013888
 10
11.8580186631944429
 20
-66.9023763020833258
 10
11.8580186631944429
 20
-66.9023763020833258
 10
11.8580186631944429
 20
-66.9023763020833258
 10
12.2304334852430543
 20
-66.9023763020833258
 10
12.2304334852430543
 20
-66.9023763020833258
 10
12.2304334852430543
 20
-66.9023763020833258
 10
12.3069146050347218
 20
-66.1754611545138829
 10
12.3069146050347218
 20
-66.1754611545138829
 10
12.3069146050347218
 20
-66.1754611545138829
 10
12.5670193142361093
 20
-66.1754611545138829
 10
12.5670193142361093
 20
-66.1754611545138829
 10
12.6297200520833321
 20
-66.1761501736111057
 10
12.6917317708333321
 20
-66.1820068359375
 10
12.7520209418402768
 20
-66.1933756510416629
 10
12.8453830295138882
 20
-66.2216254340277715
 10
12.9091172960069436
 20
-66.3018961588541629
 10
12.9170410156249993
 20
-66.4000813802083343
 10
12.9280653211805543
 20
-66.5196261935763857
 10
12.9280653211805543
 20
-66.6408935546874943
 10
12.9173855251736107
 20
-66.7625054253472143
 10
12.9139404296874982
 20
-66.8107367621527715
 10
12.9218641493055539
 20
-66.8579345703124943
 10
12.9408121744791647
 20
-66.9003092447916572
 10
12.9408121744791647
 20
-66.9003092447916572
 10
13.2894558376736107
 20
-66.9003092447916572
 10
13.2894558376736107
 20
-66.9003092447916572
 10
13.2756754557291661
 20
-66.8579345703124943
 10
13.2684407552083314
 20
-66.8131483289930515
 10
13.2684407552083314
 20
-66.7666395399305515
 10
13.2684407552083314
 20
-66.7666395399305515
 10
13.280326334635415
 20
-66.4927544487847229
 10
13.280326334635415
 20
-66.4927544487847229
 10
13.2856662326388868
 20
-66.4314317491319315
 10
13.2856662326388868
 20
-66.3701090494791544
 10
13.280326334635415
 20
-66.3091308593749886
 10
13.2718858506944439
 20
-66.16409233940972
 10
13.1645711263020821
 20
-66.0528157552083286
 10
13.0190158420138875
 20
-66.0383463541666629
 10
13.2246880425347211
 20
-66.0059624565972172
 10
13.3952202690972211
 20
-65.8392198350694429
 10
13.4310492621527757
 20
-65.6359592013888857
 10
13.4765245225694432
 20
-65.3810221354166572
 10
13.3180501302083325
 20
-65.1550238715277743
 10
13.0682807074652771
 20
-65.1178168402777686
 10
12.9890435112847218
 20
-65.1054144965277715
 10
12.9080837673611093
 20
-65.1005913628472115
 10
12.8266072591145814
 20
-65.10265842013888
 10
12.8266072591145814
 20
-65.10265842013888
 10
12.0469821506076382
 20
-65.10265842013888
 10
12.0469821506076382
 20
-65.10265842013888
 97
        0
 92
        1
 93
        1
 72
     4
 94
        3
 73
     0
 74
     0
 95
       29
 96
       25
 40
0.0
 40
0.0
 40
0.0
 40
0.0
 40
1.0
 40
1.0
 40
1.0
 40
2.0
 40
2.0
 40
2.0
 40
3.0
 40
3.0
 40
3.0
 40
4.0
 40
4.0
 40
4.0
 40
5.0
 40
5.0
 40
5.0
 40
6.0
 40
6.0
 40
6.0
 40
7.0
 40
7.0
 40
7.0
 40
8.0
 40
8.0
 40
8.0
 40
8.0
 10
11.2168863932291654
 20
-66.3105088975694343
 10
11.18415798611111
 20
-66.3794108072916629
 10
11.1410942925347207
 20
-66.4428005642361086
 10
11.0892456054687489
 20
-66.4999891493055486
 10
10.9995008680555539
 20
-66.5998969184027771
 10
10.8737548828124986
 20
-66.6605305989583314
 10
10.7452528211805554
 20
-66.6653537326388772
 10
10.6174397786458332
 20
-66.6605305989583314
 10
10.5047851562499996
 20
-66.5998969184027771
 10
10.4358832465277764
 20
-66.4999891493055486
 10
10.3962646484374996
 20
-66.4428005642361086
 10
10.3662923177083321
 20
-66.3794108072916629
 10
10.3480333116319443
 20
-66.3105088975694343
 10
10.2825764973958318
 20
-66.0459255642361001
 10
10.3501003689236093
 20
-65.7524034288194343
 10
10.5304511176215261
 20
-65.5181369357638772
 10
10.6201958550347211
 20
-65.4099609374999886
 10
10.7505927191840271
 20
-65.3441596137152771
 10
10.8847791883680554
 20
-65.3389919704861057
 10
11.0177598741319436
 20
-65.3441596137152771
 10
11.1348931206597204
 20
-65.4099609374999886
 10
11.2013834635416654
 20
-65.5181369357638772
 10
11.3322970920138886
 20
-65.7524034288194343
 10
11.3378092447916661
 20
-66.0459255642361001
 10
11.2168863932291654
 20
-66.3105088975694343
 97
        0
 92
       16
 93
        1
 72
     4
 94
        3
 73
     0
 74
     0
 95
       23
 96
       19
 40
0.0
 40
0.0
 40
0.0
 40
0.0
 40
1.0
 40
1.0
 40
1.0
 40
2.0
 40
2.0
 40
2.0
 40
3.0
 40
3.0
 40
3.0
 40
4.0
 40
4.0
 40
4.0
 40
5.0
 40
5.0
 40
5.0
 40
6.0
 40
6.0
 40
6.0
 40
6.0
 10
11.4246256510416657
 20
-66.6271131727430515
 10
11.7643120659722218
 20
-66.1775282118055515
 10
11.7601779513888882
 20
-65.58566080729166
 10
11.4141181098090261
 20
-65.2115234374999915
 10
11.2819986979166664
 20
-65.0909450954861057
 10
11.10664333767361
 20
-65.0230767144097115
 10
10.9185411241319432
 20
-65.019287109375
 10
10.7290608723958325
 20
-65.0230767144097115
 10
10.5395806206597218
 20
-65.0909450954861057
 10
10.3817952473958321
 20
-65.2115234374999915
 10
9.9577039930555546
 20
-65.58566080729166
 10
9.8285129123263886
 20
-66.1775282118055515
 10
10.0738037109374989
 20
-66.6271131727430515
 10
10.2067843967013872
 20
-66.8444986979166629
 10
10.4439792209201379
 20
-66.9754123263888772
 10
10.7121799045138886
 20
-66.9795464409722143
 10
10.9812418619791661
 20
-66.9754123263888772
 10
11.2458251953124986
 20
-66.8444986979166629
 10
11.4246256510416657
 20
-66.6271131727430515
 97
        0
 92
        1
 93
        1
 72
     4
 94
        3
 73
     0
 74
     0
 95
       26
 96
       22
 40
0.0
 40
0.0
 40
0.0
 40
0.0
 40
1.0
 40
1.0
 40
1.0
 40
2.0
 40
2.0
 40
2.0
 40
3.0
 40
3.0
 40
3.0
 40
4.0
 40
4.0
 40
4.0
 40
5.0
 40
5.0
 40
5.0
 40
6.0
 40
6.0
 40
6.0
 40
7.0
 40
7.0
 40
7.0
 40
7.0
 10
8.7736246744791657
 20
-65.3968695746527686
 10
8.7736246744791657
 20
-65.3968695746527686
 10
9.1160671657986097
 20
-65.3968695746527686
 10
9.1160671657986097
 20
-65.3968695746527686
 10
9.2097737630208325
 20
-65.3961805555555458
 10
9.2938340928819443
 20
-65.4388997395833343
 10
9.3448215060763875
 20
-65.5119357638888857
 10
9.3856458875868043
 20
-65.5718804253472172
 10
9.3989095052083318
 20
-65.64767252604166
 10
9.381339518229165
 20
-65.7234646267361029
 10
9.3641140407986097
 20
-65.7989122178819343
 10
9.3172607421875
 20
-65.8674696180555515
 10
9.2521484374999989
 20
-65.91363389756944
 10
9.1984049479166661
 20
-65.9463623046874972
 10
9.1388047960069443
 20
-65.9656548394097229
 10
9.0781711154513882
 20
-65.9701334635416572
 10
9.0781711154513882
 20
-65.9701334635416572
 10
8.7133355034722211
 20
-65.9701334635416572
 10
8.7133355034722211
 20
-65.9701334635416572
 10
8.7133355034722211
 20
-65.9701334635416572
 10
8.7736246744791657
 20
-65.3968695746527686
 10
8.7736246744791657
 20
-65.3968695746527686
 97
        0
 92
       16
 93
        1
 72
     4
 94
        3
 73
     0
 74
     0
 95
       32
 96
       28
 40
0.0
 40
0.0
 40
0.0
 40
0.0
 40
1.0
 40
1.0
 40
1.0
 40
2.0
 40
2.0
 40
2.0
 40
3.0
 40
3.0
 40
3.0
 40
4.0
 40
4.0
 40
4.0
 40
5.0
 40
5.0
 40
5.0
 40
6.0
 40
6.0
 40
6.0
 40
7.0
 40
7.0
 40
7.0
 40
8.0
 40
8.0
 40
8.0
 40
9.0
 40
9.0
 40
9.0
 40
9.0
 10
8.4377278645833318
 20
-65.0978352864583343
 10
8.4377278645833318
 20
-65.0978352864583343
 10
8.2482476128472211
 20
-66.9023763020833258
 10
8.2482476128472211
 20
-66.9023763020833258
 10
8.2482476128472211
 20
-66.9023763020833258
 10
8.6141167534722207
 20
-66.9023763020833258
 10
8.6141167534722207
 20
-66.9023763020833258
 10
8.6141167534722207
 20
-66.9023763020833258
 10
8.6799180772569429
 20
-66.2767469618055429
 10
8.6799180772569429
 20
-66.2767469618055429
 10
8.6799180772569429
 20
-66.2767469618055429
 10
9.1536187065972214
 20
-66.2650336371527686
 10
9.1536187065972214
 20
-66.2650336371527686
 10
9.4178575303819443
 20
-66.2598659939236114
 10
9.6597032335069439
 20
-66.0659071180555486
 10
9.7249877929687489
 20
-65.8061469184027743
 10
9.7525485568576382
 20
-65.7048611111111001
 10
9.7568549262152775
 20
-65.6015082465277715
 10
9.7375623914930554
 20
-65.5029785156249886
 10
9.6962212456597214
 20
-65.2790473090277743
 10
9.5136311848958321
 20
-65.1198838975694372
 10
9.2810872395833321
 20
-65.1047254774305486
 10
9.2035725911458321
 20
-65.1005913628472115
 10
9.1253689236111111
 20
-65.0978352864583343
 10
9.0469930013020825
 20
-65.0978352864583343
 10
9.0469930013020825
 20
-65.0978352864583343
 10
8.4377278645833318
 20
-65.0978352864583343
 10
8.4377278645833318
 20
-65.0978352864583343
 97
        0
 75
     2
 76
     1
 98
        1
 10
0.0
 20
0.0
  0
HATCH
  5
94
100
AcDbEntity
  8
SILK_
390
0
 62
     7
100
AcDbHatch
 10
0.0
 20
0.0
 30
0.0
210
0.0
220
0.0
230
1.0
  2
SOLID
 70
     1
 71
     0
 91
       12
 92
       16
 93
        1
 72
     4
 94
        3
 73
     0
 74
     0
 95
       41
 96
       37
 40
0.0
 40
0.0
 40
0.0
 40
0.0
 40
1.0
 40
1.0
 40
1.0
 40
2.0
 40
2.0
 40
2.0
 40
3.0
 40
3.0
 40
3.0
 40
4.0
 40
4.0
 40
4.0
 40
5.0
 40
5.0
 40
5.0
 40
6.0
 40
6.0
 40
6.0
 40
7.0
 40
7.0
 40
7.0
 40
8.0
 40
8.0
 40
8.0
 40
9.0
 40
9.0
 40
9.0
 40
10.0
 40
10.0
 40
10.0
 40
11.0
 40
11.0
 40
11.0
 40
12.0
 40
12.0
 40
12.0
 40
12.0
 10
28.775504557291665
 20
-82.1052381727430429
 10
28.775504557291665
 20
-82.1052381727430429
 10
28.775504557291665
 20
-83.9028889973958201
 10
28.775504557291665
 20
-83.9028889973958201
 10
28.775504557291665
 20
-83.9028889973958201
 10
29.9840440538194422
 20
-83.9028889973958201
 10
29.9840440538194422
 20
-83.9028889973958201
 10
29.9840440538194422
 20
-83.9028889973958201
 10
29.9840440538194422
 20
-83.60006510416666
 10
29.9840440538194422
 20
-83.60006510416666
 10
29.9840440538194422
 20
-83.60006510416666
 10
29.1045111762152757
 20
-83.60006510416666
 10
29.1045111762152757
 20
-83.60006510416666
 10
29.1045111762152757
 20
-83.60006510416666
 10
29.1045111762152757
 20
-83.1077609592013857
 10
29.1045111762152757
 20
-83.1077609592013857
 10
29.1045111762152757
 20
-83.1077609592013857
 10
29.8624321831597186
 20
-83.1077609592013857
 10
29.8624321831597186
 20
-83.1077609592013857
 10
29.8624321831597186
 20
-83.1077609592013857
 10
29.8624321831597186
 20
-82.8035590277777658
 10
29.8624321831597186
 20
-82.8035590277777658
 10
29.8624321831597186
 20
-82.8035590277777658
 10
29.1065782335069407
 20
-82.8035590277777658
 10
29.1065782335069407
 20
-82.8035590277777658
 10
29.1065782335069407
 20
-82.8035590277777658
 10
29.1065782335069407
 20
-82.4104736328124972
 10
29.1065782335069407
 20
-82.4104736328124972
 10
29.1065782335069407
 20
-82.4104736328124972
 10
29.9716417100694414
 20
-82.4104736328124972
 10
29.9716417100694414
 20
-82.4104736328124972
 10
29.9716417100694414
 20
-82.4104736328124972
 10
29.9716417100694414
 20
-82.1052381727430429
 10
29.9716417100694414
 20
-82.1052381727430429
 10
29.9716417100694414
 20
-82.1052381727430429
 10
28.775504557291665
 20
-82.1052381727430429
 10
28.775504557291665
 20
-82.1052381727430429
 97
        0
 92
       16
 93
        1
 72
     4
 94
        3
 73
     0
 74
     0
 95
       44
 96
       40
 40
0.0
 40
0.0
 40
0.0
 40
0.0
 40
1.0
 40
1.0
 40
1.0
 40
2.0
 40
2.0
 40
2.0
 40
3.0
 40
3.0
 40
3.0
 40
4.0
 40
4.0
 40
4.0
 40
5.0
 40
5.0
 40
5.0
 40
6.0
 40
6.0
 40
6.0
 40
7.0
 40
7.0
 40
7.0
 40
8.0
 40
8.0
 40
8.0
 40
9.0
 40
9.0
 40
9.0
 40
10.0
 40
10.0
 40
10.0
 40
11.0
 40
11.0
 40
11.0
 40
12.0
 40
12.0
 40
12.0
 40
13.0
 40
13.0
 40
13.0
 40
13.0
 10
26.83315972222222
 20
-82.10110405815972
 10
26.83315972222222
 20
-82.10110405815972
 10
26.83315972222222
 20
-83.9028889973958201
 10
26.83315972222222
 20
-83.9028889973958201
 10
26.83315972222222
 20
-83.9028889973958201
 10
27.1346055772569414
 20
-83.9028889973958201
 10
27.1346055772569414
 20
-83.9028889973958201
 10
27.1346055772569414
 20
-83.9028889973958201
 10
27.1346055772569414
 20
-82.6140787760416657
 10
27.1346055772569414
 20
-82.6140787760416657
 10
27.1346055772569414
 20
-82.6140787760416657
 10
27.4742919921874957
 20
-83.9015109592013744
 10
27.4742919921874957
 20
-83.9015109592013744
 10
27.4742919921874957
 20
-83.9015109592013744
 10
27.7984754774305536
 20
-83.9015109592013744
 10
27.7984754774305536
 20
-83.9015109592013744
 10
27.7984754774305536
 20
-83.9015109592013744
 10
28.1457411024305522
 20
-82.6120117187499972
 10
28.1457411024305522
 20
-82.6120117187499972
 10
28.1457411024305522
 20
-82.6120117187499972
 10
28.1457411024305522
 20
-83.9004774305555543
 10
28.1457411024305522
 20
-83.9004774305555543
 10
28.1457411024305522
 20
-83.9004774305555543
 10
28.4513210720486072
 20
-83.9004774305555543
 10
28.4513210720486072
 20
-83.9004774305555543
 10
28.4513210720486072
 20
-83.9004774305555543
 10
28.4513210720486072
 20
-82.1024820963541657
 10
28.4513210720486072
 20
-82.1024820963541657
 10
28.4513210720486072
 20
-82.1024820963541657
 10
27.9769314236111093
 20
-82.1024820963541657
 10
27.9769314236111093
 20
-82.1024820963541657
 10
27.9769314236111093
 20
-82.1024820963541657
 10
27.6427571614583307
 20
-83.3902587890624858
 10
27.6427571614583307
 20
-83.3902587890624858
 10
27.6427571614583307
 20
-83.3902587890624858
 10
27.3041042751736072
 20
-82.10110405815972
 10
27.3041042751736072
 20
-82.10110405815972
 10
27.3041042751736072
 20
-82.10110405815972
 10
26.83315972222222
 20
-82.10110405815972
 10
26.83315972222222
 20
-82.10110405815972
 97
        0
 92
        1
 93
        1
 72
     4
 94
        3
 73
     0
 74
     0
 95
       29
 96
       25
 40
0.0
 40
0.0
 40
0.0
 40
0.0
 40
1.0
 40
1.0
 40
1.0
 40
2.0
 40
2.0
 40
2.0
 40
3.0
 40
3.0
 40
3.0
 40
4.0
 40
4.0
 40
4.0
 40
5.0
 40
5.0
 40
5.0
 40
6.0
 40
6.0
 40
6.0
 40
7.0
 40
7.0
 40
7.0
 40
8.0
 40
8.0
 40
8.0
 40
8.0
 10
26.2037407769097186
 20
-83.3113661024305543
 10
26.1806586371527743
 20
-83.3799235026041572
 10
26.1482747395833321
 20
-83.4436577690972143
 10
26.1072781032986079
 20
-83.5005018446180429
 10
26.0363091362847214
 20
-83.6007541232638829
 10
25.929511176215275
 20
-83.6613878038194372
 10
25.8147894965277764
 20
-83.6662109374999972
 10
25.7000678168402743
 20
-83.6613878038194372
 10
25.5932698567708314
 20
-83.6007541232638829
 10
25.5223008897569414
 20
-83.5005018446180429
 10
25.4816487630208321
 20
-83.4436577690972143
 10
25.448920355902775
 20
-83.3799235026041572
 10
25.4261827256944422
 20
-83.3113661024305543
 10
25.342811414930555
 20
-83.0460937499999972
 10
25.3751953124999972
 20
-82.7529161241319429
 10
25.5147216796874972
 20
-82.5183051215277743
 10
25.5846571180555529
 20
-82.4104736328124972
 10
25.6952446831597214
 20
-82.3446723090277715
 10
25.8147894965277764
 20
-82.3395046657986001
 10
25.9343343098958314
 20
-82.3446723090277715
 10
26.0452663845486079
 20
-82.4104736328124972
 10
26.1152018229166636
 20
-82.5183051215277743
 10
26.2543836805555522
 20
-82.7529161241319429
 10
26.2871120876736093
 20
-83.0460937499999972
 10
26.2037407769097186
 20
-83.3113661024305543
 97
        0
 92
       16
 93
        1
 72
     4
 94
        3
 73
     0
 74
     0
 95
       23
 96
       19
 40
0.0
 40
0.0
 40
0.0
 40
0.0
 40
1.0
 40
1.0
 40
1.0
 40
2.0
 40
2.0
 40
2.0
 40
3.0
 40
3.0
 40
3.0
 40
4.0
 40
4.0
 40
4.0
 40
5.0
 40
5.0
 40
5.0
 40
6.0
 40
6.0
 40
6.0
 40
6.0
 10
26.4194037543402764
 20
-83.6276258680555458
 10
26.6812310112847193
 20
-83.1780409071180458
 10
26.6216308593749993
 20
-82.5861735026041544
 10
26.2767768012152771
 20
-82.2123806423610972
 10
26.1468967013888864
 20
-82.0914577907986001
 10
25.9839436848958307
 20
-82.02358940972222
 10
25.8147894965277764
 20
-82.0201443142361057
 10
25.64597981770833
 20
-82.02358940972222
 10
25.4830268012152743
 20
-82.0914577907986001
 10
25.3531467013888872
 20
-82.2123806423610972
 10
25.0079481336805536
 20
-82.5861735026041544
 10
24.94834798177083
 20
-83.1780409071180458
 10
25.2101752387152764
 20
-83.6276258680555458
 10
25.3497016059027764
 20
-83.8453559027777686
 10
25.5743218315972207
 20
-83.9762695312499972
 10
25.8147894965277764
 20
-83.9797146267360972
 10
26.0552571614583321
 20
-83.9762695312499972
 10
26.2798773871527764
 20
-83.8453559027777686
 10
26.4194037543402764
 20
-83.6276258680555458
 97
        0
 92
       16
 93
        1
 72
     4
 94
        3
 73
     0
 74
     0
 95
       41
 96
       37
 40
0.0
 40
0.0
 40
0.0
 40
0.0
 40
1.0
 40
1.0
 40
1.0
 40
2.0
 40
2.0
 40
2.0
 40
3.0
 40
3.0
 40
3.0
 40
4.0
 40
4.0
 40
4.0
 40
5.0
 40
5.0
 40
5.0
 40
6.0
 40
6.0
 40
6.0
 40
7.0
 40
7.0
 40
7.0
 40
8.0
 40
8.0
 40
8.0
 40
9.0
 40
9.0
 40
9.0
 40
10.0
 40
10.0
 40
10.0
 40
11.0
 40
11.0
 40
11.0
 40
12.0
 40
12.0
 40
12.0
 40
12.0
 10
24.4381293402777757
 20
-82.1000705295138857
 10
24.4381293402777757
 20
-82.1000705295138857
 10
24.4381293402777757
 20
-82.8014919704860972
 10
24.4381293402777757
 20
-82.8014919704860972
 10
24.4381293402777757
 20
-82.8014919704860972
 10
23.79458550347222
 20
-82.8014919704860972
 10
23.79458550347222
 20
-82.8014919704860972
 10
23.79458550347222
 20
-82.8014919704860972
 10
23.79458550347222
 20
-82.1038601345485972
 10
23.79458550347222
 20
-82.1038601345485972
 10
23.79458550347222
 20
-82.1038601345485972
 10
23.4673014322916629
 20
-82.1038601345485972
 10
23.4673014322916629
 20
-82.1038601345485972
 10
23.4673014322916629
 20
-82.1038601345485972
 10
23.4673014322916629
 20
-83.9028889973958201
 10
23.4673014322916629
 20
-83.9028889973958201
 10
23.4673014322916629
 20
-83.9028889973958201
 10
23.7976860894097193
 20
-83.9028889973958201
 10
23.7976860894097193
 20
-83.9028889973958201
 10
23.7976860894097193
 20
-83.9028889973958201
 10
23.7976860894097193
 20
-83.1101725260416657
 10
23.7976860894097193
 20
-83.1101725260416657
 10
23.7976860894097193
 20
-83.1101725260416657
 10
24.4439860026041629
 20
-83.1101725260416657
 10
24.4439860026041629
 20
-83.1101725260416657
 10
24.4439860026041629
 20
-83.1101725260416657
 10
24.4439860026041629
 20
-83.8963433159722172
 10
24.4439860026041629
 20
-83.8963433159722172
 10
24.4439860026041629
 20
-83.8963433159722172
 10
24.7723036024305543
 20
-83.8963433159722172
 10
24.7723036024305543
 20
-83.8963433159722172
 10
24.7723036024305543
 20
-83.8963433159722172
 10
24.7723036024305543
 20
-82.1000705295138857
 10
24.7723036024305543
 20
-82.1000705295138857
 10
24.7723036024305543
 20
-82.1000705295138857
 10
24.4381293402777757
 20
-82.1000705295138857
 10
24.4381293402777757
 20
-82.1000705295138857
 97
        0
 92
       16
 93
        1
 72
     4
 94
        3
 73
     0
 74
     0
 95
       17
 96
       13
 40
0.0
 40
0.0
 40
0.0
 40
0.0
 40
1.0
 40
1.0
 40
1.0
 40
2.0
 40
2.0
 40
2.0
 40
3.0
 40
3.0
 40
3.0
 40
4.0
 40
4.0
 40
4.0
 40
4.0
 10
22.9415798611111086
 20
-82.0883572048610972
 10
22.9415798611111086
 20
-82.0883572048610972
 10
22.2005398220486079
 20
-83.9028889973958201
 10
22.2005398220486079
 20
-83.9028889973958201
 10
22.2005398220486079
 20
-83.9028889973958201
 10
22.4882052951388864
 20
-83.9028889973958201
 10
22.4882052951388864
 20
-83.9028889973958201
 10
22.4882052951388864
 20
-83.9028889973958201
 10
23.2240776909722193
 20
-82.0883572048610972
 10
23.2240776909722193
 20
-82.0883572048610972
 10
23.2240776909722193
 20
-82.0883572048610972
 10
22.9415798611111086
 20
-82.0883572048610972
 10
22.9415798611111086
 20
-82.0883572048610972
 97
        0
 92
        1
 93
        1
 72
     4
 94
        3
 73
     0
 74
     0
 95
       26
 96
       22
 40
0.0
 40
0.0
 40
0.0
 40
0.0
 40
1.0
 40
1.0
 40
1.0
 40
2.0
 40
2.0
 40
2.0
 40
3.0
 40
3.0
 40
3.0
 40
4.0
 40
4.0
 40
4.0
 40
5.0
 40
5.0
 40
5.0
 40
6.0
 40
6.0
 40
6.0
 40
7.0
 40
7.0
 40
7.0
 40
7.0
 10
21.0591796874999986
 20
-82.3973822699652771
 10
21.0591796874999986
 20
-82.3973822699652771
 10
21.3657931857638879
 20
-82.3973822699652771
 10
21.3657931857638879
 20
-82.3973822699652771
 10
21.4495090060763864
 20
-82.3970377604166657
 10
21.529090711805555
 20
-82.4394124348958286
 10
21.5811116536458307
 20
-82.5121039496527686
 10
21.6234863281249972
 20
-82.5720486111111001
 10
21.6424343532986079
 20
-82.6481852213541544
 10
21.6341661241319407
 20
-82.7236328124999858
 10
21.6255533854166657
 20
-82.7994249131944429
 10
21.5904134114583321
 20
-82.8676378038194343
 10
21.5359809027777764
 20
-82.9141465928819343
 10
21.49119466145833
 20
-82.9468749999999915
 10
21.43934597439236
 20
-82.9661675347222172
 10
21.3861192491319407
 20
-82.9706461588541657
 10
21.3861192491319407
 20
-82.9706461588541657
 10
21.0591796874999986
 20
-82.9706461588541657
 10
21.0591796874999986
 20
-82.9706461588541657
 10
21.0591796874999986
 20
-82.9706461588541657
 10
21.0591796874999986
 20
-82.3973822699652771
 10
21.0591796874999986
 20
-82.3973822699652771
 97
        0
 92
       16
 93
        1
 72
     4
 94
        3
 73
     0
 74
     0
 95
       32
 96
       28
 40
0.0
 40
0.0
 40
0.0
 40
0.0
 40
1.0
 40
1.0
 40
1.0
 40
2.0
 40
2.0
 40
2.0
 40
3.0
 40
3.0
 40
3.0
 40
4.0
 40
4.0
 40
4.0
 40
5.0
 40
5.0
 40
5.0
 40
6.0
 40
6.0
 40
6.0
 40
7.0
 40
7.0
 40
7.0
 40
8.0
 40
8.0
 40
8.0
 40
9.0
 40
9.0
 40
9.0
 40
9.0
 10
20.7305175781249993
 20
-82.0980034722222172
 10
20.7305175781249993
 20
-82.0980034722222172
 10
20.7305175781249993
 20
-83.9028889973958201
 10
20.7305175781249993
 20
-83.9028889973958201
 10
20.7305175781249993
 20
-83.9028889973958201
 10
21.0578016493055529
 20
-83.9028889973958201
 10
21.0578016493055529
 20
-83.9028889973958201
 10
21.0578016493055529
 20
-83.9028889973958201
 10
21.0578016493055529
 20
-83.2772596571180515
 10
21.0578016493055529
 20
-83.2772596571180515
 10
21.0578016493055529
 20
-83.2772596571180515
 10
21.4808593749999979
 20
-83.2655463324652771
 10
21.4808593749999979
 20
-83.2655463324652771
 10
21.71719292534722
 20
-83.2603786892361057
 10
21.9149414062499979
 20
-83.0667643229166544
 10
21.9493923611111086
 20
-82.80700412326388
 10
21.9645507812499972
 20
-82.70571831597222
 10
21.95869411892361
 20
-82.6016764322916544
 10
21.9318223741319436
 20
-82.5038357204861086
 10
21.8739447699652771
 20
-82.2795600043402686
 10
21.6954888237847214
 20
-82.1200520833333201
 10
21.4863715277777771
 20
-82.1052381727430429
 10
21.41609157986111
 20
-82.1007595486111086
 10
21.3458116319444429
 20
-82.0980034722222172
 10
21.2755316840277757
 20
-82.0980034722222172
 10
21.2755316840277757
 20
-82.0980034722222172
 10
20.7305175781249993
 20
-82.0980034722222172
 10
20.7305175781249993
 20
-82.0980034722222172
 97
        0
 92
        1
 93
        1
 72
     4
 94
        3
 73
     0
 74
     0
 95
       29
 96
       25
 40
0.0
 40
0.0
 40
0.0
 40
0.0
 40
1.0
 40
1.0
 40
1.0
 40
2.0
 40
2.0
 40
2.0
 40
3.0
 40
3.0
 40
3.0
 40
4.0
 40
4.0
 40
4.0
 40
5.0
 40
5.0
 40
5.0
 40
6.0
 40
6.0
 40
6.0
 40
7.0
 40
7.0
 40
7.0
 40
8.0
 40
8.0
 40
8.0
 40
8.0
 10
20.1010986328124979
 20
-83.3113661024305543
 10
20.078361002604165
 20
-83.3799235026041572
 10
20.0456325954861079
 20
-83.4436577690972143
 10
20.0046359592013872
 20
-83.5005018446180429
 10
19.9336669921874972
 20
-83.6007541232638829
 10
19.8268690321180543
 20
-83.6613878038194372
 10
19.7121473524305522
 20
-83.6662109374999972
 10
19.5974256727430536
 20
-83.6613878038194372
 10
19.4906277126736107
 20
-83.6007541232638829
 10
19.4196587456597207
 20
-83.5005018446180429
 10
19.378662109375
 20
-83.4436577690972143
 10
19.3462782118055543
 20
-83.3799235026041572
 10
19.3233683268229157
 20
-83.3113661024305543
 10
19.2401692708333307
 20
-83.0460937499999972
 10
19.2725531684027764
 20
-82.7529161241319429
 10
19.411735026041665
 20
-82.5183051215277743
 10
19.4818427191840264
 20
-82.4104736328124972
 10
19.5926025390624972
 20
-82.3446723090277715
 10
19.7121473524305522
 20
-82.3395046657986001
 10
19.8316921657986107
 20
-82.3446723090277715
 10
19.9426242404513872
 20
-82.4104736328124972
 10
20.0129041883680543
 20
-82.5183051215277743
 10
20.1517415364583314
 20
-82.7529161241319429
 10
20.1844699435763886
 20
-83.0460937499999972
 10
20.1010986328124979
 20
-83.3113661024305543
 97
        0
 92
       16
 93
        1
 72
     4
 94
        3
 73
     0
 74
     0
 95
       23
 96
       19
 40
0.0
 40
0.0
 40
0.0
 40
0.0
 40
1.0
 40
1.0
 40
1.0
 40
2.0
 40
2.0
 40
2.0
 40
3.0
 40
3.0
 40
3.0
 40
4.0
 40
4.0
 40
4.0
 40
5.0
 40
5.0
 40
5.0
 40
6.0
 40
6.0
 40
6.0
 40
6.0
 10
20.3167616102430522
 20
-83.6276258680555458
 10
20.5785888671874986
 20
-83.1780409071180458
 10
20.518988715277775
 20
-82.5861735026041544
 10
20.1744791666666643
 20
-82.2123806423610972
 10
20.0445990668402771
 20
-82.0914577907986001
 10
19.8814737955729157
 20
-82.02358940972222
 10
19.7121473524305522
 20
-82.0201443142361057
 10
19.5429931640624979
 20
-82.02358940972222
 10
19.3802124023437479
 20
-82.0914577907986001
 10
19.2505045572916664
 20
-82.2123806423610972
 10
18.9053059895833329
 20
-82.5861735026041544
 10
18.8457058376736093
 20
-83.1780409071180458
 10
19.1075330946180522
 20
-83.6276258680555458
 10
19.2470594618055522
 20
-83.8453559027777686
 10
19.4716796875
 20
-83.9762695312499972
 10
19.7121473524305522
 20
-83.9797146267360972
 10
19.9526150173611079
 20
-83.9762695312499972
 10
20.1772352430555522
 20
-83.8453559027777686
 10
20.3167616102430522
 20
-83.6276258680555458
 97
        0
 92
       16
 93
        1
 72
     4
 94
        3
 73
     0
 74
     0
 95
       29
 96
       25
 40
0.0
 40
0.0
 40
0.0
 40
0.0
 40
1.0
 40
1.0
 40
1.0
 40
2.0
 40
2.0
 40
2.0
 40
3.0
 40
3.0
 40
3.0
 40
4.0
 40
4.0
 40
4.0
 40
5.0
 40
5.0
 40
5.0
 40
6.0
 40
6.0
 40
6.0
 40
7.0
 40
7.0
 40
7.0
 40
8.0
 40
8.0
 40
8.0
 40
8.0
 10
17.5773939344618029
 20
-82.1038601345485972
 10
17.5773939344618029
 20
-82.1038601345485972
 10
17.5773939344618029
 20
-82.4132297092013744
 10
17.5773939344618029
 20
-82.4132297092013744
 10
17.5773939344618029
 20
-82.4132297092013744
 10
18.0795166015624993
 20
-82.4132297092013744
 10
18.0795166015624993
 20
-82.4132297092013744
 10
18.0795166015624993
 20
-82.4132297092013744
 10
18.0795166015624993
 20
-83.9028889973958201
 10
18.0795166015624993
 20
-83.9028889973958201
 10
18.0795166015624993
 20
-83.9028889973958201
 10
18.4100735134548579
 20
-83.9028889973958201
 10
18.4100735134548579
 20
-83.9028889973958201
 10
18.4100735134548579
 20
-83.9028889973958201
 10
18.4100735134548579
 20
-82.4142632378472086
 10
18.4100735134548579
 20
-82.4142632378472086
 10
18.4100735134548579
 20
-82.4142632378472086
 10
18.9128851996527771
 20
-82.4142632378472086
 10
18.9128851996527771
 20
-82.4142632378472086
 10
18.9128851996527771
 20
-82.4142632378472086
 10
18.9128851996527771
 20
-82.1038601345485972
 10
18.9128851996527771
 20
-82.1038601345485972
 10
18.9128851996527771
 20
-82.1038601345485972
 10
17.5773939344618029
 20
-82.1038601345485972
 10
17.5773939344618029
 20
-82.1038601345485972
 97
        0
 92
       16
 93
        1
 72
     4
 94
        3
 73
     0
 74
     0
 95
       80
 96
       76
 40
0.0
 40
0.0
 40
0.0
 40
0.0
 40
1.0
 40
1.0
 40
1.0
 40
2.0
 40
2.0
 40
2.0
 40
3.0
 40
3.0
 40
3.0
 40
4.0
 40
4.0
 40
4.0
 40
5.0
 40
5.0
 40
5.0
 40
6.0
 40
6.0
 40
6.0
 40
7.0
 40
7.0
 40
7.0
 40
8.0
 40
8.0
 40
8.0
 40
9.0
 40
9.0
 40
9.0
 40
10.0
 40
10.0
 40
10.0
 40
11.0
 40
11.0
 40
11.0
 40
12.0
 40
12.0
 40
12.0
 40
13.0
 40
13.0
 40
13.0
 40
14.0
 40
14.0
 40
14.0
 40
15.0
 40
15.0
 40
15.0
 40
16.0
 40
16.0
 40
16.0
 40
17.0
 40
17.0
 40
17.0
 40
18.0
 40
18.0
 40
18.0
 40
19.0
 40
19.0
 40
19.0
 40
20.0
 40
20.0
 40
20.0
 40
21.0
 40
21.0
 40
21.0
 40
22.0
 40
22.0
 40
22.0
 40
23.0
 40
23.0
 40
23.0
 40
24.0
 40
24.0
 40
24.0
 40
25.0
 40
25.0
 40
25.0
 40
25.0
 10
17.01980523003472
 20
-83.2403971354166572
 10
17.08836263020833
 20
-83.2693359374999886
 10
17.1333211263020821
 20
-83.3416829427083314
 10
17.13487141927083
 20
-83.4222981770833201
 10
17.1359049479166643
 20
-83.5036024305555458
 10
17.092841254340275
 20
-83.5780164930555429
 10
17.0253173828124993
 20
-83.6097113715277658
 10
16.9116292317708314
 20
-83.6641438802083286
 10
16.7855387369791664
 20
-83.6813693576388857
 10
16.6627210828993029
 20
-83.6586317274305458
 10
16.53266872829861
 20
-83.6341715494791629
 10
16.4382731119791643
 20
-83.5063585069444372
 10
16.4434407552083321
 20
-83.3595974392360972
 10
16.4434407552083321
 20
-83.3595974392360972
 10
16.1220133463541657
 20
-83.3595974392360972
 10
16.1220133463541657
 20
-83.3595974392360972
 10
16.1182237413194436
 20
-83.6145345052083258
 10
16.2653293185763879
 20
-83.8425998263888772
 10
16.4832316080729164
 20
-83.9211480034722115
 10
16.6814968532986079
 20
-83.9934950086805543
 10
16.8952650282118029
 20
-83.9955620659722086
 10
17.0942192925347207
 20
-83.9252821180555486
 10
17.3153944227430543
 20
-83.8488009982638829
 10
17.4697347005208314
 20
-83.6269368489583229
 10
17.4800699869791636
 20
-83.3702772352430515
 10
17.4831705729166664
 20
-83.1611599392361001
 10
17.3651760525173593
 20
-82.9730577256944315
 10
17.1872368706597207
 20
-82.90484483506944
 10
17.1210910373263872
 20
-82.8817626953124886
 10
17.05322265625
 20
-82.8624701605902771
 10
16.9853542751736093
 20
-82.8462782118055543
 10
16.8596082899305557
 20
-82.8159613715277771
 10
16.7343790690104157
 20
-82.7828884548611086
 10
16.61018337673611
 20
-82.7456814236111029
 10
16.5378363715277779
 20
-82.7250108506944315
 10
16.4851264105902757
 20
-82.6561089409722172
 10
16.4789252387152771
 20
-82.5730821397569343
 10
16.472724066840275
 20
-82.4900553385416657
 10
16.5147542317708336
 20
-82.4121961805555543
 10
16.5829671223958321
 20
-82.3784342447916629
 10
16.6902818467881922
 20
-82.3243462456597115
 10
16.8120659722222214
 20
-82.3178005642361086
 10
16.9233425564236093
 20
-82.3591417100694372
 10
17.0194607204861086
 20
-82.3963487413194429
 10
17.0880181206597221
 20
-82.4914333767360972
 10
17.0990424262152771
 20
-82.6037434895833229
 10
17.0990424262152771
 20
-82.6037434895833229
 10
17.4156467013888872
 20
-82.6037434895833229
 10
17.4156467013888872
 20
-82.6037434895833229
 10
17.4060004340277779
 20
-82.5141710069444372
 10
17.3839518229166643
 20
-82.42666558159722
 10
17.3491563585069422
 20
-82.3453613281249943
 10
17.2942070855034693
 20
-82.2158257378472115
 10
17.1920600043402771
 20
-82.1190185546874858
 10
17.0690700954861079
 20
-82.0780219184027686
 10
16.8952650282118029
 20
-82.01876627604166
 10
16.70974663628472
 20
-82.0142876519097115
 10
16.5337022569444443
 20
-82.0656195746527715
 10
16.3530069986979143
 20
-82.11660698784722
 10
16.2112413194444436
 20
-82.27163628472222
 10
16.1619764539930557
 20
-82.47076280381944
 10
16.1619764539930557
 20
-82.47076280381944
 10
16.1523301866319429
 20
-82.5162380642361057
 10
16.1523301866319429
 20
-82.5162380642361057
 10
16.1120225694444414
 20
-82.7194986979166629
 10
16.1991834852430543
 20
-82.9275824652777658
 10
16.3648925781249979
 20
-83.0247341579861029
 10
16.4160522460937486
 20
-83.0536729600694343
 10
16.4703124999999986
 20
-83.0770996093749972
 10
16.5254340277777771
 20
-83.0936360677083314
 10
16.5254340277777771
 20
-83.0936360677083314
 10
16.8568522135416643
 20
-83.1811414930555486
 10
16.8568522135416643
 20
-83.1811414930555486
 10
16.9119737413194429
 20
-83.1983669704861057
 10
16.9660617404513872
 20
-83.2176595052083314
 10
17.01980523003472
 20
-83.2403971354166572
 97
        0
 75
     2
 76
     1
 98
        1
 10
0.0
 20
0.0
  0
HATCH
  5
93
100
AcDbEntity
  8
SILK_
390
0
 62
     7
100
AcDbHatch
 10
0.0
 20
0.0
 30
0.0
210
0.0
220
0.0
230
1.0
  2
SOLID
 70
     1
 71
     0
 91
        8
 92
       16
 93
        1
 72
     4
 94
        3
 73
     0
 74
     0
 95
       32
 96
       28
 40
0.0
 40
0.0
 40
0.0
 40
0.0
 40
1.0
 40
1.0
 40
1.0
 40
2.0
 40
2.0
 40
2.0
 40
3.0
 40
3.0
 40
3.0
 40
4.0
 40
4.0
 40
4.0
 40
5.0
 40
5.0
 40
5.0
 40
6.0
 40
6.0
 40
6.0
 40
7.0
 40
7.0
 40
7.0
 40
8.0
 40
8.0
 40
8.0
 40
9.0
 40
9.0
 40
9.0
 40
9.0
 10
31.3524359809027757
 20
-60.7315212673611029
 10
31.3524359809027757
 20
-60.7315212673611029
 10
31.3076497395833293
 20
-61.15836859809027
 10
31.3076497395833293
 20
-61.15836859809027
 10
31.3076497395833293
 20
-61.15836859809027
 10
32.56028645833333
 20
-61.15836859809027
 10
32.56028645833333
 20
-61.15836859809027
 10
32.28123372395833
 20
-61.4298421223958258
 10
32.0400770399305515
 20
-61.7361111111111072
 10
31.8437065972222193
 20
-62.0678738064236057
 10
31.61460774739583
 20
-62.4478678385416615
 10
31.4719807942708307
 20
-62.86610243055555
 10
31.4271945529513843
 20
-63.2898491753472143
 10
31.4271945529513843
 20
-63.2898491753472143
 10
31.9880560980902757
 20
-63.2898491753472143
 10
31.9880560980902757
 20
-63.2898491753472143
 10
32.03077528211805
 20
-62.9205349392361057
 10
32.1423963758680529
 20
-62.5550103081597157
 10
32.3163736979166671
 20
-62.2122233072916586
 10
32.5175672743055557
 20
-61.8236165364583243
 10
32.7869737413194429
 20
-61.4680826822916586
 10
33.1108127170138857
 20
-61.1642252604166643
 10
33.1108127170138857
 20
-61.1642252604166643
 10
33.15594346788194
 20
-60.7315212673611029
 10
33.15594346788194
 20
-60.7315212673611029
 10
33.15594346788194
 20
-60.7315212673611029
 10
31.3524359809027757
 20
-60.7315212673611029
 10
31.3524359809027757
 20
-60.7315212673611029
 97
        0
 92
        1
 93
        1
 72
     4
 94
        3
 73
     0
 74
     0
 95
       35
 96
       31
 40
0.0
 40
0.0
 40
0.0
 40
0.0
 40
1.0
 40
1.0
 40
1.0
 40
2.0
 40
2.0
 40
2.0
 40
3.0
 40
3.0
 40
3.0
 40
4.0
 40
4.0
 40
4.0
 40
5.0
 40
5.0
 40
5.0
 40
6.0
 40
6.0
 40
6.0
 40
7.0
 40
7.0
 40
7.0
 40
8.0
 40
8.0
 40
8.0
 40
9.0
 40
9.0
 40
9.0
 40
10.0
 40
10.0
 40
10.0
 40
10.0
 10
30.3151177300347179
 20
-62.6566406249999943
 10
30.21934407552083
 20
-62.8158040364583243
 10
30.0457112630208307
 20
-62.9164008246527686
 10
29.8669108072916636
 20
-62.9170898437499915
 10
29.6881103515624964
 20
-62.9170898437499915
 10
29.535148111979165
 20
-62.8161485460069358
 10
29.4727918836805536
 20
-62.6566406249999943
 10
29.4435085720486072
 20
-62.5760253906249915
 10
29.424216037326385
 20
-62.4919650607638815
 10
29.4145697699652757
 20
-62.40514865451388
 10
29.39768880208333
 20
-62.1185167100694358
 10
29.4355848524305515
 20
-61.82499457465277
 10
29.526190863715275
 20
-61.5411187065972172
 10
29.5758002387152743
 20
-61.3926350911458272
 10
29.6829427083333321
 20
-61.2648220486111086
 10
29.8231580946180515
 20
-61.1873074001736086
 10
29.8968831380208293
 20
-61.1525119357638829
 10
29.975775824652775
 20
-61.1352864583333258
 10
30.0536349826388864
 20
-61.1370090060763829
 10
30.1321831597222207
 20
-61.1352864583333258
 10
30.2076307508680522
 20
-61.1525119357638829
 10
30.2737765842013857
 20
-61.1873074001736086
 10
30.3978000217013857
 20
-61.2648220486111086
 10
30.4780707465277736
 20
-61.3926350911458272
 10
30.4966742621527764
 20
-61.5411187065972172
 10
30.5280246310763879
 20
-61.82499457465277
 10
30.5039089626736093
 20
-62.1185167100694358
 10
30.4263943142361093
 20
-62.40514865451388
 10
30.3984890407986086
 20
-62.4919650607638815
 10
30.36128200954861
 20
-62.5760253906249915
 10
30.3151177300347179
 20
-62.6566406249999943
 97
        0
 92
       16
 93
        1
 72
     4
 94
        3
 73
     0
 74
     0
 95
       29
 96
       25
 40
0.0
 40
0.0
 40
0.0
 40
0.0
 40
1.0
 40
1.0
 40
1.0
 40
2.0
 40
2.0
 40
2.0
 40
3.0
 40
3.0
 40
3.0
 40
4.0
 40
4.0
 40
4.0
 40
5.0
 40
5.0
 40
5.0
 40
6.0
 40
6.0
 40
6.0
 40
7.0
 40
7.0
 40
7.0
 40
8.0
 40
8.0
 40
8.0
 40
8.0
 10
30.9397135416666629
 20
-62.44993489583333
 10
31.0447889539930522
 20
-62.1074924045138843
 10
31.0685601128472193
 20
-61.7543701171874915
 10
31.0082709418402764
 20
-61.4184733072916629
 10
30.9262776692708314
 20
-60.9843912760416629
 10
30.5555853949652736
 20
-60.6881130642361057
 10
30.1008327907986093
 20
-60.6922471788194358
 10
29.6467692057291643
 20
-60.6881130642361057
 10
29.2137207031249986
 20
-60.9850802951388857
 10
29.0404324001736072
 20
-61.4184733072916629
 10
28.9098632812499972
 20
-61.7543701171874915
 10
28.8585313585069407
 20
-62.1074924045138843
 10
28.8916042751736093
 20
-62.44993489583333
 10
28.9119303385416657
 20
-62.6121988932291629
 10
28.9608506944444422
 20
-62.7668836805555515
 10
29.0359537760416657
 20
-62.9070990668402743
 10
29.194083658854165
 20
-63.1816731770833258
 10
29.4882948133680536
 20
-63.3463487413194386
 10
29.8214355468749979
 20
-63.3473822699652729
 10
30.155265299479165
 20
-63.3463487413194386
 10
30.4835828993055529
 20
-63.1816731770833258
 10
30.6992458767361072
 20
-62.9070990668402743
 10
30.8043212890624964
 20
-62.7668836805555515
 10
30.8856255425347186
 20
-62.6121988932291629
 10
30.9397135416666629
 20
-62.44993489583333
 97
        0
 92
       16
 93
        1
 72
     4
 94
        3
 73
     0
 74
     0
 95
       17
 96
       13
 40
0.0
 40
0.0
 40
0.0
 40
0.0
 40
1.0
 40
1.0
 40
1.0
 40
2.0
 40
2.0
 40
2.0
 40
3.0
 40
3.0
 40
3.0
 40
4.0
 40
4.0
 40
4.0
 40
4.0
 10
27.5893581814236093
 20
-61.80776909722222
 10
27.5893581814236093
 20
-61.80776909722222
 10
27.5431939019097207
 20
-62.2473632812499957
 10
27.5431939019097207
 20
-62.2473632812499957
 10
27.5431939019097207
 20
-62.2473632812499957
 10
28.4926622178819429
 20
-62.2473632812499957
 10
28.4926622178819429
 20
-62.2473632812499957
 10
28.4926622178819429
 20
-62.2473632812499957
 10
28.5388264973958314
 20
-61.80776909722222
 10
28.5388264973958314
 20
-61.80776909722222
 10
28.5388264973958314
 20
-61.80776909722222
 10
27.5893581814236093
 20
-61.80776909722222
 10
27.5893581814236093
 20
-61.80776909722222
 97
        0
 92
        1
 93
        1
 72
     4
 94
        3
 73
     0
 74
     0
 95
       23
 96
       19
 40
0.0
 40
0.0
 40
0.0
 40
0.0
 40
1.0
 40
1.0
 40
1.0
 40
2.0
 40
2.0
 40
2.0
 40
3.0
 40
3.0
 40
3.0
 40
4.0
 40
4.0
 40
4.0
 40
5.0
 40
5.0
 40
5.0
 40
6.0
 40
6.0
 40
6.0
 40
6.0
 10
25.7934299045138857
 20
-61.1594021267361043
 10
25.7934299045138857
 20
-61.1594021267361043
 10
26.4307725694444429
 20
-61.1594021267361043
 10
26.4307725694444429
 20
-61.1594021267361043
 10
26.5575520833333307
 20
-61.16078016493055
 10
26.6653835720486079
 20
-61.2320936414930515
 10
26.711203342013885
 20
-61.3440592447916586
 10
26.7570231119791657
 20
-61.4563693576388843
 10
26.73359646267361
 20
-61.5914171006944358
 10
26.6495361328124964
 20
-61.6940809461805486
 10
26.5644422743055522
 20
-61.7960557725694386
 10
26.4400743272569407
 20
-61.8566894531249929
 10
26.3136393229166643
 20
-61.8580674913194386
 10
26.3136393229166643
 20
-61.8580674913194386
 10
25.7200493706597193
 20
-61.8580674913194386
 10
25.7200493706597193
 20
-61.8580674913194386
 10
25.7200493706597193
 20
-61.8580674913194386
 10
25.7934299045138857
 20
-61.1594021267361043
 10
25.7934299045138857
 20
-61.1594021267361043
 97
        0
 92
       16
 93
        1
 72
     4
 94
        3
 73
     0
 74
     0
 95
       56
 96
       52
 40
0.0
 40
0.0
 40
0.0
 40
0.0
 40
1.0
 40
1.0
 40
1.0
 40
2.0
 40
2.0
 40
2.0
 40
3.0
 40
3.0
 40
3.0
 40
4.0
 40
4.0
 40
4.0
 40
5.0
 40
5.0
 40
5.0
 40
6.0
 40
6.0
 40
6.0
 40
7.0
 40
7.0
 40
7.0
 40
8.0
 40
8.0
 40
8.0
 40
9.0
 40
9.0
 40
9.0
 40
10.0
 40
10.0
 40
10.0
 40
11.0
 40
11.0
 40
11.0
 40
12.0
 40
12.0
 40
12.0
 40
13.0
 40
13.0
 40
13.0
 40
14.0
 40
14.0
 40
14.0
 40
15.0
 40
15.0
 40
15.0
 40
16.0
 40
16.0
 40
16.0
 40
17.0
 40
17.0
 40
17.0
 40
17.0
 10
25.3190402560763879
 20
-60.75356987847222
 10
25.3190402560763879
 20
-60.75356987847222
 10
25.0561794704861072
 20
-63.2526421440972157
 10
25.0561794704861072
 20
-63.2526421440972157
 10
25.0561794704861072
 20
-63.2526421440972157
 10
25.5736328124999979
 20
-63.2526421440972157
 10
25.5736328124999979
 20
-63.2526421440972157
 10
25.5736328124999979
 20
-63.2526421440972157
 10
25.6797417534722214
 20
-62.2428846571180472
 10
25.6797417534722214
 20
-62.2428846571180472
 10
25.6797417534722214
 20
-62.2428846571180472
 10
26.0407877604166629
 20
-62.2428846571180472
 10
26.0407877604166629
 20
-62.2428846571180472
 10
26.1282931857638872
 20
-62.2439181857638815
 10
26.2137315538194429
 20
-62.2521864149305486
 10
26.2974473741319414
 20
-62.26803385416666
 10
26.4276719835069436
 20
-62.3073079427083272
 10
26.5162109374999986
 20
-62.41892903645833
 10
26.5268907335069422
 20
-62.5556993272569386
 10
26.5423936631944422
 20
-62.7214084201388857
 10
26.5423936631944422
 20
-62.8895290798611057
 10
26.527579752604165
 20
-63.0583387586805486
 10
26.5224121093749972
 20
-63.12551812065972
 10
26.5337809244791636
 20
-63.1913194444444386
 10
26.5603081597222186
 20
-63.2498860677083243
 10
26.5603081597222186
 20
-63.2498860677083243
 10
27.0446885850694407
 20
-63.2498860677083243
 10
27.0446885850694407
 20
-63.2498860677083243
 10
27.0253960503472186
 20
-63.1913194444444386
 10
27.0154052734374979
 20
-63.1286187065972157
 10
27.0150607638888864
 20
-63.0645399305555472
 10
27.0150607638888864
 20
-63.0645399305555472
 10
27.0315972222222207
 20
-62.68420138888888
 10
27.0315972222222207
 20
-62.68420138888888
 10
27.039176432291665
 20
-62.59841851128472
 10
27.039176432291665
 20
-62.5133246527777686
 10
27.0315972222222207
 20
-62.4292643229166586
 10
27.0202284071180543
 20
-62.2273817274305472
 10
26.8710557725694414
 20
-62.07304144965277
 10
26.6688286675347186
 20
-62.0527153862847172
 10
26.9544270833333321
 20
-62.0075846354166629
 10
27.1914496527777736
 20
-61.7760742187499972
 10
27.240714518229165
 20
-61.4939208984374943
 10
27.3041042751736072
 20
-61.1401095920138857
 10
27.0846516927083307
 20
-60.8259168836805486
 10
26.7370415581597207
 20
-60.7742404513888843
 10
26.6274875217013864
 20
-60.7563259548611043
 10
26.5148328993055529
 20
-60.7501247829861057
 10
26.401144748263885
 20
-60.75356987847222
 10
26.401144748263885
 20
-60.75356987847222
 10
25.3190402560763879
 20
-60.75356987847222
 10
25.3190402560763879
 20
-60.75356987847222
 97
        0
 92
        1
 93
        1
 72
     4
 94
        3
 73
     0
 74
     0
 95
       26
 96
       22
 40
0.0
 40
0.0
 40
0.0
 40
0.0
 40
1.0
 40
1.0
 40
1.0
 40
2.0
 40
2.0
 40
2.0
 40
3.0
 40
3.0
 40
3.0
 40
4.0
 40
4.0
 40
4.0
 40
5.0
 40
5.0
 40
5.0
 40
6.0
 40
6.0
 40
6.0
 40
7.0
 40
7.0
 40
7.0
 40
7.0
 10
23.1117675781249972
 20
-62.8364746093749957
 10
23.1117675781249972
 20
-62.8364746093749957
 10
23.2864339192708307
 20
-61.1731825086805472
 10
23.2864339192708307
 20
-61.1731825086805472
 10
23.2864339192708307
 20
-61.1731825086805472
 10
23.557562934027775
 20
-61.1731825086805472
 10
23.557562934027775
 20
-61.1731825086805472
 10
23.6488579644097214
 20
-61.1676703559027715
 10
23.73911946614583
 20
-61.1752495659722157
 10
23.82559136284722
 20
-61.19592013888888
 10
24.029196506076385
 20
-61.2386393229166615
 10
24.1835367838541657
 20
-61.38677842881944
 10
24.2328016493055536
 20
-61.58590494791666
 10
24.2979139539930529
 20
-61.8539333767361086
 10
24.28172200520833
 20
-62.1422878689236029
 10
24.1859483506944422
 20
-62.4175509982638843
 10
24.0960313585069414
 20
-62.6600857204861086
 10
23.8596978081597193
 20
-62.8313069661458243
 10
23.6068277994791629
 20
-62.8364746093749957
 10
23.6068277994791629
 20
-62.8364746093749957
 10
23.1117675781249972
 20
-62.8364746093749957
 10
23.1117675781249972
 20
-62.8364746093749957
 97
        0
 92
       16
 93
        1
 72
     4
 94
        3
 73
     0
 74
     0
 95
       26
 96
       22
 40
0.0
 40
0.0
 40
0.0
 40
0.0
 40
1.0
 40
1.0
 40
1.0
 40
2.0
 40
2.0
 40
2.0
 40
3.0
 40
3.0
 40
3.0
 40
4.0
 40
4.0
 40
4.0
 40
5.0
 40
5.0
 40
5.0
 40
6.0
 40
6.0
 40
6.0
 40
7.0
 40
7.0
 40
7.0
 40
7.0
 10
22.8154893663194436
 20
-60.7632161458333258
 10
22.8154893663194436
 20
-60.7632161458333258
 10
22.5536621093749972
 20
-63.2526421440972157
 10
22.5536621093749972
 20
-63.2526421440972157
 10
22.5536621093749972
 20
-63.2526421440972157
 10
23.6695285373263857
 20
-63.2526421440972157
 10
23.6695285373263857
 20
-63.2526421440972157
 10
23.936178927951385
 20
-63.2457519531249943
 10
24.199728732638885
 20
-63.1289632161458272
 10
24.3967881944444436
 20
-62.93052571614583
 10
24.5314914279513872
 20
-62.7896213107638843
 10
24.6355333116319422
 20
-62.6235677083333258
 10
24.7013346354166643
 20
-62.44511176215277
 10
24.835348849826385
 20
-62.0678738064236057
 10
24.8374159071180536
 20
-61.6696207682291586
 10
24.7061577690972207
 20
-61.31822102864583
 10
24.5783447265624986
 20
-60.9726779513888815
 10
24.2472710503472193
 20
-60.7549479166666586
 10
23.8617648654513879
 20
-60.7632161458333258
 10
23.8617648654513879
 20
-60.7632161458333258
 10
22.8154893663194436
 20
-60.7632161458333258
 10
22.8154893663194436
 20
-60.7632161458333258
 97
        0
 75
     2
 76
     1
 98
        1
 10
0.0
 20
0.0
  0
HATCH
  5
92
100
AcDbEntity
  8
SILK_
390
0
 62
     7
100
AcDbHatch
 10
0.0
 20
0.0
 30
0.0
210
0.0
220
0.0
230
1.0
  2
SOLID
 70
     1
 71
     0
 91
        4
 92
       16
 93
        1
 72
     4
 94
        3
 73
     0
 74
     0
 95
       14
 96
       10
 40
0.0
 40
0.0
 40
0.0
 40
0.0
 40
1.0
 40
1.0
 40
1.0
 40
2.0
 40
2.0
 40
2.0
 40
3.0
 40
3.0
 40
3.0
 40
3.0
 10
24.3554470486111079
 20
-112.6146592881944315
 10
24.3554470486111079
 20
-112.6146592881944315
 10
27.293768988715275
 20
-111.5036159939236029
 10
27.293768988715275
 20
-111.5036159939236029
 10
27.293768988715275
 20
-111.5036159939236029
 10
24.3554470486111079
 20
-110.3925726996527743
 10
24.3554470486111079
 20
-110.3925726996527743
 10
24.3554470486111079
 20
-110.3925726996527743
 10
24.3554470486111079
 20
-112.6146592881944315
 10
24.3554470486111079
 20
-112.6146592881944315
 97
        0
 92
       16
 93
        1
 72
     4
 94
        3
 73
     0
 74
     0
 95
       17
 96
       13
 40
0.0
 40
0.0
 40
0.0
 40
0.0
 40
1.0
 40
1.0
 40
1.0
 40
2.0
 40
2.0
 40
2.0
 40
3.0
 40
3.0
 40
3.0
 40
4.0
 40
4.0
 40
4.0
 40
4.0
 10
27.8556640624999972
 20
-112.5037272135416515
 10
27.8556640624999972
 20
-112.5037272135416515
 10
28.95051540798611
 20
-110.5038492838541515
 10
28.95051540798611
 20
-110.5038492838541515
 10
28.95051540798611
 20
-110.5038492838541515
 10
28.5529513888888857
 20
-110.5038492838541515
 10
28.5529513888888857
 20
-110.5038492838541515
 10
28.5529513888888857
 20
-110.5038492838541515
 10
27.4574110243055536
 20
-112.5037272135416515
 10
27.4574110243055536
 20
-112.5037272135416515
 10
27.4574110243055536
 20
-112.5037272135416515
 10
27.8556640624999972
 20
-112.5037272135416515
 10
27.8556640624999972
 20
-112.5037272135416515
 97
        0
 92
       16
 93
        1
 72
     4
 94
        3
 73
     0
 74
     0
 95
       17
 96
       13
 40
0.0
 40
0.0
 40
0.0
 40
0.0
 40
1.0
 40
1.0
 40
1.0
 40
2.0
 40
2.0
 40
2.0
 40
3.0
 40
3.0
 40
3.0
 40
4.0
 40
4.0
 40
4.0
 40
4.0
 10
30.1177137586805515
 20
-112.5037272135416515
 10
30.1177137586805515
 20
-112.5037272135416515
 10
30.1177137586805515
 20
-110.5038492838541515
 10
30.1177137586805515
 20
-110.5038492838541515
 10
30.1177137586805515
 20
-110.5038492838541515
 10
29.3329210069444422
 20
-110.5038492838541515
 10
29.3329210069444422
 20
-110.5038492838541515
 10
29.3329210069444422
 20
-110.5038492838541515
 10
29.3329210069444422
 20
-112.5037272135416515
 10
29.3329210069444422
 20
-112.5037272135416515
 10
29.3329210069444422
 20
-112.5037272135416515
 10
30.1177137586805515
 20
-112.5037272135416515
 10
30.1177137586805515
 20
-112.5037272135416515
 97
        0
 92
       16
 93
        1
 72
     4
 94
        3
 73
     0
 74
     0
 95
       17
 96
       13
 40
0.0
 40
0.0
 40
0.0
 40
0.0
 40
1.0
 40
1.0
 40
1.0
 40
2.0
 40
2.0
 40
2.0
 40
3.0
 40
3.0
 40
3.0
 40
4.0
 40
4.0
 40
4.0
 40
4.0
 10
31.35346950954861
 20
-112.5037272135416515
 10
31.35346950954861
 20
-112.5037272135416515
 10
31.35346950954861
 20
-110.5038492838541515
 10
31.35346950954861
 20
-110.5038492838541515
 10
31.35346950954861
 20
-110.5038492838541515
 10
30.5690212673611086
 20
-110.5038492838541515
 10
30.5690212673611086
 20
-110.5038492838541515
 10
30.5690212673611086
 20
-110.5038492838541515
 10
30.5690212673611086
 20
-112.5037272135416515
 10
30.5690212673611086
 20
-112.5037272135416515
 10
30.5690212673611086
 20
-112.5037272135416515
 10
31.35346950954861
 20
-112.5037272135416515
 10
31.35346950954861
 20
-112.5037272135416515
 97
        0
 75
     2
 76
     1
 98
        1
 10
0.0
 20
0.0
  0
HATCH
  5
90
100
AcDbEntity
  8
COMMENT
390
0
 62
     7
100
AcDbHatch
 10
0.0
 20
0.0
 30
0.0
210
0.0
220
0.0
230
1.0
  2
SOLID
 70
     1
 71
     0
 91
        4
 92
        1
 93
        1
 72
     4
 94
        3
 73
     0
 74
     0
 95
       35
 96
       31
 40
0.0
 40
0.0
 40
0.0
 40
0.0
 40
1.0
 40
1.0
 40
1.0
 40
2.0
 40
2.0
 40
2.0
 40
3.0
 40
3.0
 40
3.0
 40
4.0
 40
4.0
 40
4.0
 40
5.0
 40
5.0
 40
5.0
 40
6.0
 40
6.0
 40
6.0
 40
7.0
 40
7.0
 40
7.0
 40
8.0
 40
8.0
 40
8.0
 40
9.0
 40
9.0
 40
9.0
 40
10.0
 40
10.0
 40
10.0
 40
10.0
 10
72.9774576822916572
 20
-123.7726345486110944
 10
72.9774576822916572
 20
-122.1975368923611001
 10
74.3489501953124972
 20
-122.2292317708333229
 10
74.3489501953124972
 20
-121.1054416232638715
 10
74.3489501953124972
 20
-120.80709635416666
 10
74.2345730251736029
 20
-120.5528483072916544
 10
73.9427734374999943
 20
-120.5528483072916544
 10
73.5489990234374886
 20
-120.5528483072916544
 10
73.4852647569444315
 20
-120.94662272135416
 10
73.4852647569444315
 20
-121.3149034288194343
 10
73.4852647569444315
 20
-121.3149034288194343
 10
72.9836588541666629
 20
-121.3149034288194343
 10
72.9836588541666629
 20
-121.3149034288194343
 10
72.9836588541666629
 20
-120.5910888671874943
 10
73.2503092447916657
 20
-120.1466715494791515
 10
73.948974609375
 20
-120.1466715494791515
 10
74.6221462673611029
 20
-120.1466715494791515
 10
74.8760498046874972
 20
-120.5848876953124886
 10
74.8760498046874972
 20
-121.1116427951388772
 10
74.8760498046874972
 20
-122.3184597439235972
 10
73.8091037326388886
 20
-122.3945963541666515
 10
73.5617458767361114
 20
-123.2834309895833229
 10
73.5617458767361114
 20
-123.2834309895833229
 10
74.8887966579861057
 20
-123.2834309895833229
 10
74.8887966579861057
 20
-123.2834309895833229
 10
74.8887966579861057
 20
-123.2834309895833229
 10
74.8887966579861057
 20
-123.7726345486110944
 10
74.8887966579861057
 20
-123.7726345486110944
 10
74.8887966579861057
 20
-123.7726345486110944
 10
72.9774576822916572
 20
-123.7726345486110944
 10
72.9774576822916572
 20
-123.7726345486110944
 97
        0
 92
        1
 93
        1
 72
     4
 94
        3
 73
     0
 74
     0
 95
       32
 96
       28
 40
0.0
 40
0.0
 40
0.0
 40
0.0
 40
1.0
 40
1.0
 40
1.0
 40
2.0
 40
2.0
 40
2.0
 40
3.0
 40
3.0
 40
3.0
 40
4.0
 40
4.0
 40
4.0
 40
5.0
 40
5.0
 40
5.0
 40
6.0
 40
6.0
 40
6.0
 40
7.0
 40
7.0
 40
7.0
 40
8.0
 40
8.0
 40
8.0
 40
9.0
 40
9.0
 40
9.0
 40
9.0
 10
71.7709852430555486
 20
-123.7726345486110944
 10
71.7709852430555486
 20
-123.7726345486110944
 10
71.7709852430555486
 20
-121.1371365017360944
 10
71.7709852430555486
 20
-121.1371365017360944
 10
71.7709852430555486
 20
-121.1371365017360944
 10
71.0912679036458286
 20
-121.1371365017360944
 10
71.0912679036458286
 20
-121.1371365017360944
 10
71.0912679036458286
 20
-121.1371365017360944
 10
71.0912679036458286
 20
-120.7626546223958286
 10
71.0912679036458286
 20
-120.7626546223958286
 10
71.0912679036458286
 20
-120.7626546223958286
 10
71.1422553168402771
 20
-120.7626546223958286
 10
71.1422553168402771
 20
-120.7626546223958286
 10
71.4533474392361114
 20
-120.7626546223958286
 10
71.81542697482638
 20
-120.6799723307291572
 10
71.9105116102430486
 20
-120.2166069878472143
 10
71.9105116102430486
 20
-120.2166069878472143
 10
71.9105116102430486
 20
-120.1466715494791515
 10
71.9105116102430486
 20
-120.1466715494791515
 10
71.9105116102430486
 20
-120.1466715494791515
 10
72.2915391710069315
 20
-120.1466715494791515
 10
72.2915391710069315
 20
-120.1466715494791515
 10
72.2915391710069315
 20
-120.1466715494791515
 10
72.2915391710069315
 20
-123.7726345486110944
 10
72.2915391710069315
 20
-123.7726345486110944
 10
72.2915391710069315
 20
-123.7726345486110944
 10
71.7709852430555486
 20
-123.7726345486110944
 10
71.7709852430555486
 20
-123.7726345486110944
 97
        0
 92
       16
 93
        1
 72
     4
 94
        3
 73
     0
 74
     0
 95
       17
 96
       13
 40
0.0
 40
0.0
 40
0.0
 40
0.0
 40
1.0
 40
1.0
 40
1.0
 40
2.0
 40
2.0
 40
2.0
 40
3.0
 40
3.0
 40
3.0
 40
4.0
 40
4.0
 40
4.0
 40
4.0
 10
73.1297309027777658
 20
-119.2512912326388772
 10
71.6121663411458229
 20
-119.2512912326388772
 10
70.3867458767361001
 20
-120.4767116970486001
 10
70.3867458767361001
 20
-121.9942762586805429
 10
70.3867458767361001
 20
-123.5121853298610972
 10
71.6121663411458229
 20
-124.7376057942708201
 10
73.1297309027777658
 20
-124.7376057942708201
 10
74.6472954644097086
 20
-124.7376057942708201
 10
75.8792616102430486
 20
-123.5121853298610972
 10
75.8792616102430486
 20
-121.9942762586805429
 10
75.8792616102430486
 20
-120.4767116970486001
 10
74.6472954644097086
 20
-119.2512912326388772
 10
73.1297309027777658
 20
-119.2512912326388772
 97
        0
 92
        1
 93
        1
 72
     4
 94
        3
 73
     0
 74
     0
 95
       17
 96
       13
 40
0.0
 40
0.0
 40
0.0
 40
0.0
 40
1.0
 40
1.0
 40
1.0
 40
2.0
 40
2.0
 40
2.0
 40
3.0
 40
3.0
 40
3.0
 40
4.0
 40
4.0
 40
4.0
 40
4.0
 10
73.1297309027777658
 20
-124.9219184027777629
 10
71.5167371961805429
 20
-124.9219184027777629
 10
70.2024332682291572
 20
-123.6138156467013829
 10
70.2024332682291572
 20
-121.9942762586805429
 10
70.2024332682291572
 20
-120.3750813802083286
 10
71.5167371961805429
 20
-119.0669786241319343
 10
73.1297309027777658
 20
-119.0669786241319343
 10
74.7489257812499943
 20
-119.0669786241319343
 10
76.0570285373263886
 20
-120.3750813802083286
 10
76.0570285373263886
 20
-121.9942762586805429
 10
76.0570285373263886
 20
-123.6138156467013829
 10
74.7489257812499943
 20
-124.9219184027777629
 10
73.1297309027777658
 20
-124.9219184027777629
 97
        0
 75
     2
 76
     1
 98
        1
 10
0.0
 20
0.0
  0
LINE
  5
8F
100
AcDbEntity
  8
COMMENT
390
0
 62
     7
100
AcDbLine
 10
5.232756
 20
-72.067952
 30
0.0
 11
-11.289061
 21
-72.067952
 31
0.0
  0
LINE
  5
8E
100
AcDbEntity
  8
COMMENT
390
0
 62
     7
100
AcDbLine
 10
6.379283
 20
-72.067952
 30
0.0
 11
-15.287094
 21
-72.067952
 31
0.0
  0
HATCH
  5
8D
100
AcDbEntity
  8
COMMENT
390
0
 62
     7
100
AcDbHatch
 10
0.0
 20
0.0
 30
0.0
210
0.0
220
0.0
230
1.0
  2
SOLID
 70
     1
 71
     0
 91
        3
 92
        1
 93
        1
 72
     4
 94
        3
 73
     0
 74
     0
 95
       32
 96
       28
 40
0.0
 40
0.0
 40
0.0
 40
0.0
 40
1.0
 40
1.0
 40
1.0
 40
2.0
 40
2.0
 40
2.0
 40
3.0
 40
3.0
 40
3.0
 40
4.0
 40
4.0
 40
4.0
 40
5.0
 40
5.0
 40
5.0
 40
6.0
 40
6.0
 40
6.0
 40
7.0
 40
7.0
 40
7.0
 40
8.0
 40
8.0
 40
8.0
 40
9.0
 40
9.0
 40
9.0
 40
9.0
 10
-18.5780219184027757
 20
-10.5099527994791657
 10
-18.5780219184027757
 20
-10.5099527994791657
 10
-18.5780219184027757
 20
-7.887201605902777
 10
-18.5780219184027757
 20
-7.887201605902777
 10
-18.5780219184027757
 20
-7.887201605902777
 10
-19.3273301866319436
 20
-7.887201605902777
 10
-19.3273301866319436
 20
-7.887201605902777
 10
-19.3273301866319436
 20
-7.887201605902777
 10
-19.3273301866319436
 20
-7.5127197265624996
 10
-19.3273301866319436
 20
-7.5127197265624996
 10
-19.3273301866319436
 20
-7.5127197265624996
 10
-19.2765150282118043
 20
-7.5127197265624996
 10
-19.2765150282118043
 20
-7.5127197265624996
 10
-18.9271823459201372
 20
-7.5127197265624996
 10
-18.5272067599826364
 20
-7.4303819444444441
 10
-18.4255764431423579
 20
-6.9728732638888884
 10
-18.4255764431423579
 20
-6.9728732638888884
 10
-18.4255764431423579
 20
-6.8967366536458323
 10
-18.4255764431423579
 20
-6.8967366536458323
 10
-18.4255764431423579
 20
-6.8967366536458323
 10
-18.0001071506076364
 20
-6.8967366536458323
 10
-18.0001071506076364
 20
-6.8967366536458323
 10
-18.0001071506076364
 20
-6.8967366536458323
 10
-18.0001071506076364
 20
-10.5099527994791657
 10
-18.0001071506076364
 20
-10.5099527994791657
 10
-18.0001071506076364
 20
-10.5099527994791657
 10
-18.5780219184027757
 20
-10.5099527994791657
 10
-18.5780219184027757
 20
-10.5099527994791657
 97
        0
 92
       16
 93
        1
 72
     4
 94
        3
 73
     0
 74
     0
 95
       17
 96
       13
 40
0.0
 40
0.0
 40
0.0
 40
0.0
 40
1.0
 40
1.0
 40
1.0
 40
2.0
 40
2.0
 40
2.0
 40
3.0
 40
3.0
 40
3.0
 40
4.0
 40
4.0
 40
4.0
 40
4.0
 10
-18.317572699652775
 20
-5.9441677517361109
 10
-19.822562662760415
 20
-5.9441677517361109
 10
-21.0481553819444436
 20
-7.1699327256944434
 10
-21.0481553819444436
 20
-8.6747504340277768
 10
-21.0481553819444436
 20
-10.1861138237847211
 10
-19.822562662760415
 20
-11.4053331163194436
 10
-18.317572699652775
 20
-11.4053331163194436
 10
-16.8125827365451386
 20
-11.4053331163194436
 10
-15.5871622721354157
 20
-10.1861138237847211
 10
-15.5871622721354157
 20
-8.6747504340277768
 10
-15.5871622721354157
 20
-7.1699327256944434
 10
-16.8125827365451386
 20
-5.9441677517361109
 10
-18.317572699652775
 20
-5.9441677517361109
 97
        0
 92
        1
 93
        1
 72
     4
 94
        3
 73
     0
 74
     0
 95
       17
 96
       13
 40
0.0
 40
0.0
 40
0.0
 40
0.0
 40
1.0
 40
1.0
 40
1.0
 40
2.0
 40
2.0
 40
2.0
 40
3.0
 40
3.0
 40
3.0
 40
4.0
 40
4.0
 40
4.0
 40
4.0
 10
-18.317572699652775
 20
-11.5893012152777768
 10
-19.9241929796006936
 20
-11.5893012152777768
 10
-21.2259223090277764
 20
-10.2815429687499993
 10
-21.2259223090277764
 20
-8.6747504340277768
 10
-21.2259223090277764
 20
-7.0683024088541657
 10
-19.9241929796006936
 20
-5.7664008246527771
 10
-18.317572699652775
 20
-5.7664008246527771
 10
-16.7111246744791657
 20
-5.7664008246527771
 10
-15.4092230902777771
 20
-7.0683024088541657
 10
-15.4092230902777771
 20
-8.6747504340277768
 10
-15.4092230902777771
 20
-10.2815429687499993
 10
-16.7111246744791657
 20
-11.5893012152777768
 10
-18.317572699652775
 20
-11.5893012152777768
 97
        0
 75
     2
 76
     1
 98
        1
 10
0.0
 20
0.0
  0
HATCH
  5
8C
100
AcDbEntity
  8
COMMENT
390
0
 62
     7
100
AcDbHatch
 10
0.0
 20
0.0
 30
0.0
210
0.0
220
0.0
230
1.0
  2
SOLID
 70
     1
 71
     0
 91
        3
 92
        1
 93
        1
 72
     4
 94
        3
 73
     0
 74
     0
 95
       35
 96
       31
 40
0.0
 40
0.0
 40
0.0
 40
0.0
 40
1.0
 40
1.0
 40
1.0
 40
2.0
 40
2.0
 40
2.0
 40
3.0
 40
3.0
 40
3.0
 40
4.0
 40
4.0
 40
4.0
 40
5.0
 40
5.0
 40
5.0
 40
6.0
 40
6.0
 40
6.0
 40
7.0
 40
7.0
 40
7.0
 40
8.0
 40
8.0
 40
8.0
 40
9.0
 40
9.0
 40
9.0
 40
10.0
 40
10.0
 40
10.0
 40
10.0
 10
-19.1509412977430529
 20
-45.0601264105902715
 10
-19.1509412977430529
 20
-43.4981201171874972
 10
-17.6395779079861086
 20
-43.52981499565972
 10
-17.6395779079861086
 20
-42.4122260199652743
 10
-17.6395779079861086
 20
-42.1200819227430543
 10
-17.7665296766493057
 20
-41.86617838541666
 10
-18.0903686523437486
 20
-41.86617838541666
 10
-18.5222113715277779
 20
-41.86617838541666
 10
-18.59214680989583
 20
-42.2534071180555486
 10
-18.59214680989583
 20
-42.62168782552083
 10
-18.59214680989583
 20
-42.62168782552083
 10
-19.1381944444444443
 20
-42.62168782552083
 10
-19.1381944444444443
 20
-42.62168782552083
 10
-19.1381944444444443
 20
-41.9040744357638886
 10
-18.8460503472222207
 20
-41.4596571180555529
 10
-18.0777940538194422
 20
-41.4596571180555529
 10
-17.3410603841145807
 20
-41.4596571180555529
 10
-17.0616631401909693
 20
-41.8978732638888829
 10
-17.0616631401909693
 20
-42.4249728732638829
 10
-17.0616631401909693
 20
-43.6186984592013829
 10
-18.2300672743055543
 20
-43.6948350694444372
 10
-18.5030910915798579
 20
-44.5712673611111043
 10
-18.5030910915798579
 20
-44.5712673611111043
 10
-17.0490885416666664
 20
-44.5712673611111043
 10
-17.0490885416666664
 20
-44.5712673611111043
 10
-17.0490885416666664
 20
-44.5712673611111043
 10
-17.0490885416666664
 20
-45.0601264105902715
 10
-17.0490885416666664
 20
-45.0601264105902715
 10
-17.0490885416666664
 20
-45.0601264105902715
 10
-19.1509412977430529
 20
-45.0601264105902715
 10
-19.1509412977430529
 20
-45.0601264105902715
 97
        0
 92
       16
 93
        1
 72
     4
 94
        3
 73
     0
 74
     0
 95
       17
 96
       13
 40
0.0
 40
0.0
 40
0.0
 40
0.0
 40
1.0
 40
1.0
 40
1.0
 40
2.0
 40
2.0
 40
2.0
 40
3.0
 40
3.0
 40
3.0
 40
4.0
 40
4.0
 40
4.0
 40
4.0
 10
-18.1475572374131922
 20
-40.6342122395833272
 10
-19.6525472005208321
 20
-40.6342122395833272
 10
-20.8717664930555529
 20
-41.8534315321180515
 10
-20.8717664930555529
 20
-43.3585937499999972
 10
-20.8717664930555529
 20
-44.8634114583333314
 10
-19.6525472005208321
 20
-46.0822862413194372
 10
-18.1475572374131922
 20
-46.0822862413194372
 10
-16.64894070095486
 20
-46.0822862413194372
 10
-15.4297214084201375
 20
-44.8634114583333314
 10
-15.4297214084201375
 20
-43.3585937499999972
 10
-15.4297214084201375
 20
-41.8534315321180515
 10
-16.64894070095486
 20
-40.6342122395833272
 10
-18.1475572374131922
 20
-40.6342122395833272
 97
        0
 92
        1
 93
        1
 72
     4
 94
        3
 73
     0
 74
     0
 95
       17
 96
       13
 40
0.0
 40
0.0
 40
0.0
 40
0.0
 40
1.0
 40
1.0
 40
1.0
 40
2.0
 40
2.0
 40
2.0
 40
3.0
 40
3.0
 40
3.0
 40
4.0
 40
4.0
 40
4.0
 40
4.0
 10
-18.1475572374131922
 20
-46.2603976779513815
 10
-19.7541775173611107
 20
-46.2603976779513815
 10
-21.0495334201388857
 20
-44.9584960937499929
 10
-21.0495334201388857
 20
-43.3585937499999972
 10
-21.0495334201388857
 20
-41.7580023871527715
 10
-19.7541775173611107
 20
-40.4564453124999943
 10
-18.1475572374131922
 20
-40.4564453124999943
 10
-16.5473103841145814
 20
-40.4564453124999943
 10
-15.2455810546874986
 20
-41.7580023871527715
 10
-15.2455810546874986
 20
-43.3585937499999972
 10
-15.2455810546874986
 20
-44.9584960937499929
 10
-16.5473103841145814
 20
-46.2603976779513815
 10
-18.1475572374131922
 20
-46.2603976779513815
 97
        0
 75
     2
 76
     1
 98
        1
 10
0.0
 20
0.0
  0
HATCH
  5
8B
100
AcDbEntity
  8
COMMENT
390
0
 62
     7
100
AcDbHatch
 10
0.0
 20
0.0
 30
0.0
210
0.0
220
0.0
230
1.0
  2
SOLID
 70
     1
 71
     0
 91
        4
 92
        1
 93
        1
 72
     4
 94
        3
 73
     0
 74
     0
 95
       32
 96
       28
 40
0.0
 40
0.0
 40
0.0
 40
0.0
 40
1.0
 40
1.0
 40
1.0
 40
2.0
 40
2.0
 40
2.0
 40
3.0
 40
3.0
 40
3.0
 40
4.0
 40
4.0
 40
4.0
 40
5.0
 40
5.0
 40
5.0
 40
6.0
 40
6.0
 40
6.0
 40
7.0
 40
7.0
 40
7.0
 40
8.0
 40
8.0
 40
8.0
 40
9.0
 40
9.0
 40
9.0
 40
9.0
 10
74.0202880859374943
 20
-111.8198757595485944
 10
74.0202880859374943
 20
-111.8198757595485944
 10
74.0202880859374943
 20
-109.1909233940972115
 10
74.0202880859374943
 20
-109.1909233940972115
 10
74.0202880859374943
 20
-109.1909233940972115
 10
73.3409152560763857
 20
-109.1909233940972115
 10
73.3409152560763857
 20
-109.1909233940972115
 10
73.3409152560763857
 20
-109.1909233940972115
 10
73.3409152560763857
 20
-108.8164415147569315
 10
73.3409152560763857
 20
-108.8164415147569315
 10
73.3409152560763857
 20
-108.8164415147569315
 10
73.3915581597222086
 20
-108.8164415147569315
 10
73.3915581597222086
 20
-108.8164415147569315
 10
73.70919596354166
 20
-108.8164415147569315
 10
74.0709309895833314
 20
-108.7337592230902743
 10
74.1598144531249943
 20
-108.2765950520833229
 10
74.1598144531249943
 20
-108.2765950520833229
 10
74.1598144531249943
 20
-108.2004584418402686
 10
74.1598144531249943
 20
-108.2004584418402686
 10
74.1598144531249943
 20
-108.2004584418402686
 10
74.5473876953124943
 20
-108.2004584418402686
 10
74.5473876953124943
 20
-108.2004584418402686
 10
74.5473876953124943
 20
-108.2004584418402686
 10
74.5473876953124943
 20
-111.8198757595485944
 10
74.5473876953124943
 20
-111.8198757595485944
 10
74.5473876953124943
 20
-111.8198757595485944
 10
74.0202880859374943
 20
-111.8198757595485944
 10
74.0202880859374943
 20
-111.8198757595485944
 97
        0
 92
        1
 93
        1
 72
     4
 94
        3
 73
     0
 74
     0
 95
       32
 96
       28
 40
0.0
 40
0.0
 40
0.0
 40
0.0
 40
1.0
 40
1.0
 40
1.0
 40
2.0
 40
2.0
 40
2.0
 40
3.0
 40
3.0
 40
3.0
 40
4.0
 40
4.0
 40
4.0
 40
5.0
 40
5.0
 40
5.0
 40
6.0
 40
6.0
 40
6.0
 40
7.0
 40
7.0
 40
7.0
 40
8.0
 40
8.0
 40
8.0
 40
9.0
 40
9.0
 40
9.0
 40
9.0
 10
72.0073187934027743
 20
-111.8198757595485944
 10
72.0073187934027743
 20
-111.8198757595485944
 10
72.0073187934027743
 20
-109.1909233940972115
 10
72.0073187934027743
 20
-109.1909233940972115
 10
72.0073187934027743
 20
-109.1909233940972115
 10
71.3341471354166572
 20
-109.1909233940972115
 10
71.3341471354166572
 20
-109.1909233940972115
 10
71.3341471354166572
 20
-109.1909233940972115
 10
71.3341471354166572
 20
-108.8164415147569315
 10
71.3341471354166572
 20
-108.8164415147569315
 10
71.3341471354166572
 20
-108.8164415147569315
 10
71.3847900390624943
 20
-108.8164415147569315
 10
71.3847900390624943
 20
-108.8164415147569315
 10
71.69622667100694
 20
-108.8164415147569315
 10
72.0579616970486114
 20
-108.7337592230902743
 10
72.1533908420138772
 20
-108.2765950520833229
 10
72.1533908420138772
 20
-108.2765950520833229
 10
72.1533908420138772
 20
-108.2004584418402686
 10
72.1533908420138772
 20
-108.2004584418402686
 10
72.1533908420138772
 20
-108.2004584418402686
 10
72.5344184027777743
 20
-108.2004584418402686
 10
72.5344184027777743
 20
-108.2004584418402686
 10
72.5344184027777743
 20
-108.2004584418402686
 10
72.5344184027777743
 20
-111.8198757595485944
 10
72.5344184027777743
 20
-111.8198757595485944
 10
72.5344184027777743
 20
-111.8198757595485944
 10
72.0073187934027743
 20
-111.8198757595485944
 10
72.0073187934027743
 20
-111.8198757595485944
 97
        0
 92
       16
 93
        1
 72
     4
 94
        3
 73
     0
 74
     0
 95
       17
 96
       13
 40
0.0
 40
0.0
 40
0.0
 40
0.0
 40
1.0
 40
1.0
 40
1.0
 40
2.0
 40
2.0
 40
2.0
 40
3.0
 40
3.0
 40
3.0
 40
4.0
 40
4.0
 40
4.0
 40
4.0
 10
73.1755506727430429
 20
-107.28613009982638
 10
71.6641872829861057
 20
-107.28613009982638
 10
70.4387668185763829
 20
-108.5053493923610972
 10
70.4387668185763829
 20
-110.0167127821180486
 10
70.4387668185763829
 20
-111.5277316623263744
 10
71.6641872829861057
 20
-112.7534966362847086
 10
73.1755506727430429
 20
-112.7534966362847086
 10
74.6869140624999943
 20
-112.7534966362847086
 10
75.9126790364583286
 20
-111.5277316623263744
 10
75.9126790364583286
 20
-110.0167127821180486
 10
75.9126790364583286
 20
-108.5053493923610972
 10
74.6869140624999943
 20
-107.28613009982638
 10
73.1755506727430429
 20
-107.28613009982638
 97
        0
 92
        1
 93
        1
 72
     4
 94
        3
 73
     0
 74
     0
 95
       17
 96
       13
 40
0.0
 40
0.0
 40
0.0
 40
0.0
 40
1.0
 40
1.0
 40
1.0
 40
2.0
 40
2.0
 40
2.0
 40
3.0
 40
3.0
 40
3.0
 40
4.0
 40
4.0
 40
4.0
 40
4.0
 10
73.1755506727430429
 20
-112.9374647352430401
 10
71.5691026475694372
 20
-112.9374647352430401
 10
70.2609998914930429
 20
-111.62936197916666
 10
70.2609998914930429
 20
-110.0167127821180486
 10
70.2609998914930429
 20
-108.4099202473958172
 10
71.5691026475694372
 20
-107.1018174913194372
 10
73.1755506727430429
 20
-107.1018174913194372
 10
74.7885443793402658
 20
-107.1018174913194372
 10
76.09664713541666
 20
-108.4099202473958172
 10
76.09664713541666
 20
-110.0167127821180486
 10
76.09664713541666
 20
-111.62936197916666
 10
74.7885443793402658
 20
-112.9374647352430401
 10
73.1755506727430429
 20
-112.9374647352430401
 97
        0
 75
     2
 76
     1
 98
        1
 10
0.0
 20
0.0
  0
HATCH
  5
8A
100
AcDbEntity
  8
COMMENT
390
0
 62
     7
100
AcDbHatch
 10
0.0
 20
0.0
 30
0.0
210
0.0
220
0.0
230
1.0
  2
SOLID
 70
     1
 71
     0
 91
        3
 92
        1
 93
        1
 72
     4
 94
        3
 73
     0
 74
     0
 95
       59
 96
       55
 40
0.0
 40
0.0
 40
0.0
 40
0.0
 40
1.0
 40
1.0
 40
1.0
 40
2.0
 40
2.0
 40
2.0
 40
3.0
 40
3.0
 40
3.0
 40
4.0
 40
4.0
 40
4.0
 40
5.0
 40
5.0
 40
5.0
 40
6.0
 40
6.0
 40
6.0
 40
7.0
 40
7.0
 40
7.0
 40
8.0
 40
8.0
 40
8.0
 40
9.0
 40
9.0
 40
9.0
 40
10.0
 40
10.0
 40
10.0
 40
11.0
 40
11.0
 40
11.0
 40
12.0
 40
12.0
 40
12.0
 40
13.0
 40
13.0
 40
13.0
 40
14.0
 40
14.0
 40
14.0
 40
15.0
 40
15.0
 40
15.0
 40
16.0
 40
16.0
 40
16.0
 40
17.0
 40
17.0
 40
17.0
 40
18.0
 40
18.0
 40
18.0
 40
18.0
 10
-18.1158623589409693
 20
-73.7622504340277771
 10
-18.7699137369791664
 20
-73.7622504340277771
 10
-19.1509412977430529
 20
-73.4449571397569372
 10
-19.1509412977430529
 20
-72.6891031901041629
 10
-19.1509412977430529
 20
-72.6891031901041629
 10
-18.5983479817708321
 20
-72.6891031901041629
 10
-18.5983479817708321
 20
-72.6891031901041629
 10
-18.5983479817708321
 20
-73.0067409939236001
 10
-18.4968899197048593
 20
-73.3560736762152743
 10
-18.1031155056423607
 20
-73.3560736762152743
 10
-17.7412082248263872
 20
-73.3560736762152743
 10
-17.5951361762152771
 20
-73.0639295789930543
 10
-17.5951361762152771
 20
-72.7080512152777771
 10
-17.5951361762152771
 20
-72.2636338975694343
 10
-17.7475816514756914
 20
-72.0352240668402715
 10
-18.1856255425347193
 20
-72.0352240668402715
 10
-18.1856255425347193
 20
-72.0352240668402715
 10
-18.4078342013888872
 20
-72.0352240668402715
 10
-18.4078342013888872
 20
-72.0352240668402715
 10
-18.4078342013888872
 20
-72.0352240668402715
 10
-18.4078342013888872
 20
-71.6225016276041657
 10
-18.4078342013888872
 20
-71.6225016276041657
 10
-18.4078342013888872
 20
-71.6225016276041657
 10
-18.1983723958333314
 20
-71.6225016276041657
 10
-18.1983723958333314
 20
-71.6225016276041657
 10
-17.8109714084201372
 20
-71.6225016276041657
 10
-17.6776462131076357
 20
-71.3620524088541544
 10
-17.6776462131076357
 20
-71.0065185546874886
 10
-17.6776462131076357
 20
-70.7460693359374915
 10
-17.7983968098958307
 20
-70.4856201171874943
 10
-18.0967420789930529
 20
-70.4856201171874943
 10
-18.4524481879340279
 20
-70.4856201171874943
 10
-18.560279676649305
 20
-70.7905110677083229
 10
-18.560279676649305
 20
-71.1205512152777715
 10
-18.560279676649305
 20
-71.1205512152777715
 10
-19.1064995659722214
 20
-71.1205512152777715
 10
-19.1064995659722214
 20
-71.1205512152777715
 10
-19.1064995659722214
 20
-70.4477240668402658
 10
-18.7571668836805543
 20
-70.0794433593749915
 10
-18.06504720052083
 20
-70.0794433593749915
 10
-17.6332044813368043
 20
-70.0794433593749915
 10
-17.0935302734374979
 20
-70.2761583116319315
 10
-17.0935302734374979
 20
-70.9999728732638857
 10
-17.0935302734374979
 20
-71.3747992621527771
 10
-17.3157389322916657
 20
-71.7365342881944343
 10
-17.6712727864583314
 20
-71.7937228732638886
 10
-17.6712727864583314
 20
-71.7937228732638886
 10
-17.6712727864583314
 20
-71.8064697265624972
 10
-17.6712727864583314
 20
-71.8064697265624972
 10
-17.3029920789930536
 20
-71.83816460503472
 10
-17.0172214084201379
 20
-72.1430555555555486
 10
-17.0172214084201379
 20
-72.6446614583333314
 10
-17.0172214084201379
 20
-73.3622748480902658
 10
-17.3729275173611093
 20
-73.7622504340277771
 10
-18.1158623589409693
 20
-73.7622504340277771
 97
        0
 92
       16
 93
        1
 72
     4
 94
        3
 73
     0
 74
     0
 95
       17
 96
       13
 40
0.0
 40
0.0
 40
0.0
 40
0.0
 40
1.0
 40
1.0
 40
1.0
 40
2.0
 40
2.0
 40
2.0
 40
3.0
 40
3.0
 40
3.0
 40
4.0
 40
4.0
 40
4.0
 40
4.0
 10
-18.13481038411458
 20
-69.2092122395833229
 10
-19.6461737738715243
 20
-69.2092122395833229
 10
-20.8717664930555529
 20
-70.4349772135416572
 10
-20.8717664930555529
 20
-71.9463406032986086
 10
-20.8717664930555529
 20
-73.4573594835069343
 10
-19.6461737738715243
 20
-74.6831244574652686
 10
-18.13481038411458
 20
-74.6831244574652686
 10
-16.6236192491319414
 20
-74.6831244574652686
 10
-15.3980265299479147
 20
-73.4573594835069343
 10
-15.3980265299479147
 20
-71.9463406032986086
 10
-15.3980265299479147
 20
-70.4349772135416572
 10
-16.6236192491319414
 20
-69.2092122395833229
 10
-18.13481038411458
 20
-69.2092122395833229
 97
        0
 92
        1
 93
        1
 72
     4
 94
        3
 73
     0
 74
     0
 95
       17
 96
       13
 40
0.0
 40
0.0
 40
0.0
 40
0.0
 40
1.0
 40
1.0
 40
1.0
 40
2.0
 40
2.0
 40
2.0
 40
3.0
 40
3.0
 40
3.0
 40
4.0
 40
4.0
 40
4.0
 40
4.0
 10
-18.13481038411458
 20
-74.8608913845486086
 10
-19.7478040907118029
 20
-74.8608913845486086
 10
-21.0495334201388857
 20
-73.55898980034722
 10
-21.0495334201388857
 20
-71.9463406032986086
 10
-21.0495334201388857
 20
-70.3395480685763772
 10
-19.7478040907118029
 20
-69.0314453124999972
 10
-18.13481038411458
 20
-69.0314453124999972
 10
-16.5219889322916664
 20
-69.0314453124999972
 10
-15.2202596028645818
 20
-70.3395480685763772
 10
-15.2202596028645818
 20
-71.9463406032986086
 10
-15.2202596028645818
 20
-73.55898980034722
 10
-16.5219889322916664
 20
-74.8608913845486086
 10
-18.13481038411458
 20
-74.8608913845486086
 97
        0
 75
     2
 76
     1
 98
        1
 10
0.0
 20
0.0
  0
HATCH
  5
89
100
AcDbEntity
  8
COMMENT
390
0
 62
     7
100
AcDbHatch
 10
0.0
 20
0.0
 30
0.0
210
0.0
220
0.0
230
1.0
  2
SOLID
 70
     1
 71
     0
 91
        4
 92
       16
 93
        1
 72
     4
 94
        3
 73
     0
 74
     0
 95
       17
 96
       13
 40
0.0
 40
0.0
 40
0.0
 40
0.0
 40
1.0
 40
1.0
 40
1.0
 40
2.0
 40
2.0
 40
2.0
 40
3.0
 40
3.0
 40
3.0
 40
4.0
 40
4.0
 40
4.0
 40
4.0
 10
-18.2572835286458321
 20
-79.1886203342013886
 10
-18.2572835286458321
 20
-79.1886203342013886
 10
-18.2636569552951364
 20
-79.1886203342013886
 10
-18.2636569552951364
 20
-79.1886203342013886
 10
-18.2636569552951364
 20
-79.1886203342013886
 10
-19.07635498046875
 20
-80.6744900173611086
 10
-19.07635498046875
 20
-80.6744900173611086
 10
-19.07635498046875
 20
-80.6744900173611086
 10
-18.2572835286458321
 20
-80.6744900173611086
 10
-18.2572835286458321
 20
-80.6744900173611086
 10
-18.2572835286458321
 20
-80.6744900173611086
 10
-18.2572835286458321
 20
-79.1886203342013886
 10
-18.2572835286458321
 20
-79.1886203342013886
 97
        0
 92
        1
 93
        1
 72
     4
 94
        3
 73
     0
 74
     0
 95
       38
 96
       34
 40
0.0
 40
0.0
 40
0.0
 40
0.0
 40
1.0
 40
1.0
 40
1.0
 40
2.0
 40
2.0
 40
2.0
 40
3.0
 40
3.0
 40
3.0
 40
4.0
 40
4.0
 40
4.0
 40
5.0
 40
5.0
 40
5.0
 40
6.0
 40
6.0
 40
6.0
 40
7.0
 40
7.0
 40
7.0
 40
8.0
 40
8.0
 40
8.0
 40
9.0
 40
9.0
 40
9.0
 40
10.0
 40
10.0
 40
10.0
 40
11.0
 40
11.0
 40
11.0
 40
11.0
 10
-17.7048624674479136
 20
-81.1381998697916629
 10
-17.7048624674479136
 20
-81.1381998697916629
 10
-17.7048624674479136
 20
-81.9508978949652658
 10
-17.7048624674479136
 20
-81.9508978949652658
 10
-17.7048624674479136
 20
-81.9508978949652658
 10
-18.2572835286458321
 20
-81.9508978949652658
 10
-18.2572835286458321
 20
-81.9508978949652658
 10
-18.2572835286458321
 20
-81.9508978949652658
 10
-18.2572835286458321
 20
-81.1381998697916629
 10
-18.2572835286458321
 20
-81.1381998697916629
 10
-18.2572835286458321
 20
-81.1381998697916629
 10
-19.5400648328993043
 20
-81.1381998697916629
 10
-19.5400648328993043
 20
-81.1381998697916629
 10
-19.5400648328993043
 20
-81.1381998697916629
 10
-19.5400648328993043
 20
-80.6427951388888857
 10
-19.5400648328993043
 20
-80.6427951388888857
 10
-19.5400648328993043
 20
-80.6427951388888857
 10
-18.2953518337673593
 20
-78.3442274305555486
 10
-18.2953518337673593
 20
-78.3442274305555486
 10
-18.2953518337673593
 20
-78.3442274305555486
 10
-17.7048624674479136
 20
-78.3442274305555486
 10
-17.7048624674479136
 20
-78.3442274305555486
 10
-17.7048624674479136
 20
-78.3442274305555486
 10
-17.7048624674479136
 20
-80.6744900173611086
 10
-17.7048624674479136
 20
-80.6744900173611086
 10
-17.7048624674479136
 20
-80.6744900173611086
 10
-17.311088053385415
 20
-80.6744900173611086
 10
-17.311088053385415
 20
-80.6744900173611086
 10
-17.311088053385415
 20
-80.6744900173611086
 10
-17.311088053385415
 20
-81.1381998697916629
 10
-17.311088053385415
 20
-81.1381998697916629
 10
-17.311088053385415
 20
-81.1381998697916629
 10
-17.7048624674479136
 20
-81.1381998697916629
 10
-17.7048624674479136
 20
-81.1381998697916629
 97
        0
 92
       16
 93
        1
 72
     4
 94
        3
 73
     0
 74
     0
 95
       17
 96
       13
 40
0.0
 40
0.0
 40
0.0
 40
0.0
 40
1.0
 40
1.0
 40
1.0
 40
2.0
 40
2.0
 40
2.0
 40
3.0
 40
3.0
 40
3.0
 40
4.0
 40
4.0
 40
4.0
 40
4.0
 10
-18.2000949435763886
 20
-77.4994900173610972
 10
-19.7114583333333329
 20
-77.4994900173610972
 10
-20.9306776258680536
 20
-78.7252549913194315
 10
-20.9306776258680536
 20
-80.2300726996527658
 10
-20.9306776258680536
 20
-81.7352349175347115
 10
-19.7114583333333329
 20
-82.9544542100694429
 10
-18.2000949435763886
 20
-82.9544542100694429
 10
-16.6951049804687486
 20
-82.9544542100694429
 10
-15.4758856879340261
 20
-81.7352349175347115
 10
-15.4758856879340261
 20
-80.2300726996527658
 10
-15.4758856879340261
 20
-78.7252549913194315
 10
-16.6951049804687486
 20
-77.4994900173610972
 10
-18.2000949435763886
 20
-77.4994900173610972
 97
        0
 92
        1
 93
        1
 72
     4
 94
        3
 73
     0
 74
     0
 95
       17
 96
       13
 40
0.0
 40
0.0
 40
0.0
 40
0.0
 40
1.0
 40
1.0
 40
1.0
 40
2.0
 40
2.0
 40
2.0
 40
3.0
 40
3.0
 40
3.0
 40
4.0
 40
4.0
 40
4.0
 40
4.0
 10
-18.2000949435763886
 20
-83.1384223090277743
 10
-19.8067152235243036
 20
-83.1384223090277743
 10
-21.1084445529513864
 20
-81.8368652343749972
 10
-21.1084445529513864
 20
-80.2300726996527658
 10
-21.1084445529513864
 20
-78.62362467447916
 10
-19.8067152235243036
 20
-77.3217230902777715
 10
-18.2000949435763886
 20
-77.3217230902777715
 10
-16.5998480902777779
 20
-77.3217230902777715
 10
-15.2981187608506932
 20
-78.62362467447916
 10
-15.2981187608506932
 20
-80.2300726996527658
 10
-15.2981187608506932
 20
-81.8368652343749972
 10
-16.5998480902777779
 20
-83.1384223090277743
 10
-18.2000949435763886
 20
-83.1384223090277743
 97
        0
 75
     2
 76
     1
 98
        1
 10
0.0
 20
0.0
  0
HATCH
  5
88
100
AcDbEntity
  8
COMMENT
390
0
 62
     7
100
AcDbHatch
 10
0.0
 20
0.0
 30
0.0
210
0.0
220
0.0
230
1.0
  2
SOLID
 70
     1
 71
     0
 91
        3
 92
        1
 93
        1
 72
     4
 94
        3
 73
     0
 74
     0
 95
       59
 96
       55
 40
0.0
 40
0.0
 40
0.0
 40
0.0
 40
1.0
 40
1.0
 40
1.0
 40
2.0
 40
2.0
 40
2.0
 40
3.0
 40
3.0
 40
3.0
 40
4.0
 40
4.0
 40
4.0
 40
5.0
 40
5.0
 40
5.0
 40
6.0
 40
6.0
 40
6.0
 40
7.0
 40
7.0
 40
7.0
 40
8.0
 40
8.0
 40
8.0
 40
9.0
 40
9.0
 40
9.0
 40
10.0
 40
10.0
 40
10.0
 40
11.0
 40
11.0
 40
11.0
 40
12.0
 40
12.0
 40
12.0
 40
13.0
 40
13.0
 40
13.0
 40
14.0
 40
14.0
 40
14.0
 40
15.0
 40
15.0
 40
15.0
 40
16.0
 40
16.0
 40
16.0
 40
17.0
 40
17.0
 40
17.0
 40
18.0
 40
18.0
 40
18.0
 40
18.0
 10
-18.3366929796006914
 20
-90.2442762586805429
 10
-18.9779975043402764
 20
-90.2442762586805429
 10
-19.3462782118055543
 20
-89.9138916015624972
 10
-19.3462782118055543
 20
-89.2724148220486029
 10
-19.3462782118055543
 20
-89.2724148220486029
 10
-19.3462782118055543
 20
-89.1962782118055486
 10
-19.3462782118055543
 20
-89.1962782118055486
 10
-19.3462782118055543
 20
-89.1962782118055486
 10
-18.7938571506076357
 20
-89.1962782118055486
 10
-18.7938571506076357
 20
-89.1962782118055486
 10
-18.7938571506076357
 20
-89.1962782118055486
 10
-18.7938571506076357
 20
-89.2979085286458201
 10
-18.7938571506076357
 20
-89.2979085286458201
 10
-18.7938571506076357
 20
-89.5645589192708229
 10
-18.6477851019965257
 20
-89.80606011284722
 10
-18.317572699652775
 20
-89.80606011284722
 10
-17.9175971137152779
 20
-89.80606011284722
 10
-17.8032199435763872
 20
-89.4057400173610972
 10
-17.8032199435763872
 20
-88.9868164062499858
 10
-17.8032199435763872
 20
-88.5675482855902629
 10
-17.9175971137152779
 20
-88.2120144314235972
 10
-18.2858778211805522
 20
-88.2120144314235972
 10
-18.5335801866319443
 20
-88.2120144314235972
 10
-18.7113471137152771
 20
-88.3453396267361057
 10
-18.7621622721354164
 20
-88.5423990885416572
 10
-18.7621622721354164
 20
-88.5423990885416572
 10
-19.2765150282118043
 20
-88.5231065538194315
 10
-19.2765150282118043
 20
-88.5231065538194315
 10
-19.2765150282118043
 20
-88.5231065538194315
 10
-19.0985758463541657
 20
-86.6310601128472086
 10
-19.0985758463541657
 20
-86.6310601128472086
 10
-19.0985758463541657
 20
-86.6310601128472086
 10
-17.358802625868055
 20
-86.6310601128472086
 10
-17.358802625868055
 20
-86.6310601128472086
 10
-17.358802625868055
 20
-86.6310601128472086
 10
-17.358802625868055
 20
-87.0944254557291657
 10
-17.358802625868055
 20
-87.0944254557291657
 10
-17.358802625868055
 20
-87.0944254557291657
 10
-18.6669053819444422
 20
-87.0944254557291657
 10
-18.6669053819444422
 20
-87.0944254557291657
 10
-18.6669053819444422
 20
-87.0944254557291657
 10
-18.7811102973090271
 20
-88.04699435763888
 10
-18.7811102973090271
 20
-88.04699435763888
 10
-18.7811102973090271
 20
-88.04699435763888
 10
-18.7747368706597193
 20
-88.0531955295138857
 10
-18.7747368706597193
 20
-88.0531955295138857
 10
-18.6224636501736107
 20
-87.8819742838541629
 10
-18.4000827365451372
 20
-87.7737982855902743
 10
-18.1651272243923607
 20
-87.7737982855902743
 10
-17.4096177842881943
 20
-87.7737982855902743
 10
-17.2191040039062493
 20
-88.4090738932291629
 10
-17.2191040039062493
 20
-88.9678683810763857
 10
-17.2191040039062493
 20
-89.6916829427083258
 10
-17.5555175781249986
 20
-90.2442762586805429
 10
-18.3366929796006914
 20
-90.2442762586805429
 97
        0
 92
       16
 93
        1
 72
     4
 94
        3
 73
     0
 74
     0
 95
       17
 96
       13
 40
0.0
 40
0.0
 40
0.0
 40
0.0
 40
1.0
 40
1.0
 40
1.0
 40
2.0
 40
2.0
 40
2.0
 40
3.0
 40
3.0
 40
3.0
 40
4.0
 40
4.0
 40
4.0
 40
4.0
 10
-18.3111992730034707
 20
-85.6719455295138772
 10
-19.822562662760415
 20
-85.6719455295138772
 10
-21.0481553819444436
 20
-86.8977105034722115
 10
-21.0481553819444436
 20
-88.4090738932291629
 10
-21.0481553819444436
 20
-89.9200927734374886
 10
-19.822562662760415
 20
-91.1458577473958229
 10
-18.3111992730034707
 20
-91.1458577473958229
 10
-16.8000081380208321
 20
-91.1458577473958229
 10
-15.5744154188368036
 20
-89.9200927734374886
 10
-15.5744154188368036
 20
-88.4090738932291629
 10
-15.5744154188368036
 20
-86.8977105034722115
 10
-16.8000081380208321
 20
-85.6719455295138772
 10
-18.3111992730034707
 20
-85.6719455295138772
 97
        0
 92
        1
 93
        1
 72
     4
 94
        3
 73
     0
 74
     0
 95
       17
 96
       13
 40
0.0
 40
0.0
 40
0.0
 40
0.0
 40
1.0
 40
1.0
 40
1.0
 40
2.0
 40
2.0
 40
2.0
 40
3.0
 40
3.0
 40
3.0
 40
4.0
 40
4.0
 40
4.0
 40
4.0
 10
-18.3111992730034707
 20
-91.3236246744791629
 10
-19.9241929796006936
 20
-91.3236246744791629
 10
-21.2259223090277764
 20
-90.0217230902777743
 10
-21.2259223090277764
 20
-88.4090738932291629
 10
-21.2259223090277764
 20
-86.8022813585069315
 10
-19.9241929796006936
 20
-85.4941786024305515
 10
-18.3111992730034707
 20
-85.4941786024305515
 10
-16.6983778211805536
 20
-85.4941786024305515
 10
-15.3966484917534707
 20
-86.8022813585069315
 10
-15.3966484917534707
 20
-88.4090738932291629
 10
-15.3966484917534707
 20
-90.0217230902777743
 10
-16.6983778211805536
 20
-91.3236246744791629
 10
-18.3111992730034707
 20
-91.3236246744791629
 97
        0
 75
     2
 76
     1
 98
        1
 10
0.0
 20
0.0
  0
HATCH
  5
87
100
AcDbEntity
  8
COMMENT
390
0
 62
     7
100
AcDbHatch
 10
0.0
 20
0.0
 30
0.0
210
0.0
220
0.0
230
1.0
  2
SOLID
 70
     1
 71
     0
 91
        4
 92
       16
 93
        1
 72
     4
 94
        3
 73
     0
 74
     0
 95
       17
 96
       13
 40
0.0
 40
0.0
 40
0.0
 40
0.0
 40
1.0
 40
1.0
 40
1.0
 40
2.0
 40
2.0
 40
2.0
 40
3.0
 40
3.0
 40
3.0
 40
4.0
 40
4.0
 40
4.0
 40
4.0
 10
-18.1031155056423607
 20
-94.5733832465277686
 10
-18.5285847981770821
 20
-94.5733832465277686
 10
-18.6047214084201364
 20
-94.9416639539930429
 10
-18.6047214084201364
 20
-95.37988009982638
 10
-18.6047214084201364
 20
-95.7988037109374915
 10
-18.44607476128472
 20
-96.1291883680555515
 10
-18.1031155056423607
 20
-96.1291883680555515
 10
-17.7475816514756914
 20
-96.1291883680555515
 10
-17.6204576280381922
 20
-95.7736545138888857
 10
-17.6204576280381922
 20
-95.3543863932291629
 10
-17.6204576280381922
 20
-94.85278049045138
 10
-17.77290310329861
 20
-94.5733832465277686
 10
-18.1031155056423607
 20
-94.5733832465277686
 97
        0
 92
        1
 93
        1
 72
     4
 94
        3
 73
     0
 74
     0
 95
       35
 96
       31
 40
0.0
 40
0.0
 40
0.0
 40
0.0
 40
1.0
 40
1.0
 40
1.0
 40
2.0
 40
2.0
 40
2.0
 40
3.0
 40
3.0
 40
3.0
 40
4.0
 40
4.0
 40
4.0
 40
5.0
 40
5.0
 40
5.0
 40
6.0
 40
6.0
 40
6.0
 40
7.0
 40
7.0
 40
7.0
 40
8.0
 40
8.0
 40
8.0
 40
9.0
 40
9.0
 40
9.0
 40
10.0
 40
10.0
 40
10.0
 40
10.0
 10
-18.1475572374131922
 20
-96.5357096354166515
 10
-19.0620578342013864
 20
-96.5357096354166515
 10
-19.233451334635415
 20
-95.8432454427083229
 10
-19.233451334635415
 20
-94.8083387586805486
 10
-19.233451334635415
 20
-93.7224446614583258
 10
-19.0365641276041657
 20
-92.8525580512152686
 10
-18.0839952256944443
 20
-92.8525580512152686
 10
-17.4490641276041636
 20
-92.8525580512152686
 10
-17.1061048719618043
 20
-93.1381564670138857
 10
-17.1061048719618043
 20
-93.7289903428819429
 10
-17.1061048719618043
 20
-93.7289903428819429
 10
-17.6903930664062479
 20
-93.7289903428819429
 10
-17.6903930664062479
 20
-93.7289903428819429
 10
-17.6903930664062479
 20
-93.5191840277777686
 10
-17.7856499565972221
 20
-93.2590793185763829
 10
-18.0777940538194422
 20
-93.2590793185763829
 10
-18.6238416883680529
 20
-93.2590793185763829
 10
-18.6555365668402757
 20
-93.97634819878472
 10
-18.6555365668402757
 20
-94.50344780815972
 10
-18.6555365668402757
 20
-94.50344780815972
 10
-18.636588541666665
 20
-94.5161946614583286
 10
-18.636588541666665
 20
-94.5161946614583286
 10
-18.4968899197048593
 20
-94.2557454427083314
 10
-18.2491875542534707
 20
-94.12896592881944
 10
-17.9317220052083321
 20
-94.12896592881944
 10
-17.436317274305555
 20
-94.12896592881944
 10
-17.0427151150173586
 20
-94.4907009548610972
 10
-17.0427151150173586
 20
-95.2083143446180458
 10
-17.0427151150173586
 20
-96.0403049045138744
 10
-17.3855021158854157
 20
-96.5357096354166515
 10
-18.1475572374131922
 20
-96.5357096354166515
 97
        0
 92
       16
 93
        1
 72
     4
 94
        3
 73
     0
 74
     0
 95
       17
 96
       13
 40
0.0
 40
0.0
 40
0.0
 40
0.0
 40
1.0
 40
1.0
 40
1.0
 40
2.0
 40
2.0
 40
2.0
 40
3.0
 40
3.0
 40
3.0
 40
4.0
 40
4.0
 40
4.0
 40
4.0
 10
-18.13481038411458
 20
-91.9633789062499858
 10
-19.6461737738715243
 20
-91.9633789062499858
 10
-20.8717664930555529
 20
-93.1891438802083201
 10
-20.8717664930555529
 20
-94.7005072699652715
 10
-20.8717664930555529
 20
-96.2115261501735972
 10
-19.6461737738715243
 20
-97.4372911241319315
 10
-18.13481038411458
 20
-97.4372911241319315
 10
-16.6236192491319414
 20
-97.4372911241319315
 10
-15.3980265299479147
 20
-96.2115261501735972
 10
-15.3980265299479147
 20
-94.7005072699652715
 10
-15.3980265299479147
 20
-93.1891438802083201
 10
-16.6236192491319414
 20
-91.9633789062499858
 10
-18.13481038411458
 20
-91.9633789062499858
 97
        0
 92
        1
 93
        1
 72
     4
 94
        3
 73
     0
 74
     0
 95
       17
 96
       13
 40
0.0
 40
0.0
 40
0.0
 40
0.0
 40
1.0
 40
1.0
 40
1.0
 40
2.0
 40
2.0
 40
2.0
 40
3.0
 40
3.0
 40
3.0
 40
4.0
 40
4.0
 40
4.0
 40
4.0
 10
-18.13481038411458
 20
-97.6150580512152715
 10
-19.7478040907118029
 20
-97.6150580512152715
 10
-21.0495334201388857
 20
-96.3131564670138829
 10
-21.0495334201388857
 20
-94.7005072699652715
 10
-21.0495334201388857
 20
-93.0937147352430401
 10
-19.7478040907118029
 20
-91.78561197916666
 10
-18.13481038411458
 20
-91.78561197916666
 10
-16.5219889322916664
 20
-91.78561197916666
 10
-15.2202596028645818
 20
-93.0937147352430401
 10
-15.2202596028645818
 20
-94.7005072699652715
 10
-15.2202596028645818
 20
-96.3131564670138829
 10
-16.5219889322916664
 20
-97.6150580512152715
 10
-18.13481038411458
 20
-97.6150580512152715
 97
        0
 75
     2
 76
     1
 98
        1
 10
0.0
 20
0.0
  0
HATCH
  5
86
100
AcDbEntity
  8
COMMENT
390
0
 62
     7
100
AcDbHatch
 10
0.0
 20
0.0
 30
0.0
210
0.0
220
0.0
230
1.0
  2
SOLID
 70
     1
 71
     0
 91
        3
 92
        1
 93
        1
 72
     4
 94
        3
 73
     0
 74
     0
 95
       26
 96
       22
 40
0.0
 40
0.0
 40
0.0
 40
0.0
 40
1.0
 40
1.0
 40
1.0
 40
2.0
 40
2.0
 40
2.0
 40
3.0
 40
3.0
 40
3.0
 40
4.0
 40
4.0
 40
4.0
 40
5.0
 40
5.0
 40
5.0
 40
6.0
 40
6.0
 40
6.0
 40
7.0
 40
7.0
 40
7.0
 40
7.0
 10
73.1758951822916544
 20
-73.9558648003472143
 10
73.1758951822916544
 20
-73.9558648003472143
 10
72.5661132812499972
 20
-73.9558648003472143
 10
72.5661132812499972
 20
-73.9558648003472143
 10
72.6425944010416629
 20
-72.8765163845486086
 10
73.1758951822916544
 20
-71.6700439453125
 10
73.7536376953124915
 20
-70.9269368489583201
 10
73.7536376953124915
 20
-70.9269368489583201
 10
72.1726833767361029
 20
-70.9269368489583201
 10
72.1726833767361029
 20
-70.9269368489583201
 10
72.1726833767361029
 20
-70.9269368489583201
 10
72.1726833767361029
 20
-70.4063829210069372
 10
72.1726833767361029
 20
-70.4063829210069372
 10
72.1726833767361029
 20
-70.4063829210069372
 10
74.3124321831597143
 20
-70.4063829210069372
 10
74.3124321831597143
 20
-70.4063829210069372
 10
74.3124321831597143
 20
-70.4063829210069372
 10
74.3124321831597143
 20
-70.86974826388888
 10
74.3124321831597143
 20
-70.86974826388888
 10
73.7470920138888886
 20
-71.6066541883680543
 10
73.2585774739583258
 20
-72.86376953125
 10
73.1758951822916544
 20
-73.9558648003472143
 97
        0
 92
       16
 93
        1
 72
     4
 94
        3
 73
     0
 74
     0
 95
       17
 96
       13
 40
0.0
 40
0.0
 40
0.0
 40
0.0
 40
1.0
 40
1.0
 40
1.0
 40
2.0
 40
2.0
 40
2.0
 40
3.0
 40
3.0
 40
3.0
 40
4.0
 40
4.0
 40
4.0
 40
4.0
 10
73.1758951822916544
 20
-69.32668999565972
 10
71.6645317925347172
 20
-69.32668999565972
 10
70.4391113281249943
 20
-70.5524549696180543
 10
70.4391113281249943
 20
-72.0638183593749915
 10
70.4391113281249943
 20
-73.5748372395833314
 10
71.6645317925347172
 20
-74.8006022135416657
 10
73.1758951822916544
 20
-74.8006022135416657
 10
74.6869140624999943
 20
-74.8006022135416657
 10
75.9126790364583286
 20
-73.5748372395833314
 10
75.9126790364583286
 20
-72.0638183593749915
 10
75.9126790364583286
 20
-70.5524549696180543
 10
74.6869140624999943
 20
-69.32668999565972
 10
73.1758951822916544
 20
-69.32668999565972
 97
        0
 92
        1
 93
        1
 72
     4
 94
        3
 73
     0
 74
     0
 95
       17
 96
       13
 40
0.0
 40
0.0
 40
0.0
 40
0.0
 40
1.0
 40
1.0
 40
1.0
 40
2.0
 40
2.0
 40
2.0
 40
3.0
 40
3.0
 40
3.0
 40
4.0
 40
4.0
 40
4.0
 40
4.0
 10
73.1758951822916544
 20
-74.9783691406249915
 10
71.5629014756944315
 20
-74.9783691406249915
 10
70.2613444010416544
 20
-73.6764675564236029
 10
70.2613444010416544
 20
-72.0638183593749915
 10
70.2613444010416544
 20
-70.4570258246527743
 10
71.5629014756944315
 20
-69.14892306857638
 10
73.1758951822916544
 20
-69.14892306857638
 10
74.7888888888888772
 20
-69.14892306857638
 10
76.0904459635416544
 20
-70.4570258246527743
 10
76.0904459635416544
 20
-72.0638183593749915
 10
76.0904459635416544
 20
-73.6764675564236029
 10
74.7888888888888772
 20
-74.9783691406249915
 10
73.1758951822916544
 20
-74.9783691406249915
 97
        0
 75
     2
 76
     1
 98
        1
 10
0.0
 20
0.0
  0
HATCH
  5
85
100
AcDbEntity
  8
COMMENT
390
0
 62
     7
100
AcDbHatch
 10
0.0
 20
0.0
 30
0.0
210
0.0
220
0.0
230
1.0
  2
SOLID
 70
     1
 71
     0
 91
        4
 92
       16
 93
        1
 72
     4
 94
        3
 73
     0
 74
     0
 95
       17
 96
       13
 40
0.0
 40
0.0
 40
0.0
 40
0.0
 40
1.0
 40
1.0
 40
1.0
 40
2.0
 40
2.0
 40
2.0
 40
3.0
 40
3.0
 40
3.0
 40
4.0
 40
4.0
 40
4.0
 40
4.0
 10
73.0057074652777658
 20
-87.32076822916666
 10
72.6501736111111001
 20
-87.32076822916666
 10
72.5233940972222086
 20
-87.6697564019097086
 10
72.5233940972222086
 20
-88.1017713758680543
 10
72.5233940972222086
 20
-88.6033772786458229
 10
72.6756673177083314
 20
-88.8827745225694343
 10
73.0057074652777658
 20
-88.8827745225694343
 10
73.4311767578124943
 20
-88.8827745225694343
 10
73.5138590494791657
 20
-88.5079481336805429
 10
73.5138590494791657
 20
-88.0762776692708229
 10
73.5138590494791657
 20
-87.6508083767361086
 10
73.3488389756944343
 20
-87.32076822916666
 10
73.0057074652777658
 20
-87.32076822916666
 97
        0
 92
        1
 93
        1
 72
     4
 94
        3
 73
     0
 74
     0
 95
       35
 96
       31
 40
0.0
 40
0.0
 40
0.0
 40
0.0
 40
1.0
 40
1.0
 40
1.0
 40
2.0
 40
2.0
 40
2.0
 40
3.0
 40
3.0
 40
3.0
 40
4.0
 40
4.0
 40
4.0
 40
5.0
 40
5.0
 40
5.0
 40
6.0
 40
6.0
 40
6.0
 40
7.0
 40
7.0
 40
7.0
 40
8.0
 40
8.0
 40
8.0
 40
9.0
 40
9.0
 40
9.0
 40
10.0
 40
10.0
 40
10.0
 40
10.0
 10
72.9867594401041657
 20
-90.6163465711805429
 10
72.3518283420138886
 20
-90.6163465711805429
 10
72.00869683159722
 20
-90.3304036458333286
 10
72.00869683159722
 20
-89.7337131076388772
 10
72.00869683159722
 20
-89.7337131076388772
 10
72.59298502604166
 20
-89.7337131076388772
 10
72.59298502604166
 20
-89.7337131076388772
 10
72.59298502604166
 20
-89.94317491319444
 10
72.6880696614583286
 20
-90.2036241319444372
 10
72.9802137586805486
 20
-90.2036241319444372
 10
73.5328070746527658
 20
-90.2036241319444372
 10
73.5645019531249886
 20
-89.4794650607638857
 10
73.5645019531249886
 20
-88.9527099609374972
 10
73.5645019531249886
 20
-88.9527099609374972
 10
73.5455539279513886
 20
-88.9399631076388744
 10
73.5455539279513886
 20
-88.9399631076388744
 10
73.4060275607638886
 20
-89.2000678168402743
 10
73.1579806857638886
 20
-89.3271918402777629
 10
72.8406873914930486
 20
-89.3271918402777629
 10
72.3390814887152658
 20
-89.3271918402777629
 10
71.9391059027777686
 20
-88.9651123046874943
 10
71.9391059027777686
 20
-88.2412977430555543
 10
71.9391059027777686
 20
-87.40310601128472
 10
72.2818929036458258
 20
-86.9077012803819429
 10
73.0566948784722143
 20
-86.9077012803819429
 10
73.9710232204861029
 20
-86.9077012803819429
 10
74.1487901475694429
 20
-87.6063666449652629
 10
74.1487901475694429
 20
-88.6478190104166544
 10
74.1487901475694429
 20
-89.7399142795138829
 10
73.9455295138888857
 20
-90.6163465711805429
 10
72.9867594401041657
 20
-90.6163465711805429
 97
        0
 92
       16
 93
        1
 72
     4
 94
        3
 73
     0
 74
     0
 95
       17
 96
       13
 40
0.0
 40
0.0
 40
0.0
 40
0.0
 40
1.0
 40
1.0
 40
1.0
 40
2.0
 40
2.0
 40
2.0
 40
3.0
 40
3.0
 40
3.0
 40
4.0
 40
4.0
 40
4.0
 40
4.0
 10
73.0184543185763886
 20
-86.03161349826388
 10
71.5008897569444315
 20
-86.03161349826388
 10
70.2689236111111057
 20
-87.2570339626736029
 10
70.2689236111111057
 20
-88.7811442057291629
 10
70.2689236111111057
 20
-90.2987087673611057
 10
71.5008897569444315
 20
-91.5306749131944315
 10
73.0184543185763886
 20
-91.5306749131944315
 10
74.5360188802083314
 20
-91.5306749131944315
 10
75.7679850260416572
 20
-90.2987087673611057
 10
75.7679850260416572
 20
-88.7811442057291629
 10
75.7679850260416572
 20
-87.2570339626736029
 10
74.5360188802083314
 20
-86.03161349826388
 10
73.0184543185763886
 20
-86.03161349826388
 97
        0
 92
        1
 93
        1
 72
     4
 94
        3
 73
     0
 74
     0
 95
       17
 96
       13
 40
0.0
 40
0.0
 40
0.0
 40
0.0
 40
1.0
 40
1.0
 40
1.0
 40
2.0
 40
2.0
 40
2.0
 40
3.0
 40
3.0
 40
3.0
 40
4.0
 40
4.0
 40
4.0
 40
4.0
 10
73.0184543185763886
 20
-91.7084418402777715
 10
71.39925944010416
 20
-91.7084418402777715
 10
70.0849555121527743
 20
-90.4003390842013772
 10
70.0849555121527743
 20
-88.7811442057291629
 10
70.0849555121527743
 20
-87.1619493272569343
 10
71.39925944010416
 20
-85.8473008897569372
 10
73.0184543185763886
 20
-85.8473008897569372
 10
74.6379937065972143
 20
-85.8473008897569372
 10
75.9457519531249972
 20
-87.1619493272569343
 10
75.9457519531249972
 20
-88.7811442057291629
 10
75.9457519531249972
 20
-90.4003390842013772
 10
74.6379937065972143
 20
-91.7084418402777715
 10
73.0184543185763886
 20
-91.7084418402777715
 97
        0
 75
     2
 76
     1
 98
        1
 10
0.0
 20
0.0
  0
HATCH
  5
84
100
AcDbEntity
  8
COMMENT
390
0
 62
     7
100
AcDbHatch
 10
0.0
 20
0.0
 30
0.0
210
0.0
220
0.0
230
1.0
  2
SOLID
 70
     1
 71
     0
 91
        5
 92
       16
 93
        1
 72
     4
 94
        3
 73
     0
 74
     0
 95
       17
 96
       13
 40
0.0
 40
0.0
 40
0.0
 40
0.0
 40
1.0
 40
1.0
 40
1.0
 40
2.0
 40
2.0
 40
2.0
 40
3.0
 40
3.0
 40
3.0
 40
4.0
 40
4.0
 40
4.0
 40
4.0
 10
73.84872233072916
 20
-93.5512234157986029
 10
73.4931884765624943
 20
-93.5512234157986029
 10
73.3977593315972143
 20
-93.9322509765624858
 10
73.3977593315972143
 20
-94.9864501953124858
 10
73.3977593315972143
 20
-96.0406494140624858
 10
73.4931884765624943
 20
-96.4216769748263829
 10
73.84872233072916
 20
-96.4216769748263829
 10
74.2108018663194429
 20
-96.4216769748263829
 10
74.2996853298611057
 20
-96.0406494140624858
 10
74.2996853298611057
 20
-94.9864501953124858
 10
74.2996853298611057
 20
-93.9322509765624858
 10
74.2108018663194429
 20
-93.5512234157986029
 10
73.84872233072916
 20
-93.5512234157986029
 97
        0
 92
        1
 93
        1
 72
     4
 94
        3
 73
     0
 74
     0
 95
       17
 96
       13
 40
0.0
 40
0.0
 40
0.0
 40
0.0
 40
1.0
 40
1.0
 40
1.0
 40
2.0
 40
2.0
 40
2.0
 40
3.0
 40
3.0
 40
3.0
 40
4.0
 40
4.0
 40
4.0
 40
4.0
 10
73.84872233072916
 20
-96.8278537326388857
 10
73.2265380859374915
 20
-96.8278537326388857
 10
72.8772054036458314
 20
-96.38998209635416
 10
72.8772054036458314
 20
-94.9864501953124858
 10
72.8772054036458314
 20
-93.5832628038194372
 10
73.2265380859374915
 20
-93.1385009765624972
 10
73.84872233072916
 20
-93.1385009765624972
 10
74.4774522569444315
 20
-93.1385009765624972
 10
74.8267849392361057
 20
-93.5832628038194372
 10
74.8267849392361057
 20
-94.9864501953124858
 10
74.8267849392361057
 20
-96.38998209635416
 10
74.4774522569444315
 20
-96.8278537326388857
 10
73.84872233072916
 20
-96.8278537326388857
 97
        0
 92
        1
 93
        1
 72
     4
 94
        3
 73
     0
 74
     0
 95
       32
 96
       28
 40
0.0
 40
0.0
 40
0.0
 40
0.0
 40
1.0
 40
1.0
 40
1.0
 40
2.0
 40
2.0
 40
2.0
 40
3.0
 40
3.0
 40
3.0
 40
4.0
 40
4.0
 40
4.0
 40
5.0
 40
5.0
 40
5.0
 40
6.0
 40
6.0
 40
6.0
 40
7.0
 40
7.0
 40
7.0
 40
8.0
 40
8.0
 40
8.0
 40
9.0
 40
9.0
 40
9.0
 40
9.0
 10
71.69622667100694
 20
-96.7582628038194343
 10
71.69622667100694
 20
-96.7582628038194343
 10
71.69622667100694
 20
-94.1293104383680515
 10
71.69622667100694
 20
-94.1293104383680515
 10
71.69622667100694
 20
-94.1293104383680515
 10
71.01650933159722
 20
-94.1293104383680515
 10
71.01650933159722
 20
-94.1293104383680515
 10
71.01650933159722
 20
-94.1293104383680515
 10
71.01650933159722
 20
-93.75448404947916
 10
71.01650933159722
 20
-93.75448404947916
 10
71.01650933159722
 20
-93.75448404947916
 10
71.0674967447916544
 20
-93.75448404947916
 10
71.0674967447916544
 20
-93.75448404947916
 10
71.3785888671874886
 20
-93.75448404947916
 10
71.7406684027777715
 20
-93.6721462673611001
 10
71.83575303819444
 20
-93.2149820963541629
 10
71.83575303819444
 20
-93.2149820963541629
 10
71.83575303819444
 20
-93.1385009765624972
 10
71.83575303819444
 20
-93.1385009765624972
 10
71.83575303819444
 20
-93.1385009765624972
 10
72.2167805989583229
 20
-93.1385009765624972
 10
72.2167805989583229
 20
-93.1385009765624972
 10
72.2167805989583229
 20
-93.1385009765624972
 10
72.2167805989583229
 20
-96.7582628038194343
 10
72.2167805989583229
 20
-96.7582628038194343
 10
72.2167805989583229
 20
-96.7582628038194343
 10
71.69622667100694
 20
-96.7582628038194343
 10
71.69622667100694
 20
-96.7582628038194343
 97
        0
 92
       16
 93
        1
 72
     4
 94
        3
 73
     0
 74
     0
 95
       17
 96
       13
 40
0.0
 40
0.0
 40
0.0
 40
0.0
 40
1.0
 40
1.0
 40
1.0
 40
2.0
 40
2.0
 40
2.0
 40
3.0
 40
3.0
 40
3.0
 40
4.0
 40
4.0
 40
4.0
 40
4.0
 10
72.9405951605902771
 20
-92.2052246093749943
 10
71.4292317708333258
 20
-92.2052246093749943
 10
70.2038113064236029
 20
-93.4244439019097115
 10
70.2038113064236029
 20
-94.9358072916666629
 10
70.2038113064236029
 20
-96.4468261718749886
 10
71.4292317708333258
 20
-97.6725911458333229
 10
72.9405951605902771
 20
-97.6725911458333229
 10
74.4519585503472143
 20
-97.6725911458333229
 10
75.6777235243055486
 20
-96.4468261718749886
 10
75.6777235243055486
 20
-94.9358072916666629
 10
75.6777235243055486
 20
-93.4244439019097115
 10
74.4519585503472143
 20
-92.2052246093749943
 10
72.9405951605902771
 20
-92.2052246093749943
 97
        0
 92
        1
 93
        1
 72
     4
 94
        3
 73
     0
 74
     0
 95
       17
 96
       13
 40
0.0
 40
0.0
 40
0.0
 40
0.0
 40
1.0
 40
1.0
 40
1.0
 40
2.0
 40
2.0
 40
2.0
 40
3.0
 40
3.0
 40
3.0
 40
4.0
 40
4.0
 40
4.0
 40
4.0
 10
72.9405951605902771
 20
-97.8565592447916544
 10
71.3341471354166572
 20
-97.8565592447916544
 10
70.0260443793402771
 20
-96.5484564887152743
 10
70.0260443793402771
 20
-94.9358072916666629
 10
70.0260443793402771
 20
-93.3290147569444315
 10
71.3341471354166572
 20
-92.0209120008680515
 10
72.9405951605902771
 20
-92.0209120008680515
 10
74.5535888671875
 20
-92.0209120008680515
 10
75.8554904513888886
 20
-93.3290147569444315
 10
75.8554904513888886
 20
-94.9358072916666629
 10
75.8554904513888886
 20
-96.5484564887152743
 10
74.5535888671875
 20
-97.8565592447916544
 10
72.9405951605902771
 20
-97.8565592447916544
 97
        0
 75
     2
 76
     1
 98
        1
 10
0.0
 20
0.0
  0
HATCH
  5
83
100
AcDbEntity
  8
COMMENT
390
0
 62
     7
100
AcDbHatch
 10
0.0
 20
0.0
 30
0.0
210
0.0
220
0.0
230
1.0
  2
SOLID
 70
     1
 71
     0
 91
        3
 92
        1
 93
        1
 72
     4
 94
        3
 73
     0
 74
     0
 95
       32
 96
       28
 40
0.0
 40
0.0
 40
0.0
 40
0.0
 40
1.0
 40
1.0
 40
1.0
 40
2.0
 40
2.0
 40
2.0
 40
3.0
 40
3.0
 40
3.0
 40
4.0
 40
4.0
 40
4.0
 40
5.0
 40
5.0
 40
5.0
 40
6.0
 40
6.0
 40
6.0
 40
7.0
 40
7.0
 40
7.0
 40
8.0
 40
8.0
 40
8.0
 40
9.0
 40
9.0
 40
9.0
 40
9.0
 10
72.9089002821180543
 20
-10.3924750434027775
 10
72.9089002821180543
 20
-10.3924750434027775
 10
72.9089002821180543
 20
-7.7697238498263879
 10
72.9089002821180543
 20
-7.7697238498263879
 10
72.9089002821180543
 20
-7.7697238498263879
 10
72.1595920138888829
 20
-7.7697238498263879
 10
72.1595920138888829
 20
-7.7697238498263879
 10
72.1595920138888829
 20
-7.7697238498263879
 10
72.1595920138888829
 20
-7.3952419704861105
 10
72.1595920138888829
 20
-7.3952419704861105
 10
72.1595920138888829
 20
-7.3952419704861105
 10
72.2105794270833314
 20
-7.3952419704861105
 10
72.2105794270833314
 20
-7.3952419704861105
 10
72.55956759982638
 20
-7.3952419704861105
 10
72.9598876953124886
 20
-7.3125596788194436
 10
73.0615180121527743
 20
-6.8553955078124993
 10
73.0615180121527743
 20
-6.8553955078124993
 10
73.0615180121527743
 20
-6.7792588975694441
 10
73.0615180121527743
 20
-6.7792588975694441
 10
73.0615180121527743
 20
-6.7792588975694441
 10
73.4869873046874886
 20
-6.7792588975694441
 10
73.4869873046874886
 20
-6.7792588975694441
 10
73.4869873046874886
 20
-6.7792588975694441
 10
73.4869873046874886
 20
-10.3924750434027775
 10
73.4869873046874886
 20
-10.3924750434027775
 10
73.4869873046874886
 20
-10.3924750434027775
 10
72.9089002821180543
 20
-10.3924750434027775
 10
72.9089002821180543
 20
-10.3924750434027775
 97
        0
 92
       16
 93
        1
 72
     4
 94
        3
 73
     0
 74
     0
 95
       17
 96
       13
 40
0.0
 40
0.0
 40
0.0
 40
0.0
 40
1.0
 40
1.0
 40
1.0
 40
2.0
 40
2.0
 40
2.0
 40
3.0
 40
3.0
 40
3.0
 40
4.0
 40
4.0
 40
4.0
 40
4.0
 10
73.1693495008680515
 20
-5.8266899956597218
 10
71.6641872829861057
 20
-5.8266899956597218
 10
70.4387668185763829
 20
-7.0521104600694438
 10
70.4387668185763829
 20
-8.5569281684027771
 10
70.4387668185763829
 20
-10.0686360677083329
 10
71.6641872829861057
 20
-11.2875108506944439
 10
73.1693495008680515
 20
-11.2875108506944439
 10
74.6741672092013857
 20
-11.2875108506944439
 10
75.89993218315972
 20
-10.0686360677083329
 10
75.89993218315972
 20
-8.5569281684027771
 10
75.89993218315972
 20
-7.0521104600694438
 10
74.6741672092013857
 20
-5.8266899956597218
 10
73.1693495008680515
 20
-5.8266899956597218
 97
        0
 92
        1
 93
        1
 72
     4
 94
        3
 73
     0
 74
     0
 95
       17
 96
       13
 40
0.0
 40
0.0
 40
0.0
 40
0.0
 40
1.0
 40
1.0
 40
1.0
 40
2.0
 40
2.0
 40
2.0
 40
3.0
 40
3.0
 40
3.0
 40
4.0
 40
4.0
 40
4.0
 40
4.0
 10
73.1693495008680515
 20
-11.4718234592013886
 10
71.5629014756944315
 20
-11.4718234592013886
 10
70.2609998914930429
 20
-10.1637207031249996
 10
70.2609998914930429
 20
-8.5569281684027771
 10
70.2609998914930429
 20
-6.9508246527777775
 10
71.5629014756944315
 20
-5.648923068576388
 10
73.1693495008680515
 20
-5.648923068576388
 10
74.7757975260416572
 20
-5.648923068576388
 10
76.0776991102430458
 20
-6.9508246527777775
 10
76.0776991102430458
 20
-8.5569281684027771
 10
76.0776991102430458
 20
-10.1637207031249996
 10
74.7757975260416572
 20
-11.4718234592013886
 10
73.1693495008680515
 20
-11.4718234592013886
 97
        0
 75
     2
 76
     1
 98
        1
 10
0.0
 20
0.0
  0
ELLIPSE
  5
82
100
AcDbEntity
  8
COMMENT
390
0
 62
     7
100
AcDbEllipse
 10
6.423381
 20
-72.067952
 30
0.0
 11
0.5732638888888888
 21
0.0
 31
0.0
210
0.0
220
0.0
230
1.0
 40
0.923077
 41
0.0
 42
6.2831853071795862
  0
HATCH
  5
81
100
AcDbEntity
  8
COMMENT
390
0
 62
     7
100
AcDbHatch
 10
0.0
 20
0.0
 30
0.0
210
0.0
220
0.0
230
1.0
  2
SOLID
 70
     1
 71
     0
 91
        1
 92
        1
 93
        1
 72
     4
 94
        3
 73
     0
 74
     0
 95
       17
 96
       13
 40
0.0
 40
0.0
 40
0.0
 40
0.0
 40
1.0
 40
1.0
 40
1.0
 40
2.0
 40
2.0
 40
2.0
 40
3.0
 40
3.0
 40
3.0
 40
4.0
 40
4.0
 40
4.0
 40
4.0
 10
6.4233805338541661
 20
-71.53878580729166
 10
6.739984809027777
 20
-71.53878580729166
 10
6.9966444227430546
 20
-71.7758083767361086
 10
6.9966444227430546
 20
-72.0679524739583286
 10
6.9966444227430546
 20
-72.3600965711805486
 10
6.739984809027777
 20
-72.5971191406249972
 10
6.4233805338541661
 20
-72.5971191406249972
 10
6.1067762586805552
 20
-72.5971191406249972
 10
5.8501166449652775
 20
-72.3600965711805486
 10
5.8501166449652775
 20
-72.0679524739583286
 10
5.8501166449652775
 20
-71.7758083767361086
 10
6.1067762586805552
 20
-71.53878580729166
 10
6.4233805338541661
 20
-71.53878580729166
 97
        0
 75
     2
 76
     1
 98
        1
 10
0.0
 20
0.0
  0
LINE
  5
80
100
AcDbEntity
  8
COMMENT
390
0
 62
     7
100
AcDbLine
 10
9.098669
 20
-88.825241
 30
0.0
 11
-15.066608
 21
-88.825241
 31
0.0
  0
LINE
  5
7F
100
AcDbEntity
  8
COMMENT
390
0
 62
     7
100
AcDbLine
 10
10.245197
 20
-88.825241
 30
0.0
 11
-15.169444
 21
-88.825241
 31
0.0
  0
ELLIPSE
  5
7E
100
AcDbEntity
  8
COMMENT
390
0
 62
     7
100
AcDbEllipse
 10
10.289294
 20
-88.825241
 30
0.0
 11
0.5732638888888888
 21
0.0
 31
0.0
210
0.0
220
0.0
230
1.0
 40
0.923077
 41
0.0
 42
6.2831853071795862
  0
HATCH
  5
7D
100
AcDbEntity
  8
COMMENT
390
0
 62
     7
100
AcDbHatch
 10
0.0
 20
0.0
 30
0.0
210
0.0
220
0.0
230
1.0
  2
SOLID
 70
     1
 71
     0
 91
        1
 92
        1
 93
        1
 72
     4
 94
        3
 73
     0
 74
     0
 95
       17
 96
       13
 40
0.0
 40
0.0
 40
0.0
 40
0.0
 40
1.0
 40
1.0
 40
1.0
 40
2.0
 40
2.0
 40
2.0
 40
3.0
 40
3.0
 40
3.0
 40
4.0
 40
4.0
 40
4.0
 40
4.0
 10
10.2892944335937493
 20
-88.2960747612847143
 10
10.6058987087673593
 20
-88.2960747612847143
 10
10.8625583224826379
 20
-88.5330973307291629
 10
10.8625583224826379
 20
-88.8252414279513829
 10
10.8625583224826379
 20
-89.1173855251736029
 10
10.6058987087673593
 20
-89.3544080946180515
 10
10.2892944335937493
 20
-89.3544080946180515
 10
9.9726901584201375
 20
-89.3544080946180515
 10
9.7160305447048607
 20
-89.1173855251736029
 10
9.7160305447048607
 20
-88.8252414279513829
 10
9.7160305447048607
 20
-88.5330973307291629
 10
9.9726901584201375
 20
-88.2960747612847143
 10
10.2892944335937493
 20
-88.2960747612847143
 97
        0
 75
     2
 76
     1
 98
        1
 10
0.0
 20
0.0
  0
LINE
  5
7C
100
AcDbEntity
  8
COMMENT
390
0
 62
     7
100
AcDbLine
 10
17.682986
 20
-43.434386
 30
0.0
 11
-6.482292
 21
-43.434386
 31
0.0
  0
LINE
  5
7B
100
AcDbEntity
  8
COMMENT
390
0
 62
     7
100
AcDbLine
 10
18.829514
 20
-43.434386
 30
0.0
 11
-15.331192
 21
-43.434386
 31
0.0
  0
ELLIPSE
  5
7A
100
AcDbEntity
  8
COMMENT
390
0
 62
     7
100
AcDbEllipse
 10
18.873611
 20
-43.434386
 30
0.0
 11
0.5732638888888888
 21
0.0
 31
0.0
210
0.0
220
0.0
230
1.0
 40
0.923077
 41
0.0
 42
6.2831853071795862
  0
HATCH
  5
79
100
AcDbEntity
  8
COMMENT
390
0
 62
     7
100
AcDbHatch
 10
0.0
 20
0.0
 30
0.0
210
0.0
220
0.0
230
1.0
  2
SOLID
 70
     1
 71
     0
 91
        1
 92
        1
 93
        1
 72
     4
 94
        3
 73
     0
 74
     0
 95
       17
 96
       13
 40
0.0
 40
0.0
 40
0.0
 40
0.0
 40
1.0
 40
1.0
 40
1.0
 40
2.0
 40
2.0
 40
2.0
 40
3.0
 40
3.0
 40
3.0
 40
4.0
 40
4.0
 40
4.0
 40
4.0
 10
18.87361111111111
 20
-42.9052191840277715
 10
19.19021538628472
 20
-42.9052191840277715
 10
19.4468749999999986
 20
-43.14224175347222
 10
19.4468749999999986
 20
-43.43438585069444
 10
19.4468749999999986
 20
-43.72652994791666
 10
19.19021538628472
 20
-43.9635525173611086
 10
18.87361111111111
 20
-43.9635525173611086
 10
18.5570068359375
 20
-43.9635525173611086
 10
18.3003472222222214
 20
-43.72652994791666
 10
18.3003472222222214
 20
-43.43438585069444
 10
18.3003472222222214
 20
-43.14224175347222
 10
18.5570068359375
 20
-42.9052191840277715
 10
18.87361111111111
 20
-42.9052191840277715
 97
        0
 75
     2
 76
     1
 98
        1
 10
0.0
 20
0.0
  0
LINE
  5
78
100
AcDbEntity
  8
COMMENT
390
0
 62
     7
100
AcDbLine
 10
5.688542
 20
-8.685775
 30
0.0
 11
-11.406539
 21
-8.685775
 31
0.0
  0
LINE
  5
77
100
AcDbEntity
  8
COMMENT
390
0
 62
     7
100
AcDbLine
 10
6.835069
 20
-8.685775
 30
0.0
 11
-15.566319
 21
-8.685775
 31
0.0
  0
ELLIPSE
  5
76
100
AcDbEntity
  8
COMMENT
390
0
 62
     7
100
AcDbEllipse
 10
6.879167
 20
-8.685775
 30
0.0
 11
0.5732638888888888
 21
0.0
 31
0.0
210
0.0
220
0.0
230
1.0
 40
0.923077
 41
0.0
 42
6.2831853071795862
  0
HATCH
  5
75
100
AcDbEntity
  8
COMMENT
390
0
 62
     7
100
AcDbHatch
 10
0.0
 20
0.0
 30
0.0
210
0.0
220
0.0
230
1.0
  2
SOLID
 70
     1
 71
     0
 91
        1
 92
        1
 93
        1
 72
     4
 94
        3
 73
     0
 74
     0
 95
       17
 96
       13
 40
0.0
 40
0.0
 40
0.0
 40
0.0
 40
1.0
 40
1.0
 40
1.0
 40
2.0
 40
2.0
 40
2.0
 40
3.0
 40
3.0
 40
3.0
 40
4.0
 40
4.0
 40
4.0
 40
4.0
 10
6.8791666666666664
 20
-8.1566080729166668
 10
7.1957709418402773
 20
-8.1566080729166668
 10
7.452430555555555
 20
-8.39363064236111
 10
7.452430555555555
 20
-8.6857747395833318
 10
7.452430555555555
 20
-8.9779188368055554
 10
7.1957709418402773
 20
-9.2149414062499986
 10
6.8791666666666664
 20
-9.2149414062499986
 10
6.5625623914930546
 20
-9.2149414062499986
 10
6.305902777777777
 20
-8.9779188368055554
 10
6.305902777777777
 20
-8.6857747395833318
 10
6.305902777777777
 20
-8.39363064236111
 10
6.5625623914930546
 20
-8.1566080729166668
 10
6.8791666666666664
 20
-8.1566080729166668
 97
        0
 75
     2
 76
     1
 98
        1
 10
0.0
 20
0.0
  0
LINE
  5
74
100
AcDbEntity
  8
COMMENT
390
0
 62
     7
100
AcDbLine
 10
46.346181
 20
-89.177675
 30
0.0
 11
66.086922
 21
-89.177675
 31
0.0
  0
LINE
  5
73
100
AcDbEntity
  8
COMMENT
390
0
 62
     7
100
AcDbLine
 10
45.199653
 20
-88.824897
 30
0.0
 11
69.967478
 21
-88.824897
 31
0.0
  0
ELLIPSE
  5
72
100
AcDbEntity
  8
COMMENT
390
0
 62
     7
100
AcDbEllipse
 10
45.155556
 20
-88.824897
 30
0.0
 11
-0.5732638888888888
 21
0.0
 31
0.0
210
0.0
220
0.0
230
1.0
 40
0.923077
 41
0.0
 42
6.2831853071795862
  0
HATCH
  5
71
100
AcDbEntity
  8
COMMENT
390
0
 62
     7
100
AcDbHatch
 10
0.0
 20
0.0
 30
0.0
210
0.0
220
0.0
230
1.0
  2
SOLID
 70
     1
 71
     0
 91
        1
 92
        1
 93
        1
 72
     4
 94
        3
 73
     0
 74
     0
 95
       17
 96
       13
 40
0.0
 40
0.0
 40
0.0
 40
0.0
 40
1.0
 40
1.0
 40
1.0
 40
2.0
 40
2.0
 40
2.0
 40
3.0
 40
3.0
 40
3.0
 40
4.0
 40
4.0
 40
4.0
 40
4.0
 10
45.1555555555555515
 20
-89.35406358506944
 10
44.8389512803819414
 20
-89.35406358506944
 10
44.5822916666666629
 20
-89.1170410156249915
 10
44.5822916666666629
 20
-88.8248969184027715
 10
44.5822916666666629
 20
-88.5327528211805515
 10
44.8389512803819414
 20
-88.2957302517361029
 10
45.1555555555555515
 20
-88.2957302517361029
 10
45.4721598307291615
 20
-88.2957302517361029
 10
45.72881944444444
 20
-88.5327528211805515
 10
45.72881944444444
 20
-88.8248969184027715
 10
45.72881944444444
 20
-89.1170410156249915
 10
45.4721598307291615
 20
-89.35406358506944
 10
45.1555555555555515
 20
-89.35406358506944
 97
        0
 75
     2
 76
     1
 98
        1
 10
0.0
 20
0.0
  0
LINE
  5
70
100
AcDbEntity
  8
COMMENT
390
0
 62
     7
100
AcDbLine
 10
50.696992
 20
-72.126864
 30
0.0
 11
72.201967
 21
-72.126864
 31
0.0
  0
LINE
  5
6F
100
AcDbEntity
  8
COMMENT
390
0
 62
     7
100
AcDbLine
 10
49.550464
 20
-72.126864
 30
0.0
 11
70.0853
 21
-72.126864
 31
0.0
  0
ELLIPSE
  5
6E
100
AcDbEntity
  8
COMMENT
390
0
 62
     7
100
AcDbEllipse
 10
49.506367
 20
-72.126864
 30
0.0
 11
-0.5732638888888888
 21
0.0
 31
0.0
210
0.0
220
0.0
230
1.0
 40
0.923077
 41
0.0
 42
6.2831853071795862
  0
HATCH
  5
6D
100
AcDbEntity
  8
COMMENT
390
0
 62
     7
100
AcDbHatch
 10
0.0
 20
0.0
 30
0.0
210
0.0
220
0.0
230
1.0
  2
SOLID
 70
     1
 71
     0
 91
        1
 92
        1
 93
        1
 72
     4
 94
        3
 73
     0
 74
     0
 95
       17
 96
       13
 40
0.0
 40
0.0
 40
0.0
 40
0.0
 40
1.0
 40
1.0
 40
1.0
 40
2.0
 40
2.0
 40
2.0
 40
3.0
 40
3.0
 40
3.0
 40
4.0
 40
4.0
 40
4.0
 40
4.0
 10
49.5063666449652757
 20
-72.6560302734374943
 10
49.1897623697916657
 20
-72.6560302734374943
 10
48.9331027560763872
 20
-72.4190077039930458
 10
48.9331027560763872
 20
-72.1268636067708258
 10
48.9331027560763872
 20
-71.8347195095486057
 10
49.1897623697916657
 20
-71.5976969401041572
 10
49.5063666449652757
 20
-71.5976969401041572
 10
49.8229709201388857
 20
-71.5976969401041572
 10
50.0796305338541643
 20
-71.8347195095486057
 10
50.0796305338541643
 20
-72.1268636067708258
 10
50.0796305338541643
 20
-72.4190077039930458
 10
49.8229709201388857
 20
-72.6560302734374943
 10
49.5063666449652757
 20
-72.6560302734374943
 97
        0
 75
     2
 76
     1
 98
        1
 10
0.0
 20
0.0
  0
LINE
  5
6C
100
AcDbEntity
  8
COMMENT
390
0
 62
     7
100
AcDbLine
 10
49.609375
 20
-8.509386
 30
0.0
 11
70.202778
 21
-8.509386
 31
0.0
  0
ELLIPSE
  5
6B
100
AcDbEntity
  8
COMMENT
390
0
 62
     7
100
AcDbEllipse
 10
49.565278
 20
-8.509386
 30
0.0
 11
-0.5732638888888888
 21
0.0
 31
0.0
210
0.0
220
0.0
230
1.0
 40
0.923077
 41
0.0
 42
6.2831853071795862
  0
HATCH
  5
6A
100
AcDbEntity
  8
COMMENT
390
0
 62
     7
100
AcDbHatch
 10
0.0
 20
0.0
 30
0.0
210
0.0
220
0.0
230
1.0
  2
SOLID
 70
     1
 71
     0
 91
        1
 92
        1
 93
        1
 72
     4
 94
        3
 73
     0
 74
     0
 95
       17
 96
       13
 40
0.0
 40
0.0
 40
0.0
 40
0.0
 40
1.0
 40
1.0
 40
1.0
 40
2.0
 40
2.0
 40
2.0
 40
3.0
 40
3.0
 40
3.0
 40
4.0
 40
4.0
 40
4.0
 40
4.0
 10
49.5652777777777729
 20
-9.0385525173611097
 10
49.2486735026041629
 20
-9.0385525173611097
 10
48.9920138888888843
 20
-8.8015299479166664
 10
48.9920138888888843
 20
-8.5093858506944429
 10
48.9920138888888843
 20
-8.2172417534722211
 10
49.2486735026041629
 20
-7.980219184027777
 10
49.5652777777777729
 20
-7.980219184027777
 10
49.8818820529513829
 20
-7.980219184027777
 10
50.1385416666666615
 20
-8.2172417534722211
 10
50.1385416666666615
 20
-8.5093858506944429
 10
50.1385416666666615
 20
-8.8015299479166664
 10
49.8818820529513829
 20
-9.0385525173611097
 10
49.5652777777777729
 20
-9.0385525173611097
 97
        0
 75
     2
 76
     1
 98
        1
 10
0.0
 20
0.0
  0
LINE
  5
69
100
AcDbEntity
  8
COMMENT
390
0
 62
     7
100
AcDbLine
 10
40.642825
 20
-110.109386
 30
0.0
 11
64.808103
 21
-110.109386
 31
0.0
  0
LINE
  5
68
100
AcDbEntity
  8
COMMENT
390
0
 62
     7
100
AcDbLine
 10
39.496297
 20
-110.109386
 30
0.0
 11
69.967478
 21
-110.109386
 31
0.0
  0
ELLIPSE
  5
67
100
AcDbEntity
  8
COMMENT
390
0
 62
     7
100
AcDbEllipse
 10
39.4522
 20
-110.109386
 30
0.0
 11
-0.5732638888888888
 21
0.0
 31
0.0
210
0.0
220
0.0
230
1.0
 40
0.923077
 41
0.0
 42
6.2831853071795862
  0
HATCH
  5
66
100
AcDbEntity
  8
COMMENT
390
0
 62
     7
100
AcDbHatch
 10
0.0
 20
0.0
 30
0.0
210
0.0
220
0.0
230
1.0
  2
SOLID
 70
     1
 71
     0
 91
        1
 92
        1
 93
        1
 72
     4
 94
        3
 73
     0
 74
     0
 95
       17
 96
       13
 40
0.0
 40
0.0
 40
0.0
 40
0.0
 40
1.0
 40
1.0
 40
1.0
 40
2.0
 40
2.0
 40
2.0
 40
3.0
 40
3.0
 40
3.0
 40
4.0
 40
4.0
 40
4.0
 40
4.0
 10
39.4521999782986086
 20
-110.6385525173611057
 10
39.1355957031249986
 20
-110.6385525173611057
 10
38.87893608940972
 20
-110.4015299479166572
 10
38.87893608940972
 20
-110.1093858506944372
 10
38.87893608940972
 20
-109.8172417534722172
 10
39.1355957031249986
 20
-109.5802191840277686
 10
39.4521999782986086
 20
-109.5802191840277686
 10
39.7688042534722186
 20
-109.5802191840277686
 10
40.0254638671874972
 20
-109.8172417534722172
 10
40.0254638671874972
 20
-110.1093858506944372
 10
40.0254638671874972
 20
-110.4015299479166572
 10
39.7688042534722186
 20
-110.6385525173611057
 10
39.4521999782986086
 20
-110.6385525173611057
 97
        0
 75
     2
 76
     1
 98
        1
 10
0.0
 20
0.0
  0
POLYLINE
  5
61
100
AcDbEntity
  8
COMMENT
390
0
 62
     7
100
AcDb2dPolyline
 66
     1
 10
0.0
 20
0.0
 30
0.0
  0
VERTEX
  5
62
100
AcDbEntity
  8
COMMENT
390
0
 62
     7
100
AcDbVertex
100
AcDb2dVertex
 10
30.182826
 20
-90.558813
 30
0.0
  0
VERTEX
  5
63
100
AcDbEntity
  8
COMMENT
390
0
 62
     7
100
AcDbVertex
100
AcDb2dVertex
 10
30.182826
 20
-94.718766
 30
0.0
  0
VERTEX
  5
64
100
AcDbEntity
  8
COMMENT
390
0
 62
     7
100
AcDbVertex
100
AcDb2dVertex
 10
66.145833
 20
-94.718766
 30
0.0
  0
SEQEND
  5
65
100
AcDbEntity
  8
COMMENT
390
0
 62
     7
  0
POLYLINE
  5
5C
100
AcDbEntity
  8
COMMENT
390
0
 62
     7
100
AcDb2dPolyline
 66
     1
 10
0.0
 20
0.0
 30
0.0
  0
VERTEX
  5
5D
100
AcDbEntity
  8
COMMENT
390
0
 62
     7
100
AcDbVertex
100
AcDb2dVertex
 10
30.030208
 20
-90.20638
 30
0.0
  0
VERTEX
  5
5E
100
AcDbEntity
  8
COMMENT
390
0
 62
     7
100
AcDbVertex
100
AcDb2dVertex
 10
30.030208
 20
-94.718766
 30
0.0
  0
VERTEX
  5
5F
100
AcDbEntity
  8
COMMENT
390
0
 62
     7
100
AcDbVertex
100
AcDb2dVertex
 10
70.029834
 20
-94.718766
 30
0.0
  0
SEQEND
  5
60
100
AcDbEntity
  8
COMMENT
390
0
 62
     7
  0
POLYLINE
  5
57
100
AcDbEntity
  8
COMMENT
390
0
 62
     7
100
AcDb2dPolyline
 66
     1
 10
0.0
 20
0.0
 30
0.0
  0
VERTEX
  5
58
100
AcDbEntity
  8
COMMENT
390
0
 62
     7
100
AcDbVertex
100
AcDb2dVertex
 10
29.660894
 20
-115.312514
 30
0.0
  0
VERTEX
  5
59
100
AcDbEntity
  8
COMMENT
390
0
 62
     7
100
AcDbVertex
100
AcDb2dVertex
 10
29.660894
 20
-122.059389
 30
0.0
  0
VERTEX
  5
5A
100
AcDbEntity
  8
COMMENT
390
0
 62
     7
100
AcDbVertex
100
AcDb2dVertex
 10
67.380556
 20
-122.059389
 30
0.0
  0
SEQEND
  5
5B
100
AcDbEntity
  8
COMMENT
390
0
 62
     7
  0
POLYLINE
  5
52
100
AcDbEntity
  8
COMMENT
390
0
 62
     7
100
AcDb2dPolyline
 66
     1
 10
0.0
 20
0.0
 30
0.0
  0
VERTEX
  5
53
100
AcDbEntity
  8
COMMENT
390
0
 62
     7
100
AcDbVertex
100
AcDb2dVertex
 10
29.501042
 20
-115.312514
 30
0.0
  0
VERTEX
  5
54
100
AcDbEntity
  8
COMMENT
390
0
 62
     7
100
AcDbVertex
100
AcDb2dVertex
 10
29.501042
 20
-122.059389
 30
0.0
  0
VERTEX
  5
55
100
AcDbEntity
  8
COMMENT
390
0
 62
     7
100
AcDbVertex
100
AcDb2dVertex
 10
70.018121
 20
-122.059389
 30
0.0
  0
SEQEND
  5
56
100
AcDbEntity
  8
COMMENT
390
0
 62
     7
  0
ELLIPSE
  5
51
100
AcDbEntity
  8
COMMENT
390
0
 62
     7
100
AcDbEllipse
 10
29.456944
 20
-114.871886
 30
0.0
 11
-0.5732638888888888
 21
0.0
 31
0.0
210
0.0
220
0.0
230
1.0
 40
0.923077
 41
0.0
 42
6.2831853071795862
  0
HATCH
  5
50
100
AcDbEntity
  8
COMMENT
390
0
 62
     7
100
AcDbHatch
 10
0.0
 20
0.0
 30
0.0
210
0.0
220
0.0
230
1.0
  2
SOLID
 70
     1
 71
     0
 91
        1
 92
        1
 93
        1
 72
     4
 94
        3
 73
     0
 74
     0
 95
       17
 96
       13
 40
0.0
 40
0.0
 40
0.0
 40
0.0
 40
1.0
 40
1.0
 40
1.0
 40
2.0
 40
2.0
 40
2.0
 40
3.0
 40
3.0
 40
3.0
 40
4.0
 40
4.0
 40
4.0
 40
4.0
 10
29.4569444444444422
 20
-115.4010525173610944
 10
29.1403401692708321
 20
-115.4010525173610944
 10
28.8836805555555536
 20
-115.16402994791666
 10
28.8836805555555536
 20
-114.87188585069444
 10
28.8836805555555536
 20
-114.5797417534722058
 10
29.1403401692708321
 20
-114.3427191840277715
 10
29.4569444444444422
 20
-114.3427191840277715
 10
29.7735487196180522
 20
-114.3427191840277715
 10
30.0302083333333307
 20
-114.5797417534722058
 10
30.0302083333333307
 20
-114.87188585069444
 10
30.0302083333333307
 20
-115.16402994791666
 10
29.7735487196180522
 20
-115.4010525173610944
 10
29.4569444444444422
 20
-115.4010525173610944
 97
        0
 75
     2
 76
     1
 98
        1
 10
0.0
 20
0.0
  0
POLYLINE
  5
4B
100
AcDbEntity
  8
COMMENT
390
0
 62
     7
100
AcDb2dPolyline
 66
     1
 10
0.0
 20
0.0
 30
0.0
  0
VERTEX
  5
4C
100
AcDbEntity
  8
COMMENT
390
0
 62
     7
100
AcDbVertex
100
AcDb2dVertex
 10
22.367282
 20
-75.801402
 30
0.0
  0
VERTEX
  5
4D
100
AcDbEntity
  8
COMMENT
390
0
 62
     7
100
AcDbVertex
100
AcDb2dVertex
 10
22.367282
 20
-80.549089
 30
0.0
  0
VERTEX
  5
4E
100
AcDbEntity
  8
COMMENT
390
0
 62
     7
100
AcDbVertex
100
AcDb2dVertex
 10
-6.453008
 20
-80.549089
 30
0.0
  0
SEQEND
  5
4F
100
AcDbEntity
  8
COMMENT
390
0
 62
     7
  0
POLYLINE
  5
46
100
AcDbEntity
  8
COMMENT
390
0
 62
     7
100
AcDb2dPolyline
 66
     1
 10
0.0
 20
0.0
 30
0.0
  0
VERTEX
  5
47
100
AcDbEntity
  8
COMMENT
390
0
 62
     7
100
AcDbVertex
100
AcDb2dVertex
 10
22.489583
 20
-76.62478
 30
0.0
  0
VERTEX
  5
48
100
AcDbEntity
  8
COMMENT
390
0
 62
     7
100
AcDbVertex
100
AcDb2dVertex
 10
22.489583
 20
-80.549089
 30
0.0
  0
VERTEX
  5
49
100
AcDbEntity
  8
COMMENT
390
0
 62
     7
100
AcDbVertex
100
AcDb2dVertex
 10
-15.124658
 20
-80.549089
 30
0.0
  0
SEQEND
  5
4A
100
AcDbEntity
  8
COMMENT
390
0
 62
     7
  0
ELLIPSE
  5
45
100
AcDbEntity
  8
COMMENT
390
0
 62
     7
100
AcDbEllipse
 10
22.533681
 20
-76.06633
 30
0.0
 11
0.5732638888888888
 21
0.0
 31
0.0
210
0.0
220
0.0
230
1.0
 40
0.923077
 41
0.0
 42
6.2831853071795862
  0
HATCH
  5
44
100
AcDbEntity
  8
COMMENT
390
0
 62
     7
100
AcDbHatch
 10
0.0
 20
0.0
 30
0.0
210
0.0
220
0.0
230
1.0
  2
SOLID
 70
     1
 71
     0
 91
        1
 92
        1
 93
        1
 72
     4
 94
        3
 73
     0
 74
     0
 95
       17
 96
       13
 40
0.0
 40
0.0
 40
0.0
 40
0.0
 40
1.0
 40
1.0
 40
1.0
 40
2.0
 40
2.0
 40
2.0
 40
3.0
 40
3.0
 40
3.0
 40
4.0
 40
4.0
 40
4.0
 40
4.0
 10
22.5336805555555522
 20
-76.5954969618055515
 10
22.8502848307291657
 20
-76.5954969618055515
 10
23.1069444444444407
 20
-76.3584743923611029
 10
23.1069444444444407
 20
-76.0663302951388829
 10
23.1069444444444407
 20
-75.7741861979166629
 10
22.8502848307291657
 20
-75.5371636284722143
 10
22.5336805555555522
 20
-75.5371636284722143
 10
22.2170762803819422
 20
-75.5371636284722143
 10
21.9604166666666636
 20
-75.7741861979166629
 10
21.9604166666666636
 20
-76.0663302951388829
 10
21.9604166666666636
 20
-76.3584743923611029
 10
22.2170762803819422
 20
-76.5954969618055515
 10
22.5336805555555522
 20
-76.5954969618055515
 97
        0
 75
     2
 76
     1
 98
        1
 10
0.0
 20
0.0
  0
POLYLINE
  5
3F
100
AcDbEntity
  8
COMMENT
390
0
 62
     7
100
AcDb2dPolyline
 66
     1
 10
0.0
 20
0.0
 30
0.0
  0
VERTEX
  5
40
100
AcDbEntity
  8
COMMENT
390
0
 62
     7
100
AcDbVertex
100
AcDb2dVertex
 10
22.376412
 20
-90.206036
 30
0.0
  0
VERTEX
  5
41
100
AcDbEntity
  8
COMMENT
390
0
 62
     7
100
AcDbVertex
100
AcDb2dVertex
 10
22.376412
 20
-94.718766
 30
0.0
  0
VERTEX
  5
42
100
AcDbEntity
  8
COMMENT
390
0
 62
     7
100
AcDbVertex
100
AcDb2dVertex
 10
-13.287906
 20
-94.718766
 30
0.0
  0
SEQEND
  5
43
100
AcDbEntity
  8
COMMENT
390
0
 62
     7
  0
POLYLINE
  5
3A
100
AcDbEntity
  8
COMMENT
390
0
 62
     7
100
AcDb2dPolyline
 66
     1
 10
0.0
 20
0.0
 30
0.0
  0
VERTEX
  5
3B
100
AcDbEntity
  8
COMMENT
390
0
 62
     7
100
AcDbVertex
100
AcDb2dVertex
 10
22.313539
 20
-90.206036
 30
0.0
  0
VERTEX
  5
3C
100
AcDbEntity
  8
COMMENT
390
0
 62
     7
100
AcDbVertex
100
AcDb2dVertex
 10
22.313539
 20
-94.718766
 30
0.0
  0
VERTEX
  5
3D
100
AcDbEntity
  8
COMMENT
390
0
 62
     7
100
AcDbVertex
100
AcDb2dVertex
 10
-15.331019
 20
-94.718766
 30
0.0
  0
SEQEND
  5
3E
100
AcDbEntity
  8
COMMENT
390
0
 62
     7
  0
ELLIPSE
  5
39
100
AcDbEntity
  8
COMMENT
390
0
 62
     7
100
AcDbEllipse
 10
22.357292
 20
-90.118186
 30
0.0
 11
0.5732638888888888
 21
0.0
 31
0.0
210
0.0
220
0.0
230
1.0
 40
0.923077
 41
0.0
 42
6.2831853071795862
  0
HATCH
  5
38
100
AcDbEntity
  8
COMMENT
390
0
 62
     7
100
AcDbHatch
 10
0.0
 20
0.0
 30
0.0
210
0.0
220
0.0
230
1.0
  2
SOLID
 70
     1
 71
     0
 91
        1
 92
        1
 93
        1
 72
     4
 94
        3
 73
     0
 74
     0
 95
       17
 96
       13
 40
0.0
 40
0.0
 40
0.0
 40
0.0
 40
1.0
 40
1.0
 40
1.0
 40
2.0
 40
2.0
 40
2.0
 40
3.0
 40
3.0
 40
3.0
 40
4.0
 40
4.0
 40
4.0
 40
4.0
 10
22.357291666666665
 20
-90.6473524305555429
 10
22.673895941840275
 20
-90.6473524305555429
 10
22.9305555555555536
 20
-90.4103298611111086
 10
22.9305555555555536
 20
-90.1181857638888744
 10
22.9305555555555536
 20
-89.8260416666666544
 10
22.673895941840275
 20
-89.58901909722222
 10
22.357291666666665
 20
-89.58901909722222
 10
22.040687391493055
 20
-89.58901909722222
 10
21.7840277777777764
 20
-89.8260416666666544
 10
21.7840277777777764
 20
-90.1181857638888744
 10
21.7840277777777764
 20
-90.4103298611111086
 10
22.040687391493055
 20
-90.6473524305555429
 10
22.357291666666665
 20
-90.6473524305555429
 97
        0
 75
     2
 76
     1
 98
        1
 10
0.0
 20
0.0
  0
HATCH
  5
37
100
AcDbEntity
  8
COMMENT
390
0
 62
     7
100
AcDbHatch
 10
0.0
 20
0.0
 30
0.0
210
0.0
220
0.0
230
1.0
  2
SOLID
 70
     1
 71
     0
 91
        5
 92
       16
 93
        1
 72
     4
 94
        3
 73
     0
 74
     0
 95
       17
 96
       13
 40
0.0
 40
0.0
 40
0.0
 40
0.0
 40
1.0
 40
1.0
 40
1.0
 40
2.0
 40
2.0
 40
2.0
 40
3.0
 40
3.0
 40
3.0
 40
4.0
 40
4.0
 40
4.0
 40
4.0
 10
73.142822265625
 20
-79.3326253255208229
 10
72.7810872395833286
 20
-79.3326253255208229
 10
72.6922037760416657
 20
-79.5865288628472172
 10
72.6922037760416657
 20
-79.8724717881944315
 10
72.6922037760416657
 20
-80.1646158854166657
 10
72.7810872395833286
 20
-80.4247205946180515
 10
73.142822265625
 20
-80.4247205946180515
 10
73.5045572916666572
 20
-80.4247205946180515
 10
73.5999864366319372
 20
-80.1646158854166657
 10
73.5999864366319372
 20
-79.8724717881944315
 10
73.5999864366319372
 20
-79.5865288628472172
 10
73.5045572916666572
 20
-79.3326253255208229
 10
73.142822265625
 20
-79.3326253255208229
 97
        0
 92
       16
 93
        1
 72
     4
 94
        3
 73
     0
 74
     0
 95
       17
 96
       13
 40
0.0
 40
0.0
 40
0.0
 40
0.0
 40
1.0
 40
1.0
 40
1.0
 40
2.0
 40
2.0
 40
2.0
 40
3.0
 40
3.0
 40
3.0
 40
4.0
 40
4.0
 40
4.0
 40
4.0
 10
73.142822265625
 20
-80.8377875434027686
 10
72.7363009982638857
 20
-80.8377875434027686
 10
72.6350151909722115
 20
-81.1361328124999943
 10
72.6350151909722115
 20
-81.5171603732638772
 10
72.6350151909722115
 20
-81.8981879340277743
 10
72.7363009982638857
 20
-82.2027343749999915
 10
73.142822265625
 20
-82.2027343749999915
 10
73.5555447048611057
 20
-82.2027343749999915
 10
73.6571750217013772
 20
-81.8981879340277743
 10
73.6571750217013772
 20
-81.5171603732638772
 10
73.6571750217013772
 20
-81.1361328124999943
 10
73.5555447048611057
 20
-80.8377875434027686
 10
73.142822265625
 20
-80.8377875434027686
 97
        0
 92
        1
 93
        1
 72
     4
 94
        3
 73
     0
 74
     0
 95
       35
 96
       31
 40
0.0
 40
0.0
 40
0.0
 40
0.0
 40
1.0
 40
1.0
 40
1.0
 40
2.0
 40
2.0
 40
2.0
 40
3.0
 40
3.0
 40
3.0
 40
4.0
 40
4.0
 40
4.0
 40
5.0
 40
5.0
 40
5.0
 40
6.0
 40
6.0
 40
6.0
 40
7.0
 40
7.0
 40
7.0
 40
8.0
 40
8.0
 40
8.0
 40
9.0
 40
9.0
 40
9.0
 40
10.0
 40
10.0
 40
10.0
 40
10.0
 10
73.142822265625
 20
-82.6158013237847086
 10
72.4000596788194315
 20
-82.6158013237847086
 10
72.0507269965277715
 20
-82.2409749348958314
 10
72.0507269965277715
 20
-81.5299072265624858
 10
72.0507269965277715
 20
-80.9962619357638829
 10
72.3111762152777686
 20
-80.6979166666666572
 10
72.6667100694444343
 20
-80.6279812282986086
 10
72.6667100694444343
 20
-80.6279812282986086
 10
72.6667100694444343
 20
-80.6152343749999858
 10
72.6667100694444343
 20
-80.6152343749999858
 10
72.3552734374999886
 20
-80.5074028862847086
 10
72.1651041666666657
 20
-80.2662462022569372
 10
72.1651041666666657
 20
-79.8342312282986057
 10
72.1651041666666657
 20
-79.2692355685763772
 10
72.5395860460069315
 20
-78.9199028862847172
 10
73.142822265625
 20
-78.9199028862847172
 10
73.7460584852430543
 20
-78.9199028862847172
 10
74.1205403645833201
 20
-79.2692355685763772
 10
74.1205403645833201
 20
-79.8342312282986057
 10
74.1205403645833201
 20
-80.2662462022569372
 10
73.9303710937499972
 20
-80.5074028862847086
 10
73.6189344618055515
 20
-80.6152343749999858
 10
73.6189344618055515
 20
-80.6152343749999858
 10
73.6189344618055515
 20
-80.6279812282986086
 10
73.6189344618055515
 20
-80.6279812282986086
 10
73.9810139973958201
 20
-80.6979166666666572
 10
74.2414632161458314
 20
-80.9962619357638829
 10
74.2414632161458314
 20
-81.5299072265624858
 10
74.2414632161458314
 20
-82.2409749348958314
 10
73.8855848524305543
 20
-82.6158013237847086
 10
73.142822265625
 20
-82.6158013237847086
 97
        0
 92
       16
 93
        1
 72
     4
 94
        3
 73
     0
 74
     0
 95
       17
 96
       13
 40
0.0
 40
0.0
 40
0.0
 40
0.0
 40
1.0
 40
1.0
 40
1.0
 40
2.0
 40
2.0
 40
2.0
 40
3.0
 40
3.0
 40
3.0
 40
4.0
 40
4.0
 40
4.0
 40
4.0
 10
73.1238742404513857
 20
-78.0055745442708286
 10
71.6125108506944343
 20
-78.0055745442708286
 10
70.3867458767361001
 20
-79.2309950086805515
 10
70.3867458767361001
 20
-80.7423583984374886
 10
70.3867458767361001
 20
-82.25372178819444
 10
71.6125108506944343
 20
-83.4791422526041629
 10
73.1238742404513857
 20
-83.4791422526041629
 10
74.6352376302083229
 20
-83.4791422526041629
 10
75.8606580946180458
 20
-82.25372178819444
 10
75.8606580946180458
 20
-80.7423583984374886
 10
75.8606580946180458
 20
-79.2309950086805515
 10
74.6352376302083229
 20
-78.0055745442708286
 10
73.1238742404513857
 20
-78.0055745442708286
 97
        0
 92
        1
 93
        1
 72
     4
 94
        3
 73
     0
 74
     0
 95
       17
 96
       13
 40
0.0
 40
0.0
 40
0.0
 40
0.0
 40
1.0
 40
1.0
 40
1.0
 40
2.0
 40
2.0
 40
2.0
 40
3.0
 40
3.0
 40
3.0
 40
4.0
 40
4.0
 40
4.0
 40
4.0
 10
73.1238742404513857
 20
-83.6569091796874886
 10
71.5108805338541629
 20
-83.6569091796874886
 10
70.2027777777777686
 20
-82.3553521050347115
 10
70.2027777777777686
 20
-80.7423583984374886
 10
70.2027777777777686
 20
-79.1293646918402658
 10
71.5108805338541629
 20
-77.8212619357638857
 10
73.1238742404513857
 20
-77.8212619357638857
 10
74.7365234374999972
 20
-77.8212619357638857
 10
76.0384250217013857
 20
-79.1293646918402658
 10
76.0384250217013857
 20
-80.7423583984374886
 10
76.0384250217013857
 20
-82.3553521050347115
 10
74.7365234374999972
 20
-83.6569091796874886
 10
73.1238742404513857
 20
-83.6569091796874886
 97
        0
 75
     2
 76
     1
 98
        1
 10
0.0
 20
0.0
  0
ELLIPSE
  5
36
100
AcDbEntity
  8
COMMENT
390
0
 62
     7
100
AcDbEllipse
 10
30.1625
 20
-89.648275
 30
0.0
 11
-0.5732638888888888
 21
0.0
 31
0.0
210
0.0
220
0.0
230
1.0
 40
0.923077
 41
0.0
 42
6.2831853071795862
  0
HATCH
  5
35
100
AcDbEntity
  8
COMMENT
390
0
 62
     7
100
AcDbHatch
 10
0.0
 20
0.0
 30
0.0
210
0.0
220
0.0
230
1.0
  2
SOLID
 70
     1
 71
     0
 91
        1
 92
        1
 93
        1
 72
     4
 94
        3
 73
     0
 74
     0
 95
       17
 96
       13
 40
0.0
 40
0.0
 40
0.0
 40
0.0
 40
1.0
 40
1.0
 40
1.0
 40
2.0
 40
2.0
 40
2.0
 40
3.0
 40
3.0
 40
3.0
 40
4.0
 40
4.0
 40
4.0
 40
4.0
 10
30.1624999999999979
 20
-90.1774414062499972
 10
29.8458957248263879
 20
-90.1774414062499972
 10
29.5892361111111093
 20
-89.9404188368055486
 10
29.5892361111111093
 20
-89.6482747395833286
 10
29.5892361111111093
 20
-89.3561306423611086
 10
29.8458957248263879
 20
-89.11910807291666
 10
30.1624999999999979
 20
-89.11910807291666
 10
30.4791042751736079
 20
-89.11910807291666
 10
30.7357638888888864
 20
-89.3561306423611086
 10
30.7357638888888864
 20
-89.6482747395833286
 10
30.7357638888888864
 20
-89.9404188368055486
 10
30.4791042751736079
 20
-90.1774414062499972
 10
30.1624999999999979
 20
-90.1774414062499972
 97
        0
 75
     2
 76
     1
 98
        1
 10
0.0
 20
0.0
  0
POLYLINE
  5
30
100
AcDbEntity
  8
COMMENT
390
0
 62
     7
100
AcDb2dPolyline
 66
     1
 10
0.0
 20
0.0
 30
0.0
  0
VERTEX
  5
31
100
AcDbEntity
  8
COMMENT
390
0
 62
     7
100
AcDbVertex
100
AcDb2dVertex
 10
33.710948
 20
-76.683002
 30
0.0
  0
VERTEX
  5
32
100
AcDbEntity
  8
COMMENT
390
0
 62
     7
100
AcDbVertex
100
AcDb2dVertex
 10
33.710948
 20
-80.842955
 30
0.0
  0
VERTEX
  5
33
100
AcDbEntity
  8
COMMENT
390
0
 62
     7
100
AcDbVertex
100
AcDb2dVertex
 10
69.791433
 20
-80.842955
 30
0.0
  0
SEQEND
  5
34
100
AcDbEntity
  8
COMMENT
390
0
 62
     7
  0
POLYLINE
  5
2B
100
AcDbEntity
  8
COMMENT
390
0
 62
     7
100
AcDb2dPolyline
 66
     1
 10
0.0
 20
0.0
 30
0.0
  0
VERTEX
  5
2C
100
AcDbEntity
  8
COMMENT
390
0
 62
     7
100
AcDbVertex
100
AcDb2dVertex
 10
33.675808
 20
-76.330569
 30
0.0
  0
VERTEX
  5
2D
100
AcDbEntity
  8
COMMENT
390
0
 62
     7
100
AcDbVertex
100
AcDb2dVertex
 10
33.675808
 20
-80.842955
 30
0.0
  0
VERTEX
  5
2E
100
AcDbEntity
  8
COMMENT
390
0
 62
     7
100
AcDbVertex
100
AcDb2dVertex
 10
70.030178
 20
-80.842955
 30
0.0
  0
SEQEND
  5
2F
100
AcDbEntity
  8
COMMENT
390
0
 62
     7
  0
ELLIPSE
  5
2A
100
AcDbEntity
  8
COMMENT
390
0
 62
     7
100
AcDbEllipse
 10
33.690278
 20
-76.125241
 30
0.0
 11
-0.5732638888888888
 21
0.0
 31
0.0
210
0.0
220
0.0
230
1.0
 40
0.923077
 41
0.0
 42
6.2831853071795862
  0
HATCH
  5
29
100
AcDbEntity
  8
COMMENT
390
0
 62
     7
100
AcDbHatch
 10
0.0
 20
0.0
 30
0.0
210
0.0
220
0.0
230
1.0
  2
SOLID
 70
     1
 71
     0
 91
        1
 92
        1
 93
        1
 72
     4
 94
        3
 73
     0
 74
     0
 95
       17
 96
       13
 40
0.0
 40
0.0
 40
0.0
 40
0.0
 40
1.0
 40
1.0
 40
1.0
 40
2.0
 40
2.0
 40
2.0
 40
3.0
 40
3.0
 40
3.0
 40
4.0
 40
4.0
 40
4.0
 40
4.0
 10
33.6902777777777729
 20
-76.6544080946180486
 10
33.3736735026041629
 20
-76.6544080946180486
 10
33.1170138888888843
 20
-76.4173855251736001
 10
33.1170138888888843
 20
-76.12524142795138
 10
33.1170138888888843
 20
-75.83309733072916
 10
33.3736735026041629
 20
-75.5960747612847115
 10
33.6902777777777729
 20
-75.5960747612847115
 10
34.0068820529513829
 20
-75.5960747612847115
 10
34.2635416666666615
 20
-75.83309733072916
 10
34.2635416666666615
 20
-76.12524142795138
 10
34.2635416666666615
 20
-76.4173855251736001
 10
34.0068820529513829
 20
-76.6544080946180486
 10
33.6902777777777729
 20
-76.6544080946180486
 97
        0
 75
     2
 76
     1
 98
        1
 10
0.0
 20
0.0
  0
ENDSEC
  0
SECTION
  2
OBJECTS
  0
DICTIONARY
  5
19
100
AcDbDictionary
280
     0
281
     1
  3
ACAD_GROUP
350
1A
  3
ACAD_MLINESTYLE
350
1B
  3
ACAD_LAYOUT
350
1E
  3
ACAD_PLOTSETTINGS
350
22
  3
ACAD_PLOTSTYLENAME
350
1F
  3
ACAD_WIPEOUT_VARS
350
23
  0
DICTIONARY
  5
1A
102
{ACAD_REACTORS
330
19
102
}
100
AcDbDictionary
280
     0
281
     1
  0
DICTIONARY
  5
1B
102
{ACAD_REACTORS
330
19
102
}
100
AcDbDictionary
280
     0
281
     1
  3
Standard
350
1C
  0
MLINESTYLE
  5
1C
102
{ACAD_REACTORS
330
1B
102
}
100
AcDbMlineStyle
  2
Standard
 70
     0
  3

 62
     0
 51
90.0
 52
90.0
 71
     2
 49
0.5
 62
   256
  6
ByLayer
 49
-0.5
 62
   256
  6
ByLayer
  0
ACDBDICTIONARYWDFLT
  5
1F
102
{ACAD_REACTORS
330
19
102
}
100
AcDbDictionary
281
     1
  3
Normal
350
1D
100
AcDbDictionaryWithDefault
340
1D
  0
ACDBPLACEHOLDER
  5
1D
102
{ACAD_REACTORS
330
1F
102
}
  0
LAYOUT
  5
20
102
{ACAD_REACTORS
330
1E
102
}
100
AcDbPlotSettings
  1

  2

  4

  6

 40
0.0
 41
0.0
 42
0.0
 43
0.0
 44
0.0
 45
0.0
 46
0.0
 47
0.0
 48
0.0
 49
0.0
140
0.0
141
0.0
142
1.0
143
1.0
 70
  1024
 72
     0
 73
     0
 74
     0
  7

 75
     0
147
1.0
148
0.0
149
0.0
100
AcDbLayout
  1
Model
 70
     0
 71
     0
 10
0.0
 20
0.0
 11
0.0
 21
0.0
 12
0.0
 22
0.0
 32
0.0
 14
0.0
 24
0.0
 34
0.0
 15
0.0
 25
0.0
 35
0.0
146
0.0
 13
0.0
 23
0.0
 33
0.0
 16
0.0
 26
0.0
 36
0.0
 17
0.0
 27
0.0
 37
0.0
 76
     0
330
A
331
0
345
0
346
0
  0
LAYOUT
  5
21
102
{ACAD_REACTORS
330
1E
102
}
100
AcDbPlotSettings
  1

  2

  4

  6

 40
0.0
 41
0.0
 42
0.0
 43
0.0
 44
0.0
 45
0.0
 46
0.0
 47
0.0
 48
0.0
 49
0.0
140
0.0
141
0.0
142
1.0
143
1.0
 70
     0
 72
     0
 73
     0
 74
     0
  7

 75
     0
147
1.0
148
0.0
149
0.0
100
AcDbLayout
  1
Layout1
 70
     0
 71
     0
 10
0.0
 20
0.0
 11
0.0
 21
0.0
 12
0.0
 22
0.0
 32
0.0
 14
0.0
 24
0.0
 34
0.0
 15
0.0
 25
0.0
 35
0.0
146
0.0
 13
0.0
 23
0.0
 33
0.0
 16
0.0
 26
0.0
 36
0.0
 17
0.0
 27
0.0
 37
0.0
 76
     0
330
B
331
0
345
0
346
0
  0
DICTIONARY
  5
1E
102
{ACAD_REACTORS
330
19
102
}
100
AcDbDictionary
280
     0
281
     1
  3
Layout1
350
21
  3
Model
350
20
  0
DICTIONARY
  5
22
102
{ACAD_REACTORS
330
19
102
}
100
AcDbDictionary
280
     0
281
     1
  0
WIPEOUTVARIABLES
  5
23
100
AcDbWipeoutVariables
 70
     1
  0
ENDSEC
  0
EOF
