  0
SECTION
  2
HEADER
  9
$ACADVER
  1
AC1015
  9
$ACADMAINTVER
 70
     6
  9
$DWGCODEPAGE
  3
ANSI_932
  9
$INSBASE
 10
0.0
 20
0.0
 30
0.0
  9
$EXTMIN
 10
0.100252
 20
-14.312649
 30
1.000000E+20
  9
$EXTMAX
 10
77.30622
 20
18.230067
 30
-1.000000E+20
  9
$LIMMIN
 10
0.100252
 20
-14.312649
  9
$LIMMAX
 10
77.30622
 20
18.230067
  9
$ORTHOMODE
 70
     0
  9
$REGENMODE
 70
     1
  9
$FILLMODE
 70
     1
  9
$QTEXTMODE
 70
     0
  9
$MIRRTEXT
 70
     1
  9
$LTSCALE
 40
1.0
  9
$ATTMODE
 70
     1
  9
$TEXTSIZE
 40
0.2
  9
$TRACEWID
 40
0.05
  9
$TEXTSTYLE
  7
Standard
  9
$CLAYER
  8
0
  9
$CELTYPE
  6
Continuous
  9
$CECOLOR
 62
   256
  9
$CELTSCALE
 40
1.0
  9
$DISPSILH
 70
     0
  9
$DIMSCALE
 40
1.0
  9
$DIMASZ
 40
0.18
  9
$DIMEXO
 40
0.0625
  9
$DIMDLI
 40
0.38
  9
$DIMRND
 40
0.0
  9
$DIMDLE
 40
0.0
  9
$DIMEXE
 40
0.18
  9
$DIMTP
 40
0.0
  9
$DIMTM
 40
0.0
  9
$DIMTXT
 40
0.18
  9
$DIMCEN
 40
0.09
  9
$DIMTSZ
 40
0.0
  9
$DIMTOL
 70
     0
  9
$DIMLIM
 70
     0
  9
$DIMTIH
 70
     1
  9
$DIMTOH
 70
     1
  9
$DIMSE1
 70
     0
  9
$DIMSE2
 70
     0
  9
$DIMTAD
 70
     0
  9
$DIMZIN
 70
     0
  9
$DIMBLK
  1

  9
$DIMASO
 70
     1
  9
$DIMSHO
 70
     1
  9
$DIMPOST
  1

  9
$DIMAPOST
  1

  9
$DIMALT
 70
     0
  9
$DIMALTD
 70
     2
  9
$DIMALTF
 40
25.4
  9
$DIMLFAC
 40
1.0
  9
$DIMTOFL
 70
     0
  9
$DIMTVP
 40
0.0
  9
$DIMTIX
 70
     0
  9
$DIMSOXD
 70
     0
  9
$DIMSAH
 70
     0
  9
$DIMBLK1
  1

  9
$DIMBLK2
  1

  9
$DIMSTYLE
  2
Standard
  9
$DIMCLRD
 70
     0
  9
$DIMCLRE
 70
     0
  9
$DIMCLRT
 70
     0
  9
$DIMTFAC
 40
1.0
  9
$DIMGAP
 40
0.09
  9
$DIMJUST
 70
     0
  9
$DIMSD1
 70
     0
  9
$DIMSD2
 70
     0
  9
$DIMTOLJ
 70
     1
  9
$DIMTZIN
 70
     0
  9
$DIMALTZ
 70
     0
  9
$DIMALTTZ
 70
     0
  9
$DIMUPT
 70
     0
  9
$DIMDEC
 70
     4
  9
$DIMTDEC
 70
     4
  9
$DIMALTU
 70
     2
  9
$DIMALTTD
 70
     2
  9
$DIMTXSTY
  7
Standard
  9
$DIMAUNIT
 70
     0
  9
$DIMADEC
 70
     0
  9
$DIMALTRND
 40
0.0
  9
$DIMAZIN
 70
     0
  9
$DIMDSEP
 70
     0
  9
$DIMATFIT
 70
     3
  9
$DIMFRAC
 70
     0
  9
$DIMLDRBLK
  1

  9
$DIMLUNIT
 70
     2
  9
$DIMLWD
 70
     0
  9
$DIMLWE
 70
     0
  9
$DIMTMOVE
 70
     0
  9
$LUNITS
 70
     2
  9
$LUPREC
 70
     4
  9
$SKETCHINC
 40
0.1
  9
$FILLETRAD
 40
0.0
  9
$AUNITS
 70
     0
  9
$AUPREC
 70
     0
  9
$MENU
  1
acad
  9
$ELEVATION
 40
0.0
  9
$PELEVATION
 40
0.0
  9
$THICKNESS
 40
0.0
  9
$LIMCHECK
 70
     0
  9
$CHAMFERA
 40
0.0
  9
$CHAMFERB
 40
0.0
  9
$CHAMFERC
 40
0.0
  9
$CHAMFERD
 40
0.0
  9
$SKPOLY
 70
     0
  9
$TDCREATE
 40
0.000000000
  9
$TDUCREATE
 40
0.000000000
  9
$TDUPDATE
 40
0.000000000
  9
$TDUUPDATE
 40
0.000000000
  9
$TDINDWG
 40
0.0000000000
  9
$TDUSRTIMER
 40
0.0000000000
  9
$USRTIMER
 70
     1
  9
$ANGBASE
 50
0.0
  9
$ANGDIR
 70
     0
  9
$PDMODE
 70
     0
  9
$PDSIZE
 40
0.0
  9
$PLINEWID
 40
0.0
  9
$SPLFRAME
 70
     0
  9
$SPLINETYPE
 70
     6
  9
$SPLINESEGS
 70
     8
  9
$HANDSEED
  5
40B
  9
$SURFTAB1
 70
     6
  9
$SURFTAB2
 70
     6
  9
$SURFTYPE
 70
     6
  9
$SURFU
 70
     6
  9
$SURFV
 70
     6
  9
$UCSBASE
  2

  9
$UCSNAME
  2

  9
$UCSORG
 10
0.0
 20
0.0
 30
0.0
  9
$UCSXDIR
 10
1.0
 20
0.0
 30
0.0
  9
$UCSYDIR
 10
0.0
 20
1.0
 30
0.0
  9
$UCSORTHOREF
  2

  9
$UCSORTHOVIEW
 70
     0
  9
$UCSORGTOP
 10
0.0
 20
0.0
 30
0.0
  9
$UCSORGBOTTOM
 10
0.0
 20
0.0
 30
0.0
  9
$UCSORGLEFT
 10
0.0
 20
0.0
 30
0.0
  9
$UCSORGRIGHT
 10
0.0
 20
0.0
 30
0.0
  9
$UCSORGFRONT
 10
0.0
 20
0.0
 30
0.0
  9
$UCSORGBACK
 10
0.0
 20
0.0
 30
0.0
  9
$PUCSBASE
  2

  9
$PUCSNAME
  2

  9
$PUCSORG
 10
0.0
 20
0.0
 30
0.0
  9
$PUCSXDIR
 10
1.0
 20
0.0
 30
0.0
  9
$PUCSYDIR
 10
0.0
 20
1.0
 30
0.0
  9
$PUCSORTHOREF
  2

  9
$PUCSORTHOVIEW
 70
     0
  9
$PUCSORGTOP
 10
0.0
 20
0.0
 30
0.0
  9
$PUCSORGBOTTOM
 10
0.0
 20
0.0
 30
0.0
  9
$PUCSORGLEFT
 10
0.0
 20
0.0
 30
0.0
  9
$PUCSORGRIGHT
 10
0.0
 20
0.0
 30
0.0
  9
$PUCSORGFRONT
 10
0.0
 20
0.0
 30
0.0
  9
$PUCSORGBACK
 10
0.0
 20
0.0
 30
0.0
  9
$USERI1
 70
     0
  9
$USERI2
 70
     0
  9
$USERI3
 70
     0
  9
$USERI4
 70
     0
  9
$USERI5
 70
     0
  9
$USERR1
 40
0.0
  9
$USERR2
 40
0.0
  9
$USERR3
 40
0.0
  9
$USERR4
 40
0.0
  9
$USERR5
 40
0.0
  9
$WORLDVIEW
 70
     1
  9
$SHADEDGE
 70
     3
  9
$SHADEDIF
 70
    70
  9
$TILEMODE
 70
     1
  9
$MAXACTVP
 70
    16
  9
$PINSBASE
 10
0.0
 20
0.0
 30
0.0
  9
$PLIMCHECK
 70
     0
  9
$PEXTMIN
 10
1.000000E+20
 20
1.000000E+20
 30
1.000000E+20
  9
$PEXTMAX
 10
-1.000000E+20
 20
-1.000000E+20
 30
-1.000000E+20
  9
$PLIMMIN
 10
0.0
 20
0.0
  9
$PLIMMAX
 10
12.0
 20
9.0
  9
$UNITMODE
 70
     0
  9
$VISRETAIN
 70
     0
  9
$PLINEGEN
 70
     1
  9
$PSLTSCALE
 70
     0
  9
$TREEDEPTH
 70
  3020
  9
$CMLSTYLE
  2
Standard
  9
$CMLJUST
 70
     0
  9
$CMLSCALE
 40
1.0
  9
$PROXYGRAPHICS
 70
     0
  9
$MEASUREMENT
 70
     1
  9
$CELWEIGHT
370
     0
  9
$ENDCAPS
280
     0
  9
$JOINSTYLE
280
     0
  9
$LWDISPLAY
290
     0
  9
$INSUNITS
 70
     0
  9
$HYPERLINKBASE
  1

  9
$STYLESHEET
  1

  9
$XEDIT
290
     1
  9
$CEPSNTYPE
380
     0
  9
$PSTYLEMODE
290
     1
  9
$FINGERPRINTGUID
  2

  9
$VERSIONGUID
  2

  9
$EXTNAMES
290
     1
  9
$PSVPSCALE
 40
0.0
  0
ENDSEC
  0
SECTION
  2
CLASSES
  0
CLASS
  1
LWPOLYLINE
  2
AcDbPolyline
  3
AutoCAD 2000
 90
        0
280
     0
281
     1
  0
CLASS
  1
IMAGE
  2
AcDbRasterImage
  3
ISM
 90
      127
280
     0
281
     1
  0
CLASS
  1
OLE2FRAME
  2
AcDbOle2Frame
  3
AutoCAD 2000
 90
        0
280
     0
281
     1
  0
CLASS
  1
HATCH
  2
AcDbHatch
  3
AutoCAD 2000
 90
        0
280
     0
281
     1
  0
CLASS
  1
DICTIONARYVAR
  2
AcDbDictionaryVar
  3
AutoCAD 2000
 90
        0
280
     0
281
     0
  0
CLASS
  1
RASTERVARIABLES
  2
AcDbRasterVariables
  3
ISM
 90
        0
280
     0
281
     0
  0
CLASS
  1
IMAGEDEF
  2
AcDbRasterImageDef
  3
ISM
 90
        0
280
     0
281
     0
  0
CLASS
  1
IMAGEDEF_REACTOR
  2
AcDbRasterImageDefReactor
  3
ISM
 90
        1
280
     0
281
     0
  0
CLASS
  1
IDBUFFER
  2
AcDbIdBuffer
  3
AutoCAD 2000
 90
        0
280
     0
281
     0
  0
CLASS
  1
SPATIAL_FILTER
  2
AcDbSpatialFilter
  3
AutoCAD 2000
 90
        0
280
     0
281
     0
  0
CLASS
  1
XRECORD
  2
AcDbXrecord
  3
AutoCAD 2000
 90
        0
280
     0
281
     0
  0
CLASS
  1
SORTENTSTABLE
  2
AcDbSortentsTable
  3
AutoCAD 2000
 90
        0
280
     0
281
     0
  0
CLASS
  1
LAYER_INDEX
  2
AcDbLayerIndex
  3
AutoCAD 2000
 90
        0
280
     0
281
     0
  0
CLASS
  1
SPATIAL_INDEX
  2
AcDbSpatialIndex
  3
AutoCAD 2000
 90
        0
280
     0
281
     0
  0
CLASS
  1
OBJECT_PTR
  2
CAseDLPNTableRecord
  3
"ASE-LPNTableRecord"
 90
        1
280
     0
281
     0
  0
CLASS
  1
LAYOUT
  2
AcDbLayout
  3
AutoCAD 2000
 90
        0
280
     0
281
     0
  0
CLASS
  1
PLOTSETTINGS
  2
AcDbPlotSettings
  3
AutoCAD 2000
 90
        0
280
     0
281
     0
  0
CLASS
  1
ACDBDICTIONARYWDFLT
  2
AcDbDictionaryWithDefault
  3
AutoCAD 2000
 90
        0
280
     0
281
     0
  0
CLASS
  1
ACDBPLACEHOLDER
  2
AcDbPlaceHolder
  3
AutoCAD 2000
 90
        0
280
     0
281
     0
  0
CLASS
  1
VBA_PROJECT
  2
AcDbVbaProject
  3
acadvba
 90
        0
280
     0
281
     0
  0
CLASS
  1
WIPEOUT
  2
AcDbWipeout
  3
WipeOut|AutoCAD Express Tool|expresstools@autodesk.com
 90
      127
280
     0
281
     1
  0
CLASS
  1
WIPEOUTVARIABLES
  2
AcDbWipeoutVariables
  3
WipeOut|AutoCAD Express Tool|expresstools@autodesk.com
 90
        0
280
     0
281
     0
  0
CLASS
  1
RTEXT
  2
RText
  3
RText|AutoCAD Express Tool|expresstools@autodesk.com
 90
        0
280
     0
281
     1
  0
CLASS
  1
ARCALIGNEDTEXT
  2
AcDbArcAlignedText
  3
ATEXT|AutoCAD Express Tool|expresstools@autodesk.com
 90
        0
280
     0
281
     1
  0
ENDSEC
  0
SECTION
  2
TABLES
  0
TABLE
  2
VPORT
  5
7
100
AcDbSymbolTable
 70
     1
  0
VPORT
  5
15
100
AcDbSymbolTableRecord
100
AcDbViewportTableRecord
  2
*ACTIVE
 70
     0
 10
0.0
 20
0.0
 11
1.0
 21
1.0
 12
6.591288
 22
4.579184
 13
0.0
 23
0.0
 14
1.0
 24
1.0
 15
0.0
 25
0.0
 16
0.0
 26
0.0
 36
1.0
 17
0.0
 27
0.0
 37
0.0
 40
9.158369
 41
0.688564
 42
50.0
 43
0.0
 44
0.0
 50
0.0
 51
0.0
 71
     0
 72
   100
 73
     1
 74
     1
 75
     0
 76
     0
 77
     0
 78
     0
281
     0
 65
     0
110
0.0
120
0.0
130
0.0
111
1.0
121
0.0
131
0.0
112
0.0
122
1.0
132
0.0
345
0
346
0
 79
     0
146
0.0
  0
ENDTAB
  0
TABLE
  2
LTYPE
  5
4
100
AcDbSymbolTable
 70
     3
  0
LTYPE
  5
11
100
AcDbSymbolTableRecord
100
AcDbLinetypeTableRecord
  2
ByBlock
 70
    64
  3

 72
    65
 73
     0
 40
0.0
  0
LTYPE
  5
12
100
AcDbSymbolTableRecord
100
AcDbLinetypeTableRecord
  2
ByLayer
 70
    64
  3

 72
    65
 73
     0
 40
0.0
  0
LTYPE
  5
13
100
AcDbSymbolTableRecord
100
AcDbLinetypeTableRecord
  2
Continuous
 70
    64
  3
Solid line
 72
    65
 73
     0
 40
0.0
  0
ENDTAB
  0
TABLE
  2
LAYER
  5
2
100
AcDbSymbolTable
 70
     5
  0
LAYER
  5
14
100
AcDbSymbolTableRecord
100
AcDbLayerTableRecord
  2
0
 70
     0
 62
     7
  6
Continuous
290
     1
370
    -3
390
1D
  0
LAYER
  5
28
100
AcDbSymbolTableRecord
100
AcDbLayerTableRecord
  2
NO
 70
     4
 62
    -3
  6
Continuous
290
     1
370
    -3
390
1D
  0
LAYER
  5
37
100
AcDbSymbolTableRecord
100
AcDbLayerTableRecord
  2
DR-100_R-SIDE_SILK
 70
     4
 62
     1
  6
Continuous
290
     1
370
    -3
390
1D
  0
LAYER
  5
7E
100
AcDbSymbolTableRecord
100
AcDbLayerTableRecord
  2
DR100_BATTERY-KNOB
 70
     4
 62
     5
  6
Continuous
290
     1
370
    -3
390
1D
  0
LAYER
  5
9D
100
AcDbSymbolTableRecord
100
AcDbLayerTableRecord
  2
DR-100_R-SIDE_50P_
 70
     4
 62
   160
  6
Continuous
290
     1
370
    -3
390
1D
  0
ENDTAB
  0
TABLE
  2
STYLE
  5
3
100
AcDbSymbolTable
 70
     5
  0
STYLE
  5
17
100
AcDbSymbolTableRecord
100
AcDbTextStyleTableRecord
  2
Standard
 70
     0
 40
0.0
 41
1.0
 50
0.0
 71
     0
 42
0.0
  3
txt
  4

  0
STYLE
  5
24
100
AcDbSymbolTableRecord
100
AcDbTextStyleTableRecord
  2
STD
 70
     0
 40
0.0
 41
1.0
 50
0.0
 71
     0
 42
0.0
  3
txt
  4

  0
STYLE
  5
25
100
AcDbSymbolTableRecord
100
AcDbTextStyleTableRecord
  2
TATESTD
 70
     4
 40
0.0
 41
1.0
 50
0.0
 71
     0
 42
0.0
  3
txt
  4

  0
STYLE
  5
26
100
AcDbSymbolTableRecord
100
AcDbTextStyleTableRecord
  2
KANJISTD
 70
     0
 40
0.0
 41
1.0
 50
0.0
 71
     0
 42
0.0
  3
txt
  4
extfont
  0
STYLE
  5
27
100
AcDbSymbolTableRecord
100
AcDbTextStyleTableRecord
  2
KANJITATE
 70
     4
 40
0.0
 41
1.0
 50
0.0
 71
     0
 42
0.0
  3
txt
  4
extfont
  0
ENDTAB
  0
TABLE
  2
VIEW
  5
5
100
AcDbSymbolTable
 70
     0
  0
ENDTAB
  0
TABLE
  2
UCS
  5
6
100
AcDbSymbolTable
 70
     0
  0
ENDTAB
  0
TABLE
  2
APPID
  5
8
100
AcDbSymbolTable
 70
     1
  0
APPID
  5
16
100
AcDbSymbolTableRecord
100
AcDbRegAppTableRecord
  2
ACAD
 70
     0
  0
ENDTAB
  0
TABLE
  2
DIMSTYLE
  5
9
100
AcDbSymbolTable
 70
     1
100
AcDbDimStyleTable
 71
     0
  0
DIMSTYLE
105
18
100
AcDbSymbolTableRecord
100
AcDbDimStyleTableRecord
  2
Standard
 70
     0
  3

  4

 40
1.0
 41
0.18
 42
0.0625
 43
0.38
 44
0.18
 45
0.0
 46
0.0
 47
0.0
 48
0.0
 71
     0
 72
     0
 73
     1
 74
     1
 75
     0
 76
     0
 77
     0
 78
     0
 79
     0
140
0.18
141
0.09
142
0.0
143
25.4
144
1.0
145
0.0
146
1.0
147
0.09
148
0.0
170
     0
171
     2
172
     0
173
     0
174
     0
175
     0
176
     0
177
     0
178
     0
179
     0
271
     4
272
     4
273
     2
274
     2
275
     0
276
     0
277
     2
278
    46
279
     0
280
     0
281
     0
282
     0
283
     1
284
     0
285
     0
286
     0
288
     0
289
     3
340
17
341
0
342
0
343
0
344
0
371
    -2
372
    -2
  0
ENDTAB
  0
TABLE
  2
BLOCK_RECORD
  5
1
100
AcDbSymbolTable
 70
    12
  0
BLOCK_RECORD
  5
A
100
AcDbSymbolTableRecord
100
AcDbBlockTableRecord
  2
*MODEL_SPACE
340
20
  0
BLOCK_RECORD
  5
B
100
AcDbSymbolTableRecord
100
AcDbBlockTableRecord
  2
*PAPER_SPACE
340
21
  0
BLOCK_RECORD
  5
32
100
AcDbSymbolTableRecord
100
AcDbBlockTableRecord
  2
AI9-BLK1
340
0
102
{BLKREFS
331
33
102
}
  0
BLOCK_RECORD
  5
3A
100
AcDbSymbolTableRecord
100
AcDbBlockTableRecord
  2
AI9-BLK2
340
0
102
{BLKREFS
331
3B
102
}
  0
BLOCK_RECORD
  5
42
100
AcDbSymbolTableRecord
100
AcDbBlockTableRecord
  2
AI9-BLK3
340
0
102
{BLKREFS
331
43
102
}
  0
BLOCK_RECORD
  5
47
100
AcDbSymbolTableRecord
100
AcDbBlockTableRecord
  2
AI9-BLK4
340
0
102
{BLKREFS
331
48
102
}
  0
BLOCK_RECORD
  5
4C
100
AcDbSymbolTableRecord
100
AcDbBlockTableRecord
  2
AI9-BLK5
340
0
102
{BLKREFS
331
4D
102
}
  0
BLOCK_RECORD
  5
51
100
AcDbSymbolTableRecord
100
AcDbBlockTableRecord
  2
AI9-BLK6
340
0
102
{BLKREFS
331
52
102
}
  0
BLOCK_RECORD
  5
56
100
AcDbSymbolTableRecord
100
AcDbBlockTableRecord
  2
AI9-BLK7
340
0
102
{BLKREFS
331
57
102
}
  0
BLOCK_RECORD
  5
5B
100
AcDbSymbolTableRecord
100
AcDbBlockTableRecord
  2
AI9-BLK8
340
0
102
{BLKREFS
331
5C
102
}
  0
BLOCK_RECORD
  5
63
100
AcDbSymbolTableRecord
100
AcDbBlockTableRecord
  2
AI9-BLK9
340
0
102
{BLKREFS
331
64
102
}
  0
BLOCK_RECORD
  5
68
100
AcDbSymbolTableRecord
100
AcDbBlockTableRecord
  2
AI9-BLK10
340
0
102
{BLKREFS
331
69
102
}
  0
BLOCK_RECORD
  5
6D
100
AcDbSymbolTableRecord
100
AcDbBlockTableRecord
  2
AI9-BLK11
340
0
102
{BLKREFS
331
6E
102
}
  0
BLOCK_RECORD
  5
73
100
AcDbSymbolTableRecord
100
AcDbBlockTableRecord
  2
AI9-BLK12
340
0
102
{BLKREFS
331
74
102
}
  0
ENDTAB
  0
ENDSEC
  0
SECTION
  2
BLOCKS
  0
BLOCK
  5
D
100
AcDbEntity
  8
0
390
0
100
AcDbBlockBegin
  2
*MODEL_SPACE
 70
     0
 10
0.0
 20
0.0
 30
0.0
  3
*MODEL_SPACE
  1

  0
ENDBLK
  5
E
100
AcDbEntity
  8
0
390
0
100
AcDbBlockEnd
  0
BLOCK
  5
F
100
AcDbEntity
 67
     1
  8
0
390
0
100
AcDbBlockBegin
  2
*PAPER_SPACE
 70
     0
 10
0.0
 20
0.0
 30
0.0
  3
*PAPER_SPACE
  1

  0
ENDBLK
  5
10
100
AcDbEntity
 67
     1
  8
0
390
0
100
AcDbBlockEnd
  0
BLOCK
  5
34
100
AcDbEntity
  8
NO
390
0
 62
     7
100
AcDbBlockBegin
  2
AI9-BLK1
 70
     0
 10
0.0
 20
0.0
 30
0.0
  3
AI9-BLK1
  1

  0
HATCH
  5
35
100
AcDbEntity
  8
NO
390
0
 62
     7
100
AcDbHatch
 10
0.0
 20
0.0
 30
0.0
210
0.0
220
0.0
230
1.0
  2
SOLID
 70
     1
 71
     0
 91
        4
 92
        1
 93
        1
 72
     4
 94
        3
 73
     0
 74
     0
 95
       32
 96
       28
 40
0.0
 40
0.0
 40
0.0
 40
0.0
 40
1.0
 40
1.0
 40
1.0
 40
2.0
 40
2.0
 40
2.0
 40
3.0
 40
3.0
 40
3.0
 40
4.0
 40
4.0
 40
4.0
 40
5.0
 40
5.0
 40
5.0
 40
6.0
 40
6.0
 40
6.0
 40
7.0
 40
7.0
 40
7.0
 40
8.0
 40
8.0
 40
8.0
 40
9.0
 40
9.0
 40
9.0
 40
9.0
 10
0.8058078342013888
 20
-1.2526367187499998
 10
0.8058078342013888
 20
-1.2526367187499998
 10
0.8058078342013888
 20
0.5973795572916666
 10
0.8058078342013888
 20
0.5973795572916666
 10
0.8058078342013888
 20
0.5973795572916666
 10
0.3296956380208333
 20
0.5973795572916666
 10
0.3296956380208333
 20
0.5973795572916666
 10
0.3296956380208333
 20
0.5973795572916666
 10
0.3296956380208333
 20
0.8660970052083332
 10
0.3296956380208333
 20
0.8660970052083332
 10
0.3296956380208333
 20
0.8660970052083332
 10
0.365869140625
 20
0.8660970052083332
 10
0.365869140625
 20
0.8660970052083332
 10
0.5860107421874999
 20
0.8660970052083332
 10
0.8416368272569443
 20
0.9205295138888888
 10
0.9091606987847222
 20
1.2485026041666665
 10
0.9091606987847222
 20
1.2485026041666665
 10
0.9091606987847222
 20
1.2974229600694442
 10
0.9091606987847222
 20
1.2974229600694442
 10
0.9091606987847222
 20
1.2974229600694442
 10
1.178567165798611
 20
1.2974229600694442
 10
1.178567165798611
 20
1.2974229600694442
 10
1.178567165798611
 20
1.2974229600694442
 10
1.178567165798611
 20
-1.2526367187499998
 10
1.178567165798611
 20
-1.2526367187499998
 10
1.178567165798611
 20
-1.2526367187499998
 10
0.8058078342013888
 20
-1.2526367187499998
 10
0.8058078342013888
 20
-1.2526367187499998
 97
        0
 92
        1
 93
        1
 72
     4
 94
        3
 73
     0
 74
     0
 95
       35
 96
       31
 40
0.0
 40
0.0
 40
0.0
 40
0.0
 40
1.0
 40
1.0
 40
1.0
 40
2.0
 40
2.0
 40
2.0
 40
3.0
 40
3.0
 40
3.0
 40
4.0
 40
4.0
 40
4.0
 40
5.0
 40
5.0
 40
5.0
 40
6.0
 40
6.0
 40
6.0
 40
7.0
 40
7.0
 40
7.0
 40
8.0
 40
8.0
 40
8.0
 40
9.0
 40
9.0
 40
9.0
 40
10.0
 40
10.0
 40
10.0
 40
10.0
 10
-1.3039686414930554
 20
-1.2526367187499998
 10
-1.3039686414930554
 20
-0.1436604817708333
 10
-0.3434760199652778
 20
-0.1708767361111111
 10
-0.3434760199652778
 20
0.6242513020833332
 10
-0.3434760199652778
 20
0.8306125217013888
 10
-0.4240912543402777
 20
1.0101019965277778
 10
-0.6263183593749999
 20
1.0101019965277778
 10
-0.9050265842013888
 20
1.0101019965277778
 10
-0.9494683159722221
 20
0.7365614149305555
 10
-0.9494683159722221
 20
0.4761121961805555
 10
-0.9494683159722221
 20
0.4761121961805555
 10
-1.299834526909722
 20
0.4761121961805555
 10
-1.299834526909722
 20
0.4761121961805555
 10
-1.299834526909722
 20
0.9835747612847221
 10
-1.1110432942708333
 20
1.2974229600694442
 10
-0.6218397352430555
 20
1.2974229600694442
 10
-0.1505506727430555
 20
1.2974229600694442
 10
0.0244601779513889
 20
0.9880533854166665
 10
0.0244601779513889
 20
0.6152940538194444
 10
0.0244601779513889
 20
-0.2287543402777777
 10
-0.7203694661458333
 20
-0.2824978298611111
 10
-0.8957248263888888
 20
-0.9067491319444444
 10
-0.8957248263888888
 20
-0.9067491319444444
 10
0.0382405598958333
 20
-0.9067491319444444
 10
0.0382405598958333
 20
-0.9067491319444444
 10
0.0382405598958333
 20
-0.9067491319444444
 10
0.0382405598958333
 20
-1.2526367187499998
 10
0.0382405598958333
 20
-1.2526367187499998
 10
0.0382405598958333
 20
-1.2526367187499998
 10
-1.3039686414930554
 20
-1.2526367187499998
 10
-1.3039686414930554
 20
-1.2526367187499998
 97
        0
 92
       16
 93
        1
 72
     4
 94
        3
 73
     0
 74
     0
 95
       17
 96
       13
 40
0.0
 40
0.0
 40
0.0
 40
0.0
 40
1.0
 40
1.0
 40
1.0
 40
2.0
 40
2.0
 40
2.0
 40
3.0
 40
3.0
 40
3.0
 40
4.0
 40
4.0
 40
4.0
 40
4.0
 10
0.0024115668402778
 20
1.9306315104166665
 10
-1.0662570529513888
 20
1.9306315104166665
 10
-1.9282199435763887
 20
1.0645345052083333
 10
-1.9282199435763887
 20
0.0
 10
-1.9282199435763887
 20
-1.0638454861111111
 10
-1.0662570529513888
 20
-1.9258083767361109
 10
0.0024115668402778
 20
-1.9258083767361109
 10
1.0662570529513888
 20
-1.9258083767361109
 10
1.9282199435763887
 20
-1.0638454861111111
 10
1.9282199435763887
 20
0.0
 10
1.9282199435763887
 20
1.0645345052083333
 10
1.0662570529513888
 20
1.9306315104166665
 10
0.0024115668402778
 20
1.9306315104166665
 97
        0
 92
        1
 93
        1
 72
     4
 94
        3
 73
     0
 74
     0
 95
       17
 96
       13
 40
0.0
 40
0.0
 40
0.0
 40
0.0
 40
1.0
 40
1.0
 40
1.0
 40
2.0
 40
2.0
 40
2.0
 40
3.0
 40
3.0
 40
3.0
 40
4.0
 40
4.0
 40
4.0
 40
4.0
 10
0.0024115668402778
 20
-2.0560329861111111
 10
-1.1337809244791666
 20
-2.0560329861111111
 10
-2.0539659288194443
 20
-1.1355034722222221
 10
-2.0539659288194443
 20
0.0
 10
-2.0539659288194443
 20
1.1361924913194443
 10
-1.1337809244791666
 20
2.0560329861111111
 10
0.0024115668402778
 20
2.0560329861111111
 10
1.1334364149305554
 20
2.0560329861111111
 10
2.0539659288194443
 20
1.1361924913194443
 10
2.0539659288194443
 20
0.0
 10
2.0539659288194443
 20
-1.1355034722222221
 10
1.1334364149305554
 20
-2.0560329861111111
 10
0.0024115668402778
 20
-2.0560329861111111
 97
        0
 75
     2
 76
     1
 98
        1
 10
0.0
 20
0.0
  0
ENDBLK
  5
36
100
AcDbEntity
  8
NO
390
0
100
AcDbBlockEnd
  0
BLOCK
  5
3C
100
AcDbEntity
  8
DR-100_R-SIDE_SILK
390
0
 62
     7
100
AcDbBlockBegin
  2
AI9-BLK2
 70
     0
 10
0.0
 20
0.0
 30
0.0
  3
AI9-BLK2
  1

  0
HATCH
  5
3D
100
AcDbEntity
  8
DR-100_R-SIDE_SILK
390
0
 62
     7
100
AcDbHatch
 10
0.0
 20
0.0
 30
0.0
210
0.0
220
0.0
230
1.0
  2
SOLID
 70
     1
 71
     0
 91
        1
 92
        3
 72
     0
 73
     1
 93
        6
 10
-0.3135036892361111
 20
0.4501017252604166
 10
-0.3135036892361111
 20
-0.4501017252604166
 10
0.3135036892361111
 20
-0.4501017252604166
 10
0.3135036892361111
 20
-0.2981730143229167
 10
-0.1267795138888889
 20
-0.2981730143229167
 10
-0.1267795138888889
 20
0.4501017252604166
 97
        0
 75
     2
 76
     1
 98
        1
 10
0.0
 20
0.0
  0
ENDBLK
  5
3E
100
AcDbEntity
  8
DR-100_R-SIDE_SILK
390
0
100
AcDbBlockEnd
  0
BLOCK
  5
44
100
AcDbEntity
  8
DR-100_R-SIDE_SILK
390
0
 62
     7
100
AcDbBlockBegin
  2
AI9-BLK3
 70
     0
 10
0.0
 20
0.0
 30
0.0
  3
AI9-BLK3
  1

  0
HATCH
  5
45
100
AcDbEntity
  8
DR-100_R-SIDE_SILK
390
0
 62
     7
100
AcDbHatch
 10
0.0
 20
0.0
 30
0.0
210
0.0
220
0.0
230
1.0
  2
SOLID
 70
     1
 71
     0
 91
        1
 92
        1
 93
        1
 72
     4
 94
        3
 73
     0
 74
     0
 95
       29
 96
       25
 40
0.0
 40
0.0
 40
0.0
 40
0.0
 40
1.0
 40
1.0
 40
1.0
 40
2.0
 40
2.0
 40
2.0
 40
3.0
 40
3.0
 40
3.0
 40
4.0
 40
4.0
 40
4.0
 40
5.0
 40
5.0
 40
5.0
 40
6.0
 40
6.0
 40
6.0
 40
7.0
 40
7.0
 40
7.0
 40
8.0
 40
8.0
 40
8.0
 40
8.0
 10
0.2423624674479166
 20
-0.1283298068576389
 10
0.2637220594618055
 20
-0.1104153103298611
 10
0.2857706705729167
 20
-0.0938788519965278
 10
0.3088528103298611
 20
-0.0776869032118055
 10
0.3088528103298611
 20
-0.0776869032118055
 10
0.2568318684895833
 20
0.0118855794270833
 10
0.2568318684895833
 20
0.0118855794270833
 10
0.2568318684895833
 20
0.0118855794270833
 10
0.0907782660590278
 20
-0.0842325846354167
 10
0.0907782660590278
 20
-0.0842325846354167
 10
0.0907782660590278
 20
-0.0842325846354167
 10
-0.1731160481770833
 20
0.3725870768229166
 10
-0.1731160481770833
 20
0.3725870768229166
 10
-0.1731160481770833
 20
0.3725870768229166
 10
-0.3088528103298611
 20
0.2940388997395833
 10
-0.3088528103298611
 20
0.2940388997395833
 10
-0.3088528103298611
 20
0.2940388997395833
 10
0.0763088650173611
 20
-0.3725870768229166
 10
0.0763088650173611
 20
-0.3725870768229166
 10
0.0763088650173611
 20
-0.3725870768229166
 10
0.1896525065104167
 20
-0.3067857530381944
 10
0.1896525065104167
 20
-0.3067857530381944
 10
0.1682929144965278
 20
-0.2423624674479166
 10
0.1893079969618055
 20
-0.1713935004340278
 10
0.2423624674479166
 20
-0.1283298068576389
 97
        0
 75
     2
 76
     1
 98
        1
 10
0.0
 20
0.0
  0
ENDBLK
  5
46
100
AcDbEntity
  8
DR-100_R-SIDE_SILK
390
0
100
AcDbBlockEnd
  0
BLOCK
  5
49
100
AcDbEntity
  8
DR-100_R-SIDE_SILK
390
0
 62
     7
100
AcDbBlockBegin
  2
AI9-BLK4
 70
     0
 10
0.0
 20
0.0
 30
0.0
  3
AI9-BLK4
  1

  0
HATCH
  5
4A
100
AcDbEntity
  8
DR-100_R-SIDE_SILK
390
0
 62
     7
100
AcDbHatch
 10
0.0
 20
0.0
 30
0.0
210
0.0
220
0.0
230
1.0
  2
SOLID
 70
     1
 71
     0
 91
        1
 92
        1
 93
        1
 72
     4
 94
        3
 73
     0
 74
     0
 95
       29
 96
       25
 40
0.0
 40
0.0
 40
0.0
 40
0.0
 40
1.0
 40
1.0
 40
1.0
 40
2.0
 40
2.0
 40
2.0
 40
3.0
 40
3.0
 40
3.0
 40
4.0
 40
4.0
 40
4.0
 40
5.0
 40
5.0
 40
5.0
 40
6.0
 40
6.0
 40
6.0
 40
7.0
 40
7.0
 40
7.0
 40
8.0
 40
8.0
 40
8.0
 40
8.0
 10
0.2420179578993055
 20
-0.1285020616319444
 10
0.2637220594618055
 20
-0.1105875651041667
 10
0.2857706705729167
 20
-0.0937065972222222
 10
0.3088528103298611
 20
-0.0778591579861111
 10
0.3088528103298611
 20
-0.0778591579861111
 10
0.2568318684895833
 20
0.0120578342013889
 10
0.2568318684895833
 20
0.0120578342013889
 10
0.2568318684895833
 20
0.0120578342013889
 10
0.0907782660590278
 20
-0.0844048394097222
 10
0.0907782660590278
 20
-0.0844048394097222
 10
0.0907782660590278
 20
-0.0844048394097222
 10
-0.1731160481770833
 20
0.3724148220486111
 10
-0.1731160481770833
 20
0.3724148220486111
 10
-0.1731160481770833
 20
0.3724148220486111
 10
-0.3088528103298611
 20
0.2942111545138889
 10
-0.3088528103298611
 20
0.2942111545138889
 10
-0.3088528103298611
 20
0.2942111545138889
 10
0.07596435546875
 20
-0.3724148220486111
 10
0.07596435546875
 20
-0.3724148220486111
 10
0.07596435546875
 20
-0.3724148220486111
 10
0.1893079969618055
 20
-0.3069580078125
 10
0.1893079969618055
 20
-0.3069580078125
 10
0.1682929144965278
 20
-0.2421902126736111
 10
0.1893079969618055
 20
-0.1712212456597222
 10
0.2420179578993055
 20
-0.1285020616319444
 97
        0
 75
     2
 76
     1
 98
        1
 10
0.0
 20
0.0
  0
ENDBLK
  5
4B
100
AcDbEntity
  8
DR-100_R-SIDE_SILK
390
0
100
AcDbBlockEnd
  0
BLOCK
  5
4E
100
AcDbEntity
  8
DR-100_R-SIDE_SILK
390
0
 62
     7
100
AcDbBlockBegin
  2
AI9-BLK5
 70
     0
 10
0.0
 20
0.0
 30
0.0
  3
AI9-BLK5
  1

  0
HATCH
  5
4F
100
AcDbEntity
  8
DR-100_R-SIDE_SILK
390
0
 62
     7
100
AcDbHatch
 10
0.0
 20
0.0
 30
0.0
210
0.0
220
0.0
230
1.0
  2
SOLID
 70
     1
 71
     0
 91
        1
 92
        1
 93
        1
 72
     4
 94
        3
 73
     0
 74
     0
 95
       62
 96
       58
 40
0.0
 40
0.0
 40
0.0
 40
0.0
 40
1.0
 40
1.0
 40
1.0
 40
2.0
 40
2.0
 40
2.0
 40
3.0
 40
3.0
 40
3.0
 40
4.0
 40
4.0
 40
4.0
 40
5.0
 40
5.0
 40
5.0
 40
6.0
 40
6.0
 40
6.0
 40
7.0
 40
7.0
 40
7.0
 40
8.0
 40
8.0
 40
8.0
 40
9.0
 40
9.0
 40
9.0
 40
10.0
 40
10.0
 40
10.0
 40
11.0
 40
11.0
 40
11.0
 40
12.0
 40
12.0
 40
12.0
 40
13.0
 40
13.0
 40
13.0
 40
14.0
 40
14.0
 40
14.0
 40
15.0
 40
15.0
 40
15.0
 40
16.0
 40
16.0
 40
16.0
 40
17.0
 40
17.0
 40
17.0
 40
18.0
 40
18.0
 40
18.0
 40
19.0
 40
19.0
 40
19.0
 40
19.0
 10
0.3679361979166667
 20
0.0551215277777778
 10
0.3410644531249999
 20
0.0844048394097222
 10
0.3093695746527778
 20
0.1088650173611111
 10
0.2742296006944444
 20
0.1274685329861111
 10
0.2742296006944444
 20
0.1274685329861111
 10
0.2039496527777778
 20
0.0058566623263889
 10
0.2039496527777778
 20
0.0058566623263889
 10
0.2246202256944444
 20
-0.0058566623263889
 10
0.2439127604166667
 20
-0.0203260633680556
 10
0.2611382378472222
 20
-0.0365180121527778
 10
0.2835313585069444
 20
-0.0561550564236111
 10
0.2952446831597222
 20
-0.0850938585069444
 10
0.2928331163194444
 20
-0.1147216796875
 10
0.2893880208333333
 20
-0.1464165581597222
 10
0.2749186197916667
 20
-0.1763888888888889
 10
0.2521809895833333
 20
-0.1987820095486111
 10
0.2201416015625
 20
-0.2297878689236111
 10
0.1725992838541666
 20
-0.2387451171875
 10
0.1312581380208333
 20
-0.2211751302083333
 10
0.0854383680555555
 20
-0.2001600477430555
 10
0.0530544704861111
 20
-0.1581298828125
 10
0.0444417317708333
 20
-0.1088650173611111
 10
0.0347954644097222
 20
-0.0540879991319444
 10
0.0268717447916667
 20
0.0006890190972222
 10
0.0203260633680556
 20
0.055810546875
 10
0.0168809678819444
 20
0.0850938585069444
 10
0.0127468532986111
 20
0.1143771701388889
 10
0.0079237196180556
 20
0.1440049913194444
 10
-0.0079237196180556
 20
0.2425347222222222
 10
-0.0654568142361111
 20
0.3300401475694444
 10
-0.1498616536458333
 20
0.3837836371527777
 10
-0.1498616536458333
 20
0.3837836371527777
 10
-0.4271918402777777
 20
-0.0968071831597222
 10
-0.4271918402777777
 20
-0.0968071831597222
 10
-0.4271918402777777
 20
-0.0968071831597222
 10
-0.3186713324652777
 20
-0.1595079210069444
 10
-0.3186713324652777
 20
-0.1595079210069444
 10
-0.3186713324652777
 20
-0.1595079210069444
 10
-0.1374593098958333
 20
0.1539957682291667
 10
-0.1374593098958333
 20
0.1539957682291667
 10
-0.1250569661458333
 20
0.1316026475694444
 10
-0.1171332465277778
 20
0.1071424696180555
 10
-0.1147216796875
 20
0.0813042534722222
 10
-0.1147216796875
 20
0.0813042534722222
 10
-0.0961181640625
 20
-0.1422824435763889
 10
-0.0961181640625
 20
-0.1422824435763889
 10
-0.0854383680555555
 20
-0.2656168619791666
 10
0.0096462673611111
 20
-0.3655246310763888
 10
0.1326361762152778
 20
-0.3817165798611111
 10
0.1874131944444444
 20
-0.3889512803819444
 10
0.2432237413194444
 20
-0.3762044270833333
 10
0.2893880208333333
 20
-0.3451985677083333
 10
0.3620795355902777
 20
-0.2962782118055555
 10
0.4109998914930555
 20
-0.2194525824652778
 10
0.4244357638888889
 20
-0.1329806857638889
 10
0.4347710503472222
 20
-0.0651123046875
 10
0.4141004774305555
 20
0.0041341145833333
 10
0.3679361979166667
 20
0.0551215277777778
 97
        0
 75
     2
 76
     1
 98
        1
 10
0.0
 20
0.0
  0
ENDBLK
  5
50
100
AcDbEntity
  8
DR-100_R-SIDE_SILK
390
0
100
AcDbBlockEnd
  0
BLOCK
  5
53
100
AcDbEntity
  8
DR-100_R-SIDE_SILK
390
0
 62
     7
100
AcDbBlockBegin
  2
AI9-BLK6
 70
     0
 10
0.0
 20
0.0
 30
0.0
  3
AI9-BLK6
  1

  0
HATCH
  5
54
100
AcDbEntity
  8
DR-100_R-SIDE_SILK
390
0
 62
     7
100
AcDbHatch
 10
0.0
 20
0.0
 30
0.0
210
0.0
220
0.0
230
1.0
  2
SOLID
 70
     1
 71
     0
 91
        1
 92
        1
 93
        1
 72
     4
 94
        3
 73
     0
 74
     0
 95
       62
 96
       58
 40
0.0
 40
0.0
 40
0.0
 40
0.0
 40
1.0
 40
1.0
 40
1.0
 40
2.0
 40
2.0
 40
2.0
 40
3.0
 40
3.0
 40
3.0
 40
4.0
 40
4.0
 40
4.0
 40
5.0
 40
5.0
 40
5.0
 40
6.0
 40
6.0
 40
6.0
 40
7.0
 40
7.0
 40
7.0
 40
8.0
 40
8.0
 40
8.0
 40
9.0
 40
9.0
 40
9.0
 40
10.0
 40
10.0
 40
10.0
 40
11.0
 40
11.0
 40
11.0
 40
12.0
 40
12.0
 40
12.0
 40
13.0
 40
13.0
 40
13.0
 40
14.0
 40
14.0
 40
14.0
 40
15.0
 40
15.0
 40
15.0
 40
16.0
 40
16.0
 40
16.0
 40
17.0
 40
17.0
 40
17.0
 40
18.0
 40
18.0
 40
18.0
 40
19.0
 40
19.0
 40
19.0
 40
19.0
 10
0.3679361979166667
 20
0.0552937825520833
 10
0.3410644531249999
 20
0.0845770941840278
 10
0.3093695746527778
 20
0.1090372721354167
 10
0.2742296006944444
 20
0.1276407877604167
 10
0.2742296006944444
 20
0.1276407877604167
 10
0.2039496527777778
 20
0.0060289171006944
 10
0.2039496527777778
 20
0.0060289171006944
 10
0.2246202256944444
 20
-0.0060289171006944
 10
0.2439127604166667
 20
-0.02015380859375
 10
0.2611382378472222
 20
-0.0363457573784722
 10
0.2835313585069444
 20
-0.0559828016493056
 10
0.2952446831597222
 20
-0.0849216037326389
 10
0.2928331163194444
 20
-0.1145494249131944
 10
0.2893880208333333
 20
-0.1462443033854167
 10
0.2752631293402777
 20
-0.1762166341145833
 10
0.2521809895833333
 20
-0.1986097547743055
 10
0.2201416015625
 20
-0.2299601236979167
 10
0.1725992838541666
 20
-0.2389173719618055
 10
0.1316026475694444
 20
-0.2213473849826389
 10
0.0854383680555555
 20
-0.19998779296875
 10
0.0530544704861111
 20
-0.1583021375868055
 10
0.0447862413194444
 20
-0.1086927625868055
 10
0.0351399739583333
 20
-0.0539157443576389
 10
0.0268717447916667
 20
0.0005167643229167
 10
0.0206705729166667
 20
0.0556382921006944
 10
0.0168809678819444
 20
0.08526611328125
 10
0.0130913628472222
 20
0.1148939344618055
 10
0.0079237196180556
 20
0.14417724609375
 10
-0.0079237196180556
 20
0.2427069769965278
 10
-0.0654568142361111
 20
0.33021240234375
 10
-0.1498616536458333
 20
0.3836113823784722
 10
-0.1498616536458333
 20
0.3836113823784722
 10
-0.4271918402777777
 20
-0.0966349283854167
 10
-0.4271918402777777
 20
-0.0966349283854167
 10
-0.4271918402777777
 20
-0.0966349283854167
 10
-0.3183268229166666
 20
-0.1593356662326389
 10
-0.3183268229166666
 20
-0.1593356662326389
 10
-0.3183268229166666
 20
-0.1593356662326389
 10
-0.1371148003472222
 20
0.1541680230034722
 10
-0.1371148003472222
 20
0.1541680230034722
 10
-0.1247124565972222
 20
0.13177490234375
 10
-0.1171332465277778
 20
0.10697021484375
 10
-0.1147216796875
 20
0.0814765082465278
 10
-0.1147216796875
 20
0.0814765082465278
 10
-0.0957736545138889
 20
-0.1421101888020833
 10
-0.0957736545138889
 20
-0.1421101888020833
 10
-0.0854383680555555
 20
-0.2657891167534722
 10
0.0096462673611111
 20
-0.3653523763020833
 10
0.1326361762152778
 20
-0.3815443250868055
 10
0.1874131944444444
 20
-0.38912353515625
 10
0.2432237413194444
 20
-0.3760321723090277
 10
0.2893880208333333
 20
-0.3453708224826388
 10
0.3620795355902777
 20
-0.29610595703125
 10
0.4109998914930555
 20
-0.2192803276909722
 10
0.4247802734375
 20
-0.1328084309895833
 10
0.4347710503472222
 20
-0.0649400499131944
 10
0.4141004774305555
 20
0.0043063693576389
 10
0.3679361979166667
 20
0.0552937825520833
 97
        0
 75
     2
 76
     1
 98
        1
 10
0.0
 20
0.0
  0
ENDBLK
  5
55
100
AcDbEntity
  8
DR-100_R-SIDE_SILK
390
0
100
AcDbBlockEnd
  0
BLOCK
  5
58
100
AcDbEntity
  8
DR-100_R-SIDE_SILK
390
0
 62
     7
100
AcDbBlockBegin
  2
AI9-BLK7
 70
     0
 10
0.0
 20
0.0
 30
0.0
  3
AI9-BLK7
  1

  0
HATCH
  5
59
100
AcDbEntity
  8
DR-100_R-SIDE_SILK
390
0
 62
     7
100
AcDbHatch
 10
0.0
 20
0.0
 30
0.0
210
0.0
220
0.0
230
1.0
  2
SOLID
 70
     1
 71
     0
 91
        1
 92
        1
 93
        1
 72
     4
 94
        3
 73
     0
 74
     0
 95
       80
 96
       76
 40
0.0
 40
0.0
 40
0.0
 40
0.0
 40
1.0
 40
1.0
 40
1.0
 40
2.0
 40
2.0
 40
2.0
 40
3.0
 40
3.0
 40
3.0
 40
4.0
 40
4.0
 40
4.0
 40
5.0
 40
5.0
 40
5.0
 40
6.0
 40
6.0
 40
6.0
 40
7.0
 40
7.0
 40
7.0
 40
8.0
 40
8.0
 40
8.0
 40
9.0
 40
9.0
 40
9.0
 40
10.0
 40
10.0
 40
10.0
 40
11.0
 40
11.0
 40
11.0
 40
12.0
 40
12.0
 40
12.0
 40
13.0
 40
13.0
 40
13.0
 40
14.0
 40
14.0
 40
14.0
 40
15.0
 40
15.0
 40
15.0
 40
16.0
 40
16.0
 40
16.0
 40
17.0
 40
17.0
 40
17.0
 40
18.0
 40
18.0
 40
18.0
 40
19.0
 40
19.0
 40
19.0
 40
20.0
 40
20.0
 40
20.0
 40
21.0
 40
21.0
 40
21.0
 40
22.0
 40
22.0
 40
22.0
 40
23.0
 40
23.0
 40
23.0
 40
24.0
 40
24.0
 40
24.0
 40
25.0
 40
25.0
 40
25.0
 40
25.0
 10
0.3801662868923611
 20
0.1102430555555556
 10
0.3474378797743055
 20
0.2087727864583333
 10
0.2516642252604167
 20
0.2725070529513889
 10
0.1483113606770833
 20
0.2645833333333333
 10
0.1483113606770833
 20
0.2645833333333333
 10
0.1479668511284722
 20
0.1309136284722222
 10
0.1479668511284722
 20
0.1309136284722222
 10
0.1713935004340278
 20
0.1291910807291667
 10
0.19378662109375
 20
0.1229899088541666
 10
0.2144571940104167
 20
0.1123101128472222
 10
0.24959716796875
 20
0.093017578125
 10
0.2733683268229166
 20
0.0578776041666667
 10
0.2785359700520833
 20
0.0175699869791667
 10
0.2830145941840277
 20
-0.0220486111111111
 10
0.2685451931423611
 20
-0.06201171875
 10
0.2389173719618055
 20
-0.0892279730902778
 10
0.2206583658854167
 20
-0.105419921875
 10
0.19688720703125
 20
-0.1133436414930555
 10
0.1724270290798611
 20
-0.11162109375
 10
0.1334974500868056
 20
-0.1057644314236111
 10
0.1000800238715278
 20
-0.0792371961805556
 10
0.0856106228298611
 20
-0.0423746744791667
 10
0.0766533745659722
 20
-0.0099907769097222
 10
0.0732082790798611
 20
0.0234266493055556
 10
0.0752753363715278
 20
0.0568440755208333
 10
0.0752753363715278
 20
0.0568440755208333
 10
-0.0298000759548611
 20
0.0568440755208333
 10
-0.0298000759548611
 20
0.0568440755208333
 10
-0.0298000759548611
 20
0.0568440755208333
 10
-0.0342787000868056
 20
-0.0158474392361111
 10
-0.0342787000868056
 20
-0.0158474392361111
 10
-0.0360012478298611
 20
-0.0678683810763889
 10
-0.0711412217881944
 20
-0.1123101128472222
 10
-0.1210951063368055
 20
-0.1260904947916666
 10
-0.1710489908854166
 20
-0.1402153862847222
 10
-0.2244479709201389
 20
-0.1198893229166667
 10
-0.2523532443576388
 20
-0.0761366102430556
 10
-0.2778469509548611
 20
-0.0385850694444444
 10
-0.28370361328125
 20
0.0093017578125
 10
-0.2678561740451388
 20
0.0523654513888889
 10
-0.2520087348090277
 20
0.0954291449652778
 10
-0.2168687608506944
 20
0.1281575520833333
 10
-0.1727715386284722
 20
0.1405598958333333
 10
-0.1548570421006944
 20
0.1453830295138889
 10
-0.1369425455729167
 20
0.148828125
 10
-0.1186835394965278
 20
0.1512396918402778
 10
-0.1186835394965278
 20
0.1512396918402778
 10
-0.1186835394965278
 20
0.2883544921875
 10
-0.1186835394965278
 20
0.2883544921875
 10
-0.1576131184895833
 20
0.2869764539930555
 10
-0.1961981879340278
 20
0.2807752821180555
 10
-0.2334052191840278
 20
0.2697509765625
 10
-0.2967949761284722
 20
0.2497694227430555
 10
-0.3477823893229166
 20
0.2022271050347222
 10
-0.3715535481770833
 20
0.1402153862847222
 10
-0.4091050889756944
 20
0.043408203125
 10
-0.4056599934895833
 20
-0.0640787760416667
 10
-0.3629408094618055
 20
-0.1588189019097222
 10
-0.3222886827256944
 20
-0.2477023654513889
 10
-0.22789306640625
 20
-0.2997233072916666
 10
-0.1310858832465278
 20
-0.2862874348958333
 10
-0.0535712348090278
 20
-0.2749186197916667
 10
0.0094740125868056
 20
-0.2184190538194444
 10
0.0287665473090278
 20
-0.1429714626736111
 10
0.0559828016493056
 20
-0.2218641493055555
 10
0.1359090169270833
 20
-0.2700954861111111
 10
0.2182467990451389
 20
-0.2566596137152777
 10
0.2878377278645833
 20
-0.2449462890625
 10
0.3460598415798611
 20
-0.1974039713541667
 10
0.3712090386284722
 20
-0.1319471571180555
 10
0.3894680447048611
 20
-0.0840603298611111
 10
0.39842529296875
 20
-0.0330729166666667
 10
0.3973917643229166
 20
0.0179144965277778
 10
0.3963582356770833
 20
0.049609375
 10
0.3905015733506944
 20
0.080615234375
 10
0.3801662868923611
 20
0.1102430555555556
 97
        0
 75
     2
 76
     1
 98
        1
 10
0.0
 20
0.0
  0
ENDBLK
  5
5A
100
AcDbEntity
  8
DR-100_R-SIDE_SILK
390
0
100
AcDbBlockEnd
  0
BLOCK
  5
5D
100
AcDbEntity
  8
DR-100_R-SIDE_SILK
390
0
 62
     7
100
AcDbBlockBegin
  2
AI9-BLK8
 70
     0
 10
0.0
 20
0.0
 30
0.0
  3
AI9-BLK8
  1

  0
HATCH
  5
5E
100
AcDbEntity
  8
DR-100_R-SIDE_SILK
390
0
 62
     7
100
AcDbHatch
 10
0.0
 20
0.0
 30
0.0
210
0.0
220
0.0
230
1.0
  2
SOLID
 70
     1
 71
     0
 91
        1
 92
        1
 93
        1
 72
     4
 94
        3
 73
     0
 74
     0
 95
       80
 96
       76
 40
0.0
 40
0.0
 40
0.0
 40
0.0
 40
1.0
 40
1.0
 40
1.0
 40
2.0
 40
2.0
 40
2.0
 40
3.0
 40
3.0
 40
3.0
 40
4.0
 40
4.0
 40
4.0
 40
5.0
 40
5.0
 40
5.0
 40
6.0
 40
6.0
 40
6.0
 40
7.0
 40
7.0
 40
7.0
 40
8.0
 40
8.0
 40
8.0
 40
9.0
 40
9.0
 40
9.0
 40
10.0
 40
10.0
 40
10.0
 40
11.0
 40
11.0
 40
11.0
 40
12.0
 40
12.0
 40
12.0
 40
13.0
 40
13.0
 40
13.0
 40
14.0
 40
14.0
 40
14.0
 40
15.0
 40
15.0
 40
15.0
 40
16.0
 40
16.0
 40
16.0
 40
17.0
 40
17.0
 40
17.0
 40
18.0
 40
18.0
 40
18.0
 40
19.0
 40
19.0
 40
19.0
 40
20.0
 40
20.0
 40
20.0
 40
21.0
 40
21.0
 40
21.0
 40
22.0
 40
22.0
 40
22.0
 40
23.0
 40
23.0
 40
23.0
 40
24.0
 40
24.0
 40
24.0
 40
25.0
 40
25.0
 40
25.0
 40
25.0
 10
0.3801662868923611
 20
0.1102430555555556
 10
0.3474378797743055
 20
0.2087727864583333
 10
0.2516642252604167
 20
0.2725070529513889
 10
0.1483113606770833
 20
0.2645833333333333
 10
0.1483113606770833
 20
0.2645833333333333
 10
0.1483113606770833
 20
0.1305691189236111
 10
0.1483113606770833
 20
0.1305691189236111
 10
0.1713935004340278
 20
0.1291910807291667
 10
0.1941311306423611
 20
0.1229899088541666
 10
0.2144571940104167
 20
0.1123101128472222
 10
0.2499416775173611
 20
0.093017578125
 10
0.2737128363715278
 20
0.0578776041666667
 10
0.2785359700520833
 20
0.0175699869791667
 10
0.2833591037326388
 20
-0.0223931206597222
 10
0.2685451931423611
 20
-0.06201171875
 10
0.2389173719618055
 20
-0.0895724826388889
 10
0.2210028754340277
 20
-0.105419921875
 10
0.19688720703125
 20
-0.1133436414930555
 10
0.1727715386284722
 20
-0.11162109375
 10
0.1334974500868056
 20
-0.1057644314236111
 10
0.1004245334201389
 20
-0.0795817057291667
 10
0.0859551323784722
 20
-0.0427191840277778
 10
0.0766533745659722
 20
-0.0103352864583333
 10
0.0732082790798611
 20
0.0230821397569444
 10
0.0752753363715278
 20
0.0564995659722222
 10
0.0752753363715278
 20
0.0564995659722222
 10
-0.0298000759548611
 20
0.0568440755208333
 10
-0.0298000759548611
 20
0.0568440755208333
 10
-0.0298000759548611
 20
0.0568440755208333
 10
-0.0342787000868056
 20
-0.0158474392361111
 10
-0.0342787000868056
 20
-0.0158474392361111
 10
-0.03565673828125
 20
-0.0678683810763889
 10
-0.0711412217881944
 20
-0.1126546223958333
 10
-0.1210951063368055
 20
-0.1264350043402778
 10
-0.1707044813368055
 20
-0.1402153862847222
 10
-0.2241034613715278
 20
-0.1198893229166667
 10
-0.2520087348090277
 20
-0.0764811197916667
 10
-0.2778469509548611
 20
-0.0385850694444444
 10
-0.2833591037326388
 20
0.0093017578125
 10
-0.2678561740451388
 20
0.0523654513888889
 10
-0.2520087348090277
 20
0.0954291449652778
 10
-0.2165242513020833
 20
0.1281575520833333
 10
-0.1727715386284722
 20
0.1405598958333333
 10
-0.1548570421006944
 20
0.1453830295138889
 10
-0.1365980360243055
 20
0.148828125
 10
-0.1183390299479167
 20
0.1512396918402778
 10
-0.1183390299479167
 20
0.1512396918402778
 10
-0.1183390299479167
 20
0.2883544921875
 10
-0.1183390299479167
 20
0.2883544921875
 10
-0.1576131184895833
 20
0.2869764539930555
 10
-0.1961981879340278
 20
0.2807752821180555
 10
-0.2334052191840278
 20
0.2697509765625
 10
-0.2964504665798611
 20
0.2497694227430555
 10
-0.3474378797743055
 20
0.2022271050347222
 10
-0.3712090386284722
 20
0.1402153862847222
 10
-0.4087605794270833
 20
0.043408203125
 10
-0.4056599934895833
 20
-0.0640787760416667
 10
-0.3625962999131944
 20
-0.1588189019097222
 10
-0.3222886827256944
 20
-0.2477023654513889
 10
-0.22789306640625
 20
-0.2997233072916666
 10
-0.1307413736979167
 20
-0.2862874348958333
 10
-0.0532267252604167
 20
-0.2749186197916667
 10
0.0094740125868056
 20
-0.2184190538194444
 10
0.0291110568576389
 20
-0.142626953125
 10
0.0563273111979167
 20
-0.2218641493055555
 10
0.1359090169270833
 20
-0.2697509765625
 10
0.21859130859375
 20
-0.2566596137152777
 10
0.2881822374131944
 20
-0.2449462890625
 10
0.3460598415798611
 20
-0.1977484809027778
 10
0.3715535481770833
 20
-0.1319471571180555
 10
0.3898125542534722
 20
-0.0840603298611111
 10
0.39842529296875
 20
-0.0330729166666667
 10
0.3973917643229166
 20
0.0182590060763889
 10
0.3967027452256944
 20
0.049609375
 10
0.3908460828993055
 20
0.080615234375
 10
0.3801662868923611
 20
0.1102430555555556
 97
        0
 75
     2
 76
     1
 98
        1
 10
0.0
 20
0.0
  0
ENDBLK
  5
5F
100
AcDbEntity
  8
DR-100_R-SIDE_SILK
390
0
100
AcDbBlockEnd
  0
BLOCK
  5
65
100
AcDbEntity
  8
DR-100_R-SIDE_SILK
390
0
 62
     7
100
AcDbBlockBegin
  2
AI9-BLK9
 70
     0
 10
0.0
 20
0.0
 30
0.0
  3
AI9-BLK9
  1

  0
HATCH
  5
66
100
AcDbEntity
  8
DR-100_R-SIDE_SILK
390
0
 62
     7
100
AcDbHatch
 10
0.0
 20
0.0
 30
0.0
210
0.0
220
0.0
230
1.0
  2
SOLID
 70
     1
 71
     0
 91
        1
 92
        1
 93
        1
 72
     4
 94
        3
 73
     0
 74
     0
 95
       59
 96
       55
 40
0.0
 40
0.0
 40
0.0
 40
0.0
 40
1.0
 40
1.0
 40
1.0
 40
2.0
 40
2.0
 40
2.0
 40
3.0
 40
3.0
 40
3.0
 40
4.0
 40
4.0
 40
4.0
 40
5.0
 40
5.0
 40
5.0
 40
6.0
 40
6.0
 40
6.0
 40
7.0
 40
7.0
 40
7.0
 40
8.0
 40
8.0
 40
8.0
 40
9.0
 40
9.0
 40
9.0
 40
10.0
 40
10.0
 40
10.0
 40
11.0
 40
11.0
 40
11.0
 40
12.0
 40
12.0
 40
12.0
 40
13.0
 40
13.0
 40
13.0
 40
14.0
 40
14.0
 40
14.0
 40
15.0
 40
15.0
 40
15.0
 40
16.0
 40
16.0
 40
16.0
 40
17.0
 40
17.0
 40
17.0
 40
18.0
 40
18.0
 40
18.0
 40
18.0
 10
0.0027560763888889
 20
0.4049709743923611
 10
0.0027560763888889
 20
0.4049709743923611
 10
-0.2680284288194444
 20
0.0842325846354167
 10
-0.2680284288194444
 20
0.0842325846354167
 10
-0.2680284288194444
 20
0.0842325846354167
 10
-0.1491726345486111
 20
0.0156751844618056
 10
-0.1491726345486111
 20
0.0156751844618056
 10
-0.0864718967013889
 20
0.02945556640625
 10
-0.0213595920138889
 20
0.0080959743923611
 10
0.0206705729166667
 20
-0.0401353624131944
 10
0.0582221137152778
 20
-0.0842325846354167
 10
0.0644232855902778
 20
-0.1469333224826389
 10
0.0368625217013889
 20
-0.1975762261284722
 10
0.0093017578125
 20
-0.2482191297743055
 10
-0.0468532986111111
 20
-0.2764689127604166
 10
-0.1040418836805555
 20
-0.2688897026909722
 10
-0.1347032335069444
 20
-0.2657891167534722
 10
-0.1636420355902778
 20
-0.2537312825520833
 10
-0.1877577039930555
 20
-0.23409423828125
 10
-0.2346110026041666
 20
-0.1986097547743055
 10
-0.2528700086805555
 20
-0.1369425455729167
 10
-0.2332329644097222
 20
-0.0814765082465278
 10
-0.2332329644097222
 20
-0.0814765082465278
 10
-0.3579454210069444
 20
-0.0094740125868056
 10
-0.3579454210069444
 20
-0.0094740125868056
 10
-0.4013536241319444
 20
-0.1031806098090278
 10
-0.3824055989583333
 20
-0.2137681749131944
 10
-0.3100585937499999
 20
-0.2871487087673611
 10
-0.2787082248263889
 20
-0.3202216254340278
 10
-0.241845703125
 20
-0.3474378797743055
 10
-0.2015380859375
 20
-0.3684529622395833
 10
-0.1450385199652778
 20
-0.3973917643229166
 10
-0.0819932725694444
 20
-0.4097941080729166
 10
-0.0189480251736111
 20
-0.4035929361979166
 10
-0.0093017578125
 20
-0.4025594075520833
 10
0.0003445095486111
 20
-0.4008368598090277
 10
0.0096462673611111
 20
-0.3977362738715278
 10
0.1422824435763889
 20
-0.3643188476562499
 10
0.2273763020833333
 20
-0.2351277669270833
 10
0.2056722005208333
 20
-0.1000800238715278
 10
0.1839680989583333
 20
0.0353122287326389
 10
0.0630452473958333
 20
0.1314303927951389
 10
-0.0733805338541667
 20
0.1217841254340278
 10
-0.0733805338541667
 20
0.1217841254340278
 10
0.0299723307291667
 20
0.2485636393229166
 10
0.0299723307291667
 20
0.2485636393229166
 10
0.0299723307291667
 20
0.2485636393229166
 10
0.3200493706597222
 20
0.0811319986979167
 10
0.3200493706597222
 20
0.0811319986979167
 10
0.3200493706597222
 20
0.0811319986979167
 10
0.3810275607638888
 20
0.1865519205729166
 10
0.3810275607638888
 20
0.1865519205729166
 10
0.3810275607638888
 20
0.1865519205729166
 10
0.0027560763888889
 20
0.4049709743923611
 10
0.0027560763888889
 20
0.4049709743923611
 97
        0
 75
     2
 76
     1
 98
        1
 10
0.0
 20
0.0
  0
ENDBLK
  5
67
100
AcDbEntity
  8
DR-100_R-SIDE_SILK
390
0
100
AcDbBlockEnd
  0
BLOCK
  5
6A
100
AcDbEntity
  8
DR-100_R-SIDE_SILK
390
0
 62
     7
100
AcDbBlockBegin
  2
AI9-BLK10
 70
     0
 10
0.0
 20
0.0
 30
0.0
  3
AI9-BLK10
  1

  0
HATCH
  5
6B
100
AcDbEntity
  8
DR-100_R-SIDE_SILK
390
0
 62
     7
100
AcDbHatch
 10
0.0
 20
0.0
 30
0.0
210
0.0
220
0.0
230
1.0
  2
SOLID
 70
     1
 71
     0
 91
        1
 92
        1
 93
        1
 72
     4
 94
        3
 73
     0
 74
     0
 95
       59
 96
       55
 40
0.0
 40
0.0
 40
0.0
 40
0.0
 40
1.0
 40
1.0
 40
1.0
 40
2.0
 40
2.0
 40
2.0
 40
3.0
 40
3.0
 40
3.0
 40
4.0
 40
4.0
 40
4.0
 40
5.0
 40
5.0
 40
5.0
 40
6.0
 40
6.0
 40
6.0
 40
7.0
 40
7.0
 40
7.0
 40
8.0
 40
8.0
 40
8.0
 40
9.0
 40
9.0
 40
9.0
 40
10.0
 40
10.0
 40
10.0
 40
11.0
 40
11.0
 40
11.0
 40
12.0
 40
12.0
 40
12.0
 40
13.0
 40
13.0
 40
13.0
 40
14.0
 40
14.0
 40
14.0
 40
15.0
 40
15.0
 40
15.0
 40
16.0
 40
16.0
 40
16.0
 40
17.0
 40
17.0
 40
17.0
 40
18.0
 40
18.0
 40
18.0
 40
18.0
 10
0.0029283311631944
 20
0.4051432291666666
 10
0.0029283311631944
 20
0.4051432291666666
 10
-0.26820068359375
 20
0.0844048394097222
 10
-0.26820068359375
 20
0.0844048394097222
 10
-0.26820068359375
 20
0.0844048394097222
 10
-0.1493448893229166
 20
0.0155029296875
 10
-0.1493448893229166
 20
0.0155029296875
 10
-0.0866441514756944
 20
0.0292833116319444
 10
-0.0215318467881944
 20
0.0079237196180556
 10
0.0208428276909722
 20
-0.0403076171875
 10
0.0580498589409722
 20
-0.0844048394097222
 10
0.0645955403645833
 20
-0.1467610677083333
 10
0.0366902669270833
 20
-0.1977484809027778
 10
0.0091295030381944
 20
-0.2483913845486111
 10
-0.0466810438368056
 20
-0.2766411675347222
 10
-0.10386962890625
 20
-0.2687174479166666
 10
-0.1345309787326389
 20
-0.2659613715277778
 10
-0.1638142903645833
 20
-0.2539035373263889
 10
-0.1879299587673611
 20
-0.2342664930555555
 10
-0.2344387478298611
 20
-0.1987820095486111
 10
-0.2530422634548611
 20
-0.1367702907986111
 10
-0.2330607096354166
 20
-0.0816487630208333
 10
-0.2330607096354166
 20
-0.0816487630208333
 10
-0.35811767578125
 20
-0.0096462673611111
 10
-0.35811767578125
 20
-0.0096462673611111
 10
-0.40152587890625
 20
-0.1030083550347222
 10
-0.3822333441840278
 20
-0.2135959201388889
 10
-0.3102308485243055
 20
-0.2873209635416666
 10
-0.2785359700520833
 20
-0.3200493706597222
 10
-0.2416734483506944
 20
-0.3476101345486111
 10
-0.2010213216145833
 20
-0.3686252170138888
 10
-0.1452107747395833
 20
-0.3975640190972222
 10
-0.0818210177951389
 20
-0.4099663628472222
 10
-0.0191202799479167
 20
-0.4037651909722222
 10
-0.0091295030381944
 20
-0.4027316623263889
 10
0.0001722547743056
 20
-0.4006646050347222
 10
0.0094740125868056
 20
-0.3975640190972222
 10
0.1421101888020833
 20
-0.3641465928819444
 10
0.2272040473090278
 20
-0.2349555121527778
 10
0.2058444552951389
 20
-0.0999077690972222
 10
0.1841403537326389
 20
0.0351399739583333
 10
0.0628729926215278
 20
0.1312581380208333
 10
-0.0735527886284722
 20
0.1219563802083333
 10
-0.0735527886284722
 20
0.1219563802083333
 10
0.0298000759548611
 20
0.2483913845486111
 10
0.0298000759548611
 20
0.2483913845486111
 10
0.0298000759548611
 20
0.2483913845486111
 10
0.3198771158854166
 20
0.0809597439236111
 10
0.3198771158854166
 20
0.0809597439236111
 10
0.3198771158854166
 20
0.0809597439236111
 10
0.3811998155381944
 20
0.1867241753472222
 10
0.3811998155381944
 20
0.1867241753472222
 10
0.3811998155381944
 20
0.1867241753472222
 10
0.0029283311631944
 20
0.4051432291666666
 10
0.0029283311631944
 20
0.4051432291666666
 97
        0
 75
     2
 76
     1
 98
        1
 10
0.0
 20
0.0
  0
ENDBLK
  5
6C
100
AcDbEntity
  8
DR-100_R-SIDE_SILK
390
0
100
AcDbBlockEnd
  0
BLOCK
  5
6F
100
AcDbEntity
  8
DR-100_R-SIDE_SILK
390
0
 62
     7
100
AcDbBlockBegin
  2
AI9-BLK11
 70
     0
 10
0.0
 20
0.0
 30
0.0
  3
AI9-BLK11
  1

  0
HATCH
  5
70
100
AcDbEntity
  8
DR-100_R-SIDE_SILK
390
0
 62
     7
100
AcDbHatch
 10
0.0
 20
0.0
 30
0.0
210
0.0
220
0.0
230
1.0
  2
SOLID
 70
     1
 71
     0
 91
        1
 92
        1
 93
        1
 72
     4
 94
        3
 73
     0
 74
     0
 95
       32
 96
       28
 40
0.0
 40
0.0
 40
0.0
 40
0.0
 40
1.0
 40
1.0
 40
1.0
 40
2.0
 40
2.0
 40
2.0
 40
3.0
 40
3.0
 40
3.0
 40
4.0
 40
4.0
 40
4.0
 40
5.0
 40
5.0
 40
5.0
 40
6.0
 40
6.0
 40
6.0
 40
7.0
 40
7.0
 40
7.0
 40
8.0
 40
8.0
 40
8.0
 40
9.0
 40
9.0
 40
9.0
 40
9.0
 10
-0.3086805555555555
 20
0.1722547743055556
 10
-0.3086805555555555
 20
0.1722547743055556
 10
-0.2446017795138889
 20
0.0613226996527778
 10
-0.2446017795138889
 20
0.0613226996527778
 10
-0.2446017795138889
 20
0.0613226996527778
 10
0.0792371961805556
 20
0.2483913845486111
 10
0.0792371961805556
 20
0.2483913845486111
 10
0.0551215277777778
 20
0.1402153862847222
 10
0.0468532986111111
 20
0.0296278211805556
 10
0.0551215277777778
 20
-0.080615234375
 10
0.0630452473958333
 20
-0.2073947482638889
 10
0.1002522786458333
 20
-0.3310736762152777
 10
0.1639865451388889
 20
-0.4413167317708333
 10
0.1639865451388889
 20
-0.4413167317708333
 10
0.3086805555555555
 20
-0.3576009114583333
 10
0.3086805555555555
 20
-0.3576009114583333
 10
0.254248046875
 20
-0.2611382378472222
 10
0.2184190538194444
 20
-0.155029296875
 10
0.2025716145833333
 20
-0.0454752604166667
 10
0.1856906467013889
 20
0.0795817057291667
 10
0.1925808376736111
 20
0.2063612196180555
 10
0.2222086588541667
 20
0.3290066189236111
 10
0.2222086588541667
 20
0.3290066189236111
 10
0.1570963541666666
 20
0.4413167317708333
 10
0.1570963541666666
 20
0.4413167317708333
 10
0.1570963541666666
 20
0.4413167317708333
 10
-0.3086805555555555
 20
0.1722547743055556
 10
-0.3086805555555555
 20
0.1722547743055556
 97
        0
 75
     2
 76
     1
 98
        1
 10
0.0
 20
0.0
  0
ENDBLK
  5
71
100
AcDbEntity
  8
DR-100_R-SIDE_SILK
390
0
100
AcDbBlockEnd
  0
BLOCK
  5
75
100
AcDbEntity
  8
DR-100_R-SIDE_SILK
390
0
 62
     7
100
AcDbBlockBegin
  2
AI9-BLK12
 70
     0
 10
0.0
 20
0.0
 30
0.0
  3
AI9-BLK12
  1

  0
HATCH
  5
76
100
AcDbEntity
  8
DR-100_R-SIDE_SILK
390
0
 62
     7
100
AcDbHatch
 10
0.0
 20
0.0
 30
0.0
210
0.0
220
0.0
230
1.0
  2
SOLID
 70
     1
 71
     0
 91
        1
 92
        1
 93
        1
 72
     4
 94
        3
 73
     0
 74
     0
 95
       32
 96
       28
 40
0.0
 40
0.0
 40
0.0
 40
0.0
 40
1.0
 40
1.0
 40
1.0
 40
2.0
 40
2.0
 40
2.0
 40
3.0
 40
3.0
 40
3.0
 40
4.0
 40
4.0
 40
4.0
 40
5.0
 40
5.0
 40
5.0
 40
6.0
 40
6.0
 40
6.0
 40
7.0
 40
7.0
 40
7.0
 40
8.0
 40
8.0
 40
8.0
 40
9.0
 40
9.0
 40
9.0
 40
9.0
 10
-0.3088528103298611
 20
0.1722547743055556
 10
-0.3088528103298611
 20
0.1722547743055556
 10
-0.2447740342881944
 20
0.0613226996527778
 10
-0.2447740342881944
 20
0.0613226996527778
 10
-0.2447740342881944
 20
0.0613226996527778
 10
0.0787204318576389
 20
0.2483913845486111
 10
0.0787204318576389
 20
0.2483913845486111
 10
0.0549492730034722
 20
0.1405598958333333
 10
0.0466810438368056
 20
0.0296278211805556
 10
0.0549492730034722
 20
-0.080615234375
 10
0.0628729926215278
 20
-0.2077392578125
 10
0.1000800238715278
 20
-0.3310736762152777
 10
0.1638142903645833
 20
-0.4413167317708333
 10
0.1638142903645833
 20
-0.4413167317708333
 10
0.3088528103298611
 20
-0.3576009114583333
 10
0.3088528103298611
 20
-0.3576009114583333
 10
0.2540757921006944
 20
-0.2607937282986111
 10
0.2182467990451389
 20
-0.155029296875
 10
0.2023993598090278
 20
-0.0454752604166667
 10
0.1855183919270833
 20
0.0795817057291667
 10
0.1924085828993055
 20
0.2063612196180555
 10
0.2220364040798611
 20
0.3290066189236111
 10
0.2220364040798611
 20
0.3290066189236111
 10
0.1572686089409722
 20
0.4413167317708333
 10
0.1572686089409722
 20
0.4413167317708333
 10
0.1572686089409722
 20
0.4413167317708333
 10
-0.3088528103298611
 20
0.1722547743055556
 10
-0.3088528103298611
 20
0.1722547743055556
 97
        0
 75
     2
 76
     1
 98
        1
 10
0.0
 20
0.0
  0
ENDBLK
  5
77
100
AcDbEntity
  8
DR-100_R-SIDE_SILK
390
0
100
AcDbBlockEnd
  0
ENDSEC
  0
SECTION
  2
ENTITIES
  0
LINE
  5
40A
100
AcDbEntity
  8
DR-100_R-SIDE_50P_
390
0
 62
     7
100
AcDbLine
 10
74.673478
 20
12.630065
 30
0.0
 11
74.578394
 21
12.63351
 31
0.0
  0
LINE
  5
409
100
AcDbEntity
  8
DR-100_R-SIDE_50P_
390
0
 62
     7
100
AcDbLine
 10
74.754438
 20
12.619385
 30
0.0
 11
74.673478
 21
12.630065
 31
0.0
  0
LINE
  5
408
100
AcDbEntity
  8
DR-100_R-SIDE_50P_
390
0
 62
     7
100
AcDbLine
 10
74.80887
 20
12.602159
 30
0.0
 11
74.754438
 21
12.619385
 31
0.0
  0
LINE
  5
407
100
AcDbEntity
  8
DR-100_R-SIDE_50P_
390
0
 62
     7
100
AcDbLine
 10
74.828507
 20
12.579077
 30
0.0
 11
74.80887
 21
12.602159
 31
0.0
  0
LINE
  5
406
100
AcDbEntity
  8
DR-100_R-SIDE_50P_
390
0
 62
     7
100
AcDbLine
 10
70.173494
 20
12.630065
 30
0.0
 11
70.07841
 21
12.63351
 31
0.0
  0
LINE
  5
405
100
AcDbEntity
  8
DR-100_R-SIDE_50P_
390
0
 62
     7
100
AcDbLine
 10
70.25411
 20
12.619385
 30
0.0
 11
70.173494
 21
12.630065
 31
0.0
  0
LINE
  5
404
100
AcDbEntity
  8
DR-100_R-SIDE_50P_
390
0
 62
     7
100
AcDbLine
 10
70.308887
 20
12.602159
 30
0.0
 11
70.25411
 21
12.619385
 31
0.0
  0
LINE
  5
403
100
AcDbEntity
  8
DR-100_R-SIDE_50P_
390
0
 62
     7
100
AcDbLine
 10
70.328179
 20
12.579077
 30
0.0
 11
70.308887
 21
12.602159
 31
0.0
  0
LINE
  5
402
100
AcDbEntity
  8
DR-100_R-SIDE_50P_
390
0
 62
     7
100
AcDbLine
 10
73.732967
 20
5.453586
 30
0.0
 11
73.828396
 21
5.450141
 31
0.0
  0
LINE
  5
401
100
AcDbEntity
  8
DR-100_R-SIDE_50P_
390
0
 62
     7
100
AcDbLine
 10
73.652007
 20
5.463921
 30
0.0
 11
73.732967
 21
5.453586
 31
0.0
  0
LINE
  5
400
100
AcDbEntity
  8
DR-100_R-SIDE_50P_
390
0
 62
     7
100
AcDbLine
 10
73.597575
 20
5.481147
 30
0.0
 11
73.652007
 21
5.463921
 31
0.0
  0
LINE
  5
3FF
100
AcDbEntity
  8
DR-100_R-SIDE_50P_
390
0
 62
     7
100
AcDbLine
 10
73.578282
 20
5.504574
 30
0.0
 11
73.597575
 21
5.481147
 31
0.0
  0
LINE
  5
3FE
100
AcDbEntity
  8
DR-100_R-SIDE_50P_
390
0
 62
     7
100
AcDbLine
 10
65.715541
 20
14.237546
 30
0.0
 11
65.728632
 21
14.226522
 31
0.0
  0
LINE
  5
3FD
100
AcDbEntity
  8
DR-100_R-SIDE_50P_
390
0
 62
     7
100
AcDbLine
 10
65.706584
 20
14.245814
 30
0.0
 11
65.715541
 21
14.237546
 31
0.0
  0
LINE
  5
3FC
100
AcDbEntity
  8
DR-100_R-SIDE_50P_
390
0
 62
     7
100
AcDbLine
 10
65.703139
 20
14.251671
 30
0.0
 11
65.706584
 21
14.245814
 31
0.0
  0
LINE
  5
3FB
100
AcDbEntity
  8
DR-100_R-SIDE_50P_
390
0
 62
     7
100
AcDbLine
 10
71.482975
 20
5.453586
 30
0.0
 11
71.578404
 21
5.450141
 31
0.0
  0
LINE
  5
3FA
100
AcDbEntity
  8
DR-100_R-SIDE_50P_
390
0
 62
     7
100
AcDbLine
 10
71.402016
 20
5.463921
 30
0.0
 11
71.482975
 21
5.453586
 31
0.0
  0
LINE
  5
3F9
100
AcDbEntity
  8
DR-100_R-SIDE_50P_
390
0
 62
     7
100
AcDbLine
 10
71.347583
 20
5.481147
 30
0.0
 11
71.402016
 21
5.463921
 31
0.0
  0
LINE
  5
3F8
100
AcDbEntity
  8
DR-100_R-SIDE_50P_
390
0
 62
     7
100
AcDbLine
 10
71.32829
 20
5.504574
 30
0.0
 11
71.347583
 21
5.481147
 31
0.0
  0
LINE
  5
3F7
100
AcDbEntity
  8
DR-100_R-SIDE_50P_
390
0
 62
     7
100
AcDbLine
 10
72.48412
 20
2.380216
 30
0.0
 11
72.563013
 21
2.306147
 31
0.0
  0
LINE
  5
3F6
100
AcDbEntity
  8
DR-100_R-SIDE_50P_
390
0
 62
     7
100
AcDbLine
 10
72.471029
 20
2.397442
 30
0.0
 11
72.48412
 21
2.380216
 31
0.0
  0
LINE
  5
3F5
100
AcDbEntity
  8
DR-100_R-SIDE_50P_
390
0
 62
     7
100
AcDbLine
 10
66.005273
 20
4.018015
 30
0.0
 11
65.948774
 21
4.05281
 31
0.0
  0
LINE
  5
3F4
100
AcDbEntity
  8
DR-100_R-SIDE_50P_
390
0
 62
     7
100
AcDbLine
 10
66.056261
 20
3.967372
 30
0.0
 11
66.005273
 21
4.018015
 31
0.0
  0
LINE
  5
3F3
100
AcDbEntity
  8
DR-100_R-SIDE_50P_
390
0
 62
     7
100
AcDbLine
 10
66.097257
 20
3.904671
 30
0.0
 11
66.056261
 21
3.967372
 31
0.0
  0
LINE
  5
3F2
100
AcDbEntity
  8
DR-100_R-SIDE_50P_
390
0
 62
     7
100
AcDbLine
 10
66.124474
 20
3.836114
 30
0.0
 11
66.097257
 21
3.904671
 31
0.0
  0
LINE
  5
3F1
100
AcDbEntity
  8
DR-100_R-SIDE_50P_
390
0
 62
     7
100
AcDbLine
 10
12.350667
 20
0.663181
 30
0.0
 11
12.578044
 21
0.671105
 31
0.0
  0
LINE
  5
3F0
100
AcDbEntity
  8
DR-100_R-SIDE_50P_
390
0
 62
     7
100
AcDbLine
 10
12.127081
 20
0.63941
 30
0.0
 11
12.350667
 21
0.663181
 31
0.0
  0
LINE
  5
3EF
100
AcDbEntity
  8
DR-100_R-SIDE_50P_
390
0
 62
     7
100
AcDbLine
 10
11.926232
 20
0.602547
 30
0.0
 11
12.127081
 21
0.63941
 31
0.0
  0
LINE
  5
3EE
100
AcDbEntity
  8
DR-100_R-SIDE_50P_
390
0
 62
     7
100
AcDbLine
 10
11.761211
 20
0.557416
 30
0.0
 11
11.926232
 21
0.602547
 31
0.0
  0
LINE
  5
3ED
100
AcDbEntity
  8
DR-100_R-SIDE_50P_
390
0
 62
     7
100
AcDbLine
 10
11.634087
 20
0.507118
 30
0.0
 11
11.761211
 21
0.557416
 31
0.0
  0
LINE
  5
3EC
100
AcDbEntity
  8
DR-100_R-SIDE_50P_
390
0
 62
     7
100
AcDbLine
 10
11.554506
 20
0.457164
 30
0.0
 11
11.634087
 21
0.507118
 31
0.0
  0
LINE
  5
3EB
100
AcDbEntity
  8
DR-100_R-SIDE_50P_
390
0
 62
     7
100
AcDbLine
 10
11.528323
 20
0.412378
 30
0.0
 11
11.554506
 21
0.457164
 31
0.0
  0
LINE
  5
3EA
100
AcDbEntity
  8
DR-100_R-SIDE_50P_
390
0
 62
     7
100
AcDbLine
 10
65.84611
 20
14.350545
 30
0.0
 11
65.775141
 21
14.341243
 31
0.0
  0
LINE
  5
3E9
100
AcDbEntity
  8
DR-100_R-SIDE_50P_
390
0
 62
     7
100
AcDbLine
 10
65.931893
 20
14.337798
 30
0.0
 11
65.84611
 21
14.350545
 31
0.0
  0
LINE
  5
3E8
100
AcDbEntity
  8
DR-100_R-SIDE_50P_
390
0
 62
     7
100
AcDbLine
 10
66.025944
 20
14.303347
 30
0.0
 11
65.931893
 21
14.337798
 31
0.0
  0
LINE
  5
3E7
100
AcDbEntity
  8
DR-100_R-SIDE_50P_
390
0
 62
     7
100
AcDbLine
 10
66.125507
 20
14.246848
 30
0.0
 11
66.025944
 21
14.303347
 31
0.0
  0
LINE
  5
3E6
100
AcDbEntity
  8
DR-100_R-SIDE_50P_
390
0
 62
     7
100
AcDbLine
 10
66.955775
 20
13.93989
 30
0.0
 11
67.177295
 21
13.928177
 31
0.0
  0
LINE
  5
3E5
100
AcDbEntity
  8
DR-100_R-SIDE_50P_
390
0
 62
     7
100
AcDbLine
 10
66.735289
 20
13.978819
 30
0.0
 11
66.955775
 21
13.93989
 31
0.0
  0
LINE
  5
3E4
100
AcDbEntity
  8
DR-100_R-SIDE_50P_
390
0
 62
     7
100
AcDbLine
 10
66.52066
 20
14.044621
 30
0.0
 11
66.735289
 21
13.978819
 31
0.0
  0
LINE
  5
3E3
100
AcDbEntity
  8
DR-100_R-SIDE_50P_
390
0
 62
     7
100
AcDbLine
 10
66.314988
 20
14.135571
 30
0.0
 11
66.52066
 21
14.044621
 31
0.0
  0
LINE
  5
3E2
100
AcDbEntity
  8
DR-100_R-SIDE_50P_
390
0
 62
     7
100
AcDbLine
 10
66.125507
 20
14.246848
 30
0.0
 11
66.314988
 21
14.135571
 31
0.0
  0
LINE
  5
3E1
100
AcDbEntity
  8
DR-100_R-SIDE_50P_
390
0
 62
     7
100
AcDbLine
 10
65.891585
 20
14.090441
 30
0.0
 11
65.948774
 21
14.03084
 31
0.0
  0
LINE
  5
3E0
100
AcDbEntity
  8
DR-100_R-SIDE_50P_
390
0
 62
     7
100
AcDbLine
 10
65.728632
 20
14.226522
 30
0.0
 11
65.78651
 21
14.18208
 31
0.0
  0
LINE
  5
3DF
100
AcDbEntity
  8
DR-100_R-SIDE_50P_
390
0
 62
     7
100
AcDbLine
 10
59.353139
 20
17.023939
 30
0.0
 11
59.27459
 21
17.111445
 31
0.0
  0
LINE
  5
3DE
100
AcDbEntity
  8
DR-100_R-SIDE_50P_
390
0
 62
     7
100
AcDbLine
 10
69.232983
 20
5.453586
 30
0.0
 11
69.328413
 21
5.450141
 31
0.0
  0
LINE
  5
3DD
100
AcDbEntity
  8
DR-100_R-SIDE_50P_
390
0
 62
     7
100
AcDbLine
 10
69.152024
 20
5.463921
 30
0.0
 11
69.232983
 21
5.453586
 31
0.0
  0
LINE
  5
3DC
100
AcDbEntity
  8
DR-100_R-SIDE_50P_
390
0
 62
     7
100
AcDbLine
 10
69.097591
 20
5.481147
 30
0.0
 11
69.152024
 21
5.463921
 31
0.0
  0
LINE
  5
3DB
100
AcDbEntity
  8
DR-100_R-SIDE_50P_
390
0
 62
     7
100
AcDbLine
 10
69.078299
 20
5.504574
 30
0.0
 11
69.097591
 21
5.481147
 31
0.0
  0
LINE
  5
3DA
100
AcDbEntity
  8
DR-100_R-SIDE_50P_
390
0
 62
     7
100
AcDbLine
 10
67.483908
 20
2.380216
 30
0.0
 11
67.563146
 21
2.306147
 31
0.0
  0
LINE
  5
3D9
100
AcDbEntity
  8
DR-100_R-SIDE_50P_
390
0
 62
     7
100
AcDbLine
 10
67.471162
 20
2.397442
 30
0.0
 11
67.483908
 21
2.380216
 31
0.0
  0
LINE
  5
3D8
100
AcDbEntity
  8
DR-100_R-SIDE_50P_
390
0
 62
     7
100
AcDbLine
 10
11.90246
 20
0.298001
 30
0.0
 11
11.975152
 21
0.334519
 31
0.0
  0
LINE
  5
3D7
100
AcDbEntity
  8
DR-100_R-SIDE_50P_
390
0
 62
     7
100
AcDbLine
 10
11.878345
 20
0.263205
 30
0.0
 11
11.90246
 21
0.298001
 31
0.0
  0
LINE
  5
3D6
100
AcDbEntity
  8
DR-100_R-SIDE_50P_
390
0
 62
     7
100
AcDbLine
 10
73.561057
 20
15.430583
 30
0.0
 11
73.575871
 21
15.291745
 31
0.0
  0
LINE
  5
3D5
100
AcDbEntity
  8
DR-100_R-SIDE_50P_
390
0
 62
     7
100
AcDbLine
 10
73.441512
 20
15.681386
 30
0.0
 11
73.561057
 21
15.430583
 31
0.0
  0
LINE
  5
3D4
100
AcDbEntity
  8
DR-100_R-SIDE_50P_
390
0
 62
     7
100
AcDbLine
 10
73.222748
 20
15.852951
 30
0.0
 11
73.441512
 21
15.681386
 31
0.0
  0
LINE
  5
3D3
100
AcDbEntity
  8
DR-100_R-SIDE_50P_
390
0
 62
     7
100
AcDbLine
 10
72.953342
 20
15.916686
 30
0.0
 11
73.222748
 21
15.852951
 31
0.0
  0
LINE
  5
3D2
100
AcDbEntity
  8
DR-100_R-SIDE_50P_
390
0
 62
     7
100
AcDbLine
 10
68.56119
 20
15.430583
 30
0.0
 11
68.575659
 21
15.291745
 31
0.0
  0
LINE
  5
3D1
100
AcDbEntity
  8
DR-100_R-SIDE_50P_
390
0
 62
     7
100
AcDbLine
 10
68.4413
 20
15.681386
 30
0.0
 11
68.56119
 21
15.430583
 31
0.0
  0
LINE
  5
3D0
100
AcDbEntity
  8
DR-100_R-SIDE_50P_
390
0
 62
     7
100
AcDbLine
 10
68.222881
 20
15.852951
 30
0.0
 11
68.4413
 21
15.681386
 31
0.0
  0
LINE
  5
3CF
100
AcDbEntity
  8
DR-100_R-SIDE_50P_
390
0
 62
     7
100
AcDbLine
 10
67.95313
 20
15.916686
 30
0.0
 11
68.222881
 21
15.852951
 31
0.0
  0
LINE
  5
3CE
100
AcDbEntity
  8
DR-100_R-SIDE_50P_
390
0
 62
     7
100
AcDbLine
 10
48.890728
 20
17.77497
 30
0.0
 11
48.87178
 21
17.791851
 31
0.0
  0
LINE
  5
3CD
100
AcDbEntity
  8
DR-100_R-SIDE_50P_
390
0
 62
     7
100
AcDbLine
 10
48.943783
 20
17.724327
 30
0.0
 11
48.890728
 21
17.77497
 31
0.0
  0
LINE
  5
3CC
100
AcDbEntity
  8
DR-100_R-SIDE_50P_
390
0
 62
     7
100
AcDbLine
 10
49.022675
 20
17.6413
 30
0.0
 11
48.943783
 21
17.724327
 31
0.0
  0
LINE
  5
3CB
100
AcDbEntity
  8
DR-100_R-SIDE_50P_
390
0
 62
     7
100
AcDbLine
 10
49.122583
 20
17.525545
 30
0.0
 11
49.023709
 21
17.639922
 31
0.0
  0
LINE
  5
3CA
100
AcDbEntity
  8
DR-100_R-SIDE_50P_
390
0
 62
     7
100
AcDbLine
 10
49.242817
 20
17.37844
 30
0.0
 11
49.122583
 21
17.525545
 31
0.0
  0
LINE
  5
3C9
100
AcDbEntity
  8
DR-100_R-SIDE_50P_
390
0
 62
     7
100
AcDbLine
 10
49.385444
 20
17.208596
 30
0.0
 11
49.242817
 21
17.37844
 31
0.0
  0
LINE
  5
3C8
100
AcDbEntity
  8
DR-100_R-SIDE_50P_
390
0
 62
     7
100
AcDbLine
 10
49.55322
 20
17.023939
 30
0.0
 11
49.385444
 21
17.208596
 31
0.0
  0
LINE
  5
3C7
100
AcDbEntity
  8
DR-100_R-SIDE_50P_
390
0
 62
     7
100
AcDbLine
 10
0.464743
 20
15.084006
 30
0.0
 11
0.45303
 21
15.033019
 31
0.0
  0
LINE
  5
3C6
100
AcDbEntity
  8
DR-100_R-SIDE_50P_
390
0
 62
     7
100
AcDbLine
 10
0.497127
 20
15.127414
 30
0.0
 11
0.464743
 21
15.084006
 31
0.0
  0
LINE
  5
3C5
100
AcDbEntity
  8
DR-100_R-SIDE_50P_
390
0
 62
     7
100
AcDbLine
 10
0.545703
 20
15.156353
 30
0.0
 11
0.497127
 21
15.127414
 31
0.0
  0
LINE
  5
3C4
100
AcDbEntity
  8
DR-100_R-SIDE_50P_
390
0
 62
     7
100
AcDbLine
 10
0.603236
 20
15.166688
 30
0.0
 11
0.545703
 21
15.156353
 31
0.0
  0
LINE
  5
3C3
100
AcDbEntity
  8
DR-100_R-SIDE_50P_
390
0
 62
     7
100
AcDbLine
 10
49.55322
 20
17.023939
 30
0.0
 11
49.676899
 21
17.017394
 31
0.0
  0
LINE
  5
3C2
100
AcDbEntity
  8
DR-100_R-SIDE_50P_
390
0
 62
     7
100
AcDbLine
 10
49.631768
 20
17.111445
 30
0.0
 11
49.55322
 21
17.023939
 31
0.0
  0
LINE
  5
3C1
100
AcDbEntity
  8
DR-100_R-SIDE_50P_
390
0
 62
     7
100
AcDbLine
 10
38.686011
 20
15.656236
 30
0.0
 11
38.925445
 21
15.789562
 31
0.0
  0
LINE
  5
3C0
100
AcDbEntity
  8
DR-100_R-SIDE_50P_
390
0
 62
     7
100
AcDbLine
 10
38.578868
 20
15.599048
 30
0.0
 11
38.686011
 21
15.656236
 31
0.0
  0
LINE
  5
3BF
100
AcDbEntity
  8
DR-100_R-SIDE_50P_
390
0
 62
     7
100
AcDbLine
 10
38.47965
 20
15.548749
 30
0.0
 11
38.578868
 21
15.599048
 31
0.0
  0
LINE
  5
3BE
100
AcDbEntity
  8
DR-100_R-SIDE_50P_
390
0
 62
     7
100
AcDbLine
 10
38.389388
 20
15.505686
 30
0.0
 11
38.47965
 21
15.548749
 31
0.0
  0
LINE
  5
3BD
100
AcDbEntity
  8
DR-100_R-SIDE_50P_
390
0
 62
     7
100
AcDbLine
 10
38.307395
 20
15.468823
 30
0.0
 11
38.389388
 21
15.505686
 31
0.0
  0
LINE
  5
3BC
100
AcDbEntity
  8
DR-100_R-SIDE_50P_
390
0
 62
     7
100
AcDbLine
 10
38.23367
 20
15.437128
 30
0.0
 11
38.307395
 21
15.468823
 31
0.0
  0
LINE
  5
3BB
100
AcDbEntity
  8
DR-100_R-SIDE_50P_
390
0
 62
     7
100
AcDbLine
 10
38.167524
 20
15.409568
 30
0.0
 11
38.23367
 21
15.437128
 31
0.0
  0
LINE
  5
3BA
100
AcDbEntity
  8
DR-100_R-SIDE_50P_
390
0
 62
     7
100
AcDbLine
 10
38.107579
 20
15.385796
 30
0.0
 11
38.167524
 21
15.409568
 31
0.0
  0
LINE
  5
3B9
100
AcDbEntity
  8
DR-100_R-SIDE_50P_
390
0
 62
     7
100
AcDbLine
 10
38.053836
 20
15.364781
 30
0.0
 11
38.107579
 21
15.385796
 31
0.0
  0
LINE
  5
3B8
100
AcDbEntity
  8
DR-100_R-SIDE_50P_
390
0
 62
     7
100
AcDbLine
 10
38.004915
 20
15.346522
 30
0.0
 11
38.053836
 21
15.364781
 31
0.0
  0
LINE
  5
3B7
100
AcDbEntity
  8
DR-100_R-SIDE_50P_
390
0
 62
     7
100
AcDbLine
 10
37.959785
 20
15.33033
 30
0.0
 11
38.004915
 21
15.346522
 31
0.0
  0
LINE
  5
3B6
100
AcDbEntity
  8
DR-100_R-SIDE_50P_
390
0
 62
     7
100
AcDbLine
 10
37.91741
 20
15.315516
 30
0.0
 11
37.959785
 21
15.33033
 31
0.0
  0
LINE
  5
3B5
100
AcDbEntity
  8
DR-100_R-SIDE_50P_
390
0
 62
     7
100
AcDbLine
 10
37.876413
 20
15.301392
 30
0.0
 11
37.91741
 21
15.315516
 31
0.0
  0
LINE
  5
3B4
100
AcDbEntity
  8
DR-100_R-SIDE_50P_
390
0
 62
     7
100
AcDbLine
 10
37.83645
 20
15.2883
 30
0.0
 11
37.876413
 21
15.301392
 31
0.0
  0
LINE
  5
3B3
100
AcDbEntity
  8
DR-100_R-SIDE_50P_
390
0
 62
     7
100
AcDbLine
 10
37.798899
 20
15.276242
 30
0.0
 11
37.83645
 21
15.2883
 31
0.0
  0
LINE
  5
3B2
100
AcDbEntity
  8
DR-100_R-SIDE_50P_
390
0
 62
     7
100
AcDbLine
 10
37.76307
 20
15.264874
 30
0.0
 11
37.798899
 21
15.276242
 31
0.0
  0
LINE
  5
3B1
100
AcDbEntity
  8
DR-100_R-SIDE_50P_
390
0
 62
     7
100
AcDbLine
 10
37.727585
 20
15.254194
 30
0.0
 11
37.76307
 21
15.264874
 31
0.0
  0
LINE
  5
3B0
100
AcDbEntity
  8
DR-100_R-SIDE_50P_
390
0
 62
     7
100
AcDbLine
 10
37.691412
 20
15.243514
 30
0.0
 11
37.727585
 21
15.254194
 31
0.0
  0
LINE
  5
3AF
100
AcDbEntity
  8
DR-100_R-SIDE_50P_
390
0
 62
     7
100
AcDbLine
 10
37.655583
 20
15.233179
 30
0.0
 11
37.691412
 21
15.243514
 31
0.0
  0
LINE
  5
3AE
100
AcDbEntity
  8
DR-100_R-SIDE_50P_
390
0
 62
     7
100
AcDbLine
 10
37.620098
 20
15.223188
 30
0.0
 11
37.655583
 21
15.233179
 31
0.0
  0
LINE
  5
3AD
100
AcDbEntity
  8
DR-100_R-SIDE_50P_
390
0
 62
     7
100
AcDbLine
 10
37.584269
 20
15.213197
 30
0.0
 11
37.620098
 21
15.223188
 31
0.0
  0
LINE
  5
3AC
100
AcDbEntity
  8
DR-100_R-SIDE_50P_
390
0
 62
     7
100
AcDbLine
 10
37.548785
 20
15.203895
 30
0.0
 11
37.584269
 21
15.213197
 31
0.0
  0
LINE
  5
3AB
100
AcDbEntity
  8
DR-100_R-SIDE_50P_
390
0
 62
     7
100
AcDbLine
 10
37.511233
 20
15.194249
 30
0.0
 11
37.548785
 21
15.203895
 31
0.0
  0
LINE
  5
3AA
100
AcDbEntity
  8
DR-100_R-SIDE_50P_
390
0
 62
     7
100
AcDbLine
 10
37.470581
 20
15.184258
 30
0.0
 11
37.511233
 21
15.194249
 31
0.0
  0
LINE
  5
3A9
100
AcDbEntity
  8
DR-100_R-SIDE_50P_
390
0
 62
     7
100
AcDbLine
 10
37.424417
 20
15.173234
 30
0.0
 11
37.470581
 21
15.184258
 31
0.0
  0
LINE
  5
3A8
100
AcDbEntity
  8
DR-100_R-SIDE_50P_
390
0
 62
     7
100
AcDbLine
 10
37.372396
 20
15.161176
 30
0.0
 11
37.424417
 21
15.173234
 31
0.0
  0
LINE
  5
3A7
100
AcDbEntity
  8
DR-100_R-SIDE_50P_
390
0
 62
     7
100
AcDbLine
 10
37.313485
 20
15.148429
 30
0.0
 11
37.372396
 21
15.161176
 31
0.0
  0
LINE
  5
3A6
100
AcDbEntity
  8
DR-100_R-SIDE_50P_
390
0
 62
     7
100
AcDbLine
 10
37.249061
 20
15.135338
 30
0.0
 11
37.313485
 21
15.148429
 31
0.0
  0
LINE
  5
3A5
100
AcDbEntity
  8
DR-100_R-SIDE_50P_
390
0
 62
     7
100
AcDbLine
 10
37.180849
 20
15.122591
 30
0.0
 11
37.249061
 21
15.135338
 31
0.0
  0
LINE
  5
3A4
100
AcDbEntity
  8
DR-100_R-SIDE_50P_
390
0
 62
     7
100
AcDbLine
 10
37.110913
 20
15.110189
 30
0.0
 11
37.180849
 21
15.122591
 31
0.0
  0
LINE
  5
3A3
100
AcDbEntity
  8
DR-100_R-SIDE_50P_
390
0
 62
     7
100
AcDbLine
 10
37.041322
 20
15.099164
 30
0.0
 11
37.110913
 21
15.110189
 31
0.0
  0
LINE
  5
3A2
100
AcDbEntity
  8
DR-100_R-SIDE_50P_
390
0
 62
     7
100
AcDbLine
 10
36.974832
 20
15.089518
 30
0.0
 11
37.041322
 21
15.099164
 31
0.0
  0
LINE
  5
3A1
100
AcDbEntity
  8
DR-100_R-SIDE_50P_
390
0
 62
     7
100
AcDbLine
 10
36.913854
 20
15.08125
 30
0.0
 11
36.974832
 21
15.089518
 31
0.0
  0
LINE
  5
3A0
100
AcDbEntity
  8
DR-100_R-SIDE_50P_
390
0
 62
     7
100
AcDbLine
 10
36.859077
 20
15.074704
 30
0.0
 11
36.913854
 21
15.08125
 31
0.0
  0
LINE
  5
39F
100
AcDbEntity
  8
DR-100_R-SIDE_50P_
390
0
 62
     7
100
AcDbLine
 10
36.808778
 20
15.069192
 30
0.0
 11
36.859077
 21
15.074704
 31
0.0
  0
LINE
  5
39E
100
AcDbEntity
  8
DR-100_R-SIDE_50P_
390
0
 62
     7
100
AcDbLine
 10
36.760891
 20
15.064369
 30
0.0
 11
36.808778
 21
15.069192
 31
0.0
  0
LINE
  5
39D
100
AcDbEntity
  8
DR-100_R-SIDE_50P_
390
0
 62
     7
100
AcDbLine
 10
36.713349
 20
15.05989
 30
0.0
 11
36.760891
 21
15.064369
 31
0.0
  0
LINE
  5
39C
100
AcDbEntity
  8
DR-100_R-SIDE_50P_
390
0
 62
     7
100
AcDbLine
 10
36.664429
 20
15.056101
 30
0.0
 11
36.713349
 21
15.05989
 31
0.0
  0
LINE
  5
39B
100
AcDbEntity
  8
DR-100_R-SIDE_50P_
390
0
 62
     7
100
AcDbLine
 10
36.615508
 20
15.052656
 30
0.0
 11
36.664429
 21
15.056101
 31
0.0
  0
LINE
  5
39A
100
AcDbEntity
  8
DR-100_R-SIDE_50P_
390
0
 62
     7
100
AcDbLine
 10
36.569689
 20
15.0499
 30
0.0
 11
36.615508
 21
15.052656
 31
0.0
  0
LINE
  5
399
100
AcDbEntity
  8
DR-100_R-SIDE_50P_
390
0
 62
     7
100
AcDbLine
 10
36.523524
 20
15.047488
 30
0.0
 11
36.569689
 21
15.0499
 31
0.0
  0
LINE
  5
398
100
AcDbEntity
  8
DR-100_R-SIDE_50P_
390
0
 62
     7
100
AcDbLine
 10
36.475982
 20
15.045421
 30
0.0
 11
36.523524
 21
15.047488
 31
0.0
  0
LINE
  5
397
100
AcDbEntity
  8
DR-100_R-SIDE_50P_
390
0
 62
     7
100
AcDbLine
 10
36.429129
 20
15.043698
 30
0.0
 11
36.475982
 21
15.045421
 31
0.0
  0
LINE
  5
396
100
AcDbEntity
  8
DR-100_R-SIDE_50P_
390
0
 62
     7
100
AcDbLine
 10
36.382275
 20
15.042665
 30
0.0
 11
36.429129
 21
15.043698
 31
0.0
  0
LINE
  5
395
100
AcDbEntity
  8
DR-100_R-SIDE_50P_
390
0
 62
     7
100
AcDbLine
 10
36.3337
 20
15.041976
 30
0.0
 11
36.382275
 21
15.042665
 31
0.0
  0
LINE
  5
394
100
AcDbEntity
  8
DR-100_R-SIDE_50P_
390
0
 62
     7
100
AcDbLine
 10
36.282712
 20
15.041631
 30
0.0
 11
36.3337
 21
15.041976
 31
0.0
  0
LINE
  5
393
100
AcDbEntity
  8
DR-100_R-SIDE_50P_
390
0
 62
     7
100
AcDbLine
 10
76.1404
 20
13.314261
 30
0.0
 11
76.152802
 21
13.291867
 31
0.0
  0
LINE
  5
392
100
AcDbEntity
  8
DR-100_R-SIDE_50P_
390
0
 62
     7
100
AcDbLine
 10
75.936795
 20
13.541292
 30
0.0
 11
76.1404
 21
13.314261
 31
0.0
  0
LINE
  5
391
100
AcDbEntity
  8
DR-100_R-SIDE_50P_
390
0
 62
     7
100
AcDbLine
 10
75.694949
 20
13.714925
 30
0.0
 11
75.936795
 21
13.541292
 31
0.0
  0
LINE
  5
390
100
AcDbEntity
  8
DR-100_R-SIDE_50P_
390
0
 62
     7
100
AcDbLine
 10
75.421408
 20
13.842738
 30
0.0
 11
75.694949
 21
13.714925
 31
0.0
  0
LINE
  5
38F
100
AcDbEntity
  8
DR-100_R-SIDE_50P_
390
0
 62
     7
100
AcDbLine
 10
75.124441
 20
13.92921
 30
0.0
 11
75.421408
 21
13.842738
 31
0.0
  0
LINE
  5
38E
100
AcDbEntity
  8
DR-100_R-SIDE_50P_
390
0
 62
     7
100
AcDbLine
 10
74.811282
 20
13.978475
 30
0.0
 11
75.124441
 21
13.92921
 31
0.0
  0
LINE
  5
38D
100
AcDbEntity
  8
DR-100_R-SIDE_50P_
390
0
 62
     7
100
AcDbLine
 10
74.488132
 20
13.993289
 30
0.0
 11
74.811282
 21
13.978475
 31
0.0
  0
LINE
  5
38C
100
AcDbEntity
  8
DR-100_R-SIDE_50P_
390
0
 62
     7
100
AcDbLine
 10
41.177159
 20
16.390042
 30
0.0
 11
41.312896
 21
16.391764
 31
0.0
  0
LINE
  5
38B
100
AcDbEntity
  8
DR-100_R-SIDE_50P_
390
0
 62
     7
100
AcDbLine
 10
41.039355
 20
16.384874
 30
0.0
 11
41.177159
 21
16.390042
 31
0.0
  0
LINE
  5
38A
100
AcDbEntity
  8
DR-100_R-SIDE_50P_
390
0
 62
     7
100
AcDbLine
 10
40.901207
 20
16.375572
 30
0.0
 11
41.039355
 21
16.384874
 31
0.0
  0
LINE
  5
389
100
AcDbEntity
  8
DR-100_R-SIDE_50P_
390
0
 62
     7
100
AcDbLine
 10
40.764781
 20
16.362481
 30
0.0
 11
40.901207
 21
16.375572
 31
0.0
  0
LINE
  5
388
100
AcDbEntity
  8
DR-100_R-SIDE_50P_
390
0
 62
     7
100
AcDbLine
 10
40.628011
 20
16.345945
 30
0.0
 11
40.764781
 21
16.362481
 31
0.0
  0
LINE
  5
387
100
AcDbEntity
  8
DR-100_R-SIDE_50P_
390
0
 62
     7
100
AcDbLine
 10
40.486073
 20
16.324585
 30
0.0
 11
40.628011
 21
16.345945
 31
0.0
  0
LINE
  5
386
100
AcDbEntity
  8
DR-100_R-SIDE_50P_
390
0
 62
     7
100
AcDbLine
 10
40.331044
 20
16.295991
 30
0.0
 11
40.486073
 21
16.324585
 31
0.0
  0
LINE
  5
385
100
AcDbEntity
  8
DR-100_R-SIDE_50P_
390
0
 62
     7
100
AcDbLine
 10
40.157067
 20
16.258439
 30
0.0
 11
40.331044
 21
16.295991
 31
0.0
  0
LINE
  5
384
100
AcDbEntity
  8
DR-100_R-SIDE_50P_
390
0
 62
     7
100
AcDbLine
 10
39.965175
 20
16.209519
 30
0.0
 11
40.157067
 21
16.258439
 31
0.0
  0
LINE
  5
383
100
AcDbEntity
  8
DR-100_R-SIDE_50P_
390
0
 62
     7
100
AcDbLine
 10
39.766048
 20
16.149574
 30
0.0
 11
39.965175
 21
16.209519
 31
0.0
  0
LINE
  5
382
100
AcDbEntity
  8
DR-100_R-SIDE_50P_
390
0
 62
     7
100
AcDbLine
 10
39.570367
 20
16.081706
 30
0.0
 11
39.766048
 21
16.149574
 31
0.0
  0
LINE
  5
381
100
AcDbEntity
  8
DR-100_R-SIDE_50P_
390
0
 62
     7
100
AcDbLine
 10
39.386054
 20
16.009359
 30
0.0
 11
39.570367
 21
16.081706
 31
0.0
  0
LINE
  5
380
100
AcDbEntity
  8
DR-100_R-SIDE_50P_
390
0
 62
     7
100
AcDbLine
 10
39.216211
 20
15.935289
 30
0.0
 11
39.386054
 21
16.009359
 31
0.0
  0
LINE
  5
37F
100
AcDbEntity
  8
DR-100_R-SIDE_50P_
390
0
 62
     7
100
AcDbLine
 10
39.06256
 20
15.861909
 30
0.0
 11
39.216211
 21
15.935289
 31
0.0
  0
LINE
  5
37E
100
AcDbEntity
  8
DR-100_R-SIDE_50P_
390
0
 62
     7
100
AcDbLine
 10
38.925445
 20
15.789562
 30
0.0
 11
39.06256
 21
15.861909
 31
0.0
  0
LINE
  5
37D
100
AcDbEntity
  8
DR-100_R-SIDE_50P_
390
0
 62
     7
100
AcDbLine
 10
69.097591
 20
12.602159
 30
0.0
 11
69.078299
 21
12.579077
 31
0.0
  0
LINE
  5
37C
100
AcDbEntity
  8
DR-100_R-SIDE_50P_
390
0
 62
     7
100
AcDbLine
 10
69.152024
 20
12.619385
 30
0.0
 11
69.097591
 21
12.602159
 31
0.0
  0
LINE
  5
37B
100
AcDbEntity
  8
DR-100_R-SIDE_50P_
390
0
 62
     7
100
AcDbLine
 10
69.232983
 20
12.630065
 30
0.0
 11
69.152024
 21
12.619385
 31
0.0
  0
LINE
  5
37A
100
AcDbEntity
  8
DR-100_R-SIDE_50P_
390
0
 62
     7
100
AcDbLine
 10
69.328413
 20
12.63351
 30
0.0
 11
69.232983
 21
12.630065
 31
0.0
  0
LINE
  5
379
100
AcDbEntity
  8
DR-100_R-SIDE_50P_
390
0
 62
     7
100
AcDbLine
 10
74.80887
 20
13.215042
 30
0.0
 11
74.828507
 21
13.195405
 31
0.0
  0
LINE
  5
378
100
AcDbEntity
  8
DR-100_R-SIDE_50P_
390
0
 62
     7
100
AcDbLine
 10
74.754438
 20
13.229856
 30
0.0
 11
74.80887
 21
13.215042
 31
0.0
  0
LINE
  5
377
100
AcDbEntity
  8
DR-100_R-SIDE_50P_
390
0
 62
     7
100
AcDbLine
 10
74.673823
 20
13.238813
 30
0.0
 11
74.754438
 21
13.229856
 31
0.0
  0
LINE
  5
376
100
AcDbEntity
  8
DR-100_R-SIDE_50P_
390
0
 62
     7
100
AcDbLine
 10
74.578394
 20
13.241914
 30
0.0
 11
74.673823
 21
13.238813
 31
0.0
  0
LINE
  5
375
100
AcDbEntity
  8
DR-100_R-SIDE_50P_
390
0
 62
     7
100
AcDbLine
 10
70.308887
 20
13.215042
 30
0.0
 11
70.328179
 21
13.195405
 31
0.0
  0
LINE
  5
374
100
AcDbEntity
  8
DR-100_R-SIDE_50P_
390
0
 62
     7
100
AcDbLine
 10
70.254454
 20
13.229856
 30
0.0
 11
70.308887
 21
13.215042
 31
0.0
  0
LINE
  5
373
100
AcDbEntity
  8
DR-100_R-SIDE_50P_
390
0
 62
     7
100
AcDbLine
 10
70.173839
 20
13.238813
 30
0.0
 11
70.254454
 21
13.229856
 31
0.0
  0
LINE
  5
372
100
AcDbEntity
  8
DR-100_R-SIDE_50P_
390
0
 62
     7
100
AcDbLine
 10
70.07841
 20
13.241914
 30
0.0
 11
70.173839
 21
13.238813
 31
0.0
  0
LINE
  5
371
100
AcDbEntity
  8
DR-100_R-SIDE_50P_
390
0
 62
     7
100
AcDbLine
 10
71.347583
 20
12.602159
 30
0.0
 11
71.32829
 21
12.579077
 31
0.0
  0
LINE
  5
370
100
AcDbEntity
  8
DR-100_R-SIDE_50P_
390
0
 62
     7
100
AcDbLine
 10
71.402016
 20
12.619385
 30
0.0
 11
71.347583
 21
12.602159
 31
0.0
  0
LINE
  5
36F
100
AcDbEntity
  8
DR-100_R-SIDE_50P_
390
0
 62
     7
100
AcDbLine
 10
71.482975
 20
12.630065
 30
0.0
 11
71.402016
 21
12.619385
 31
0.0
  0
LINE
  5
36E
100
AcDbEntity
  8
DR-100_R-SIDE_50P_
390
0
 62
     7
100
AcDbLine
 10
71.578404
 20
12.63351
 30
0.0
 11
71.482975
 21
12.630065
 31
0.0
  0
LINE
  5
36D
100
AcDbEntity
  8
DR-100_R-SIDE_50P_
390
0
 62
     7
100
AcDbLine
 10
73.597575
 20
12.602159
 30
0.0
 11
73.578282
 21
12.579077
 31
0.0
  0
LINE
  5
36C
100
AcDbEntity
  8
DR-100_R-SIDE_50P_
390
0
 62
     7
100
AcDbLine
 10
73.652007
 20
12.619385
 30
0.0
 11
73.597575
 21
12.602159
 31
0.0
  0
LINE
  5
36B
100
AcDbEntity
  8
DR-100_R-SIDE_50P_
390
0
 62
     7
100
AcDbLine
 10
73.732967
 20
12.630065
 30
0.0
 11
73.652007
 21
12.619385
 31
0.0
  0
LINE
  5
36A
100
AcDbEntity
  8
DR-100_R-SIDE_50P_
390
0
 62
     7
100
AcDbLine
 10
73.828396
 20
12.63351
 30
0.0
 11
73.732967
 21
12.630065
 31
0.0
  0
LINE
  5
369
100
AcDbEntity
  8
DR-100_R-SIDE_50P_
390
0
 62
     7
100
AcDbLine
 10
11.757422
 20
0.30558
 30
0.0
 11
11.728139
 21
0.263205
 31
0.0
  0
LINE
  5
368
100
AcDbEntity
  8
DR-100_R-SIDE_50P_
390
0
 62
     7
100
AcDbLine
 10
11.843894
 20
0.3514
 30
0.0
 11
11.757422
 21
0.30558
 31
0.0
  0
LINE
  5
367
100
AcDbEntity
  8
DR-100_R-SIDE_50P_
390
0
 62
     7
100
AcDbLine
 10
11.982042
 20
0.394808
 30
0.0
 11
11.843894
 21
0.3514
 31
0.0
  0
LINE
  5
366
100
AcDbEntity
  8
DR-100_R-SIDE_50P_
390
0
 62
     7
100
AcDbLine
 10
12.235601
 20
0.396186
 30
0.0
 11
12.403033
 21
0.413756
 31
0.0
  0
LINE
  5
365
100
AcDbEntity
  8
DR-100_R-SIDE_50P_
390
0
 62
     7
100
AcDbLine
 10
12.089529
 20
0.368625
 30
0.0
 11
12.235601
 21
0.396186
 31
0.0
  0
LINE
  5
364
100
AcDbEntity
  8
DR-100_R-SIDE_50P_
390
0
 62
     7
100
AcDbLine
 10
11.975152
 20
0.334519
 30
0.0
 11
12.089529
 21
0.368625
 31
0.0
  0
LINE
  5
363
100
AcDbEntity
  8
DR-100_R-SIDE_50P_
390
0
 62
     7
100
AcDbLine
 10
73.597575
 20
4.868609
 30
0.0
 11
73.578282
 21
4.887901
 31
0.0
  0
LINE
  5
362
100
AcDbEntity
  8
DR-100_R-SIDE_50P_
390
0
 62
     7
100
AcDbLine
 10
73.652007
 20
4.853795
 30
0.0
 11
73.597575
 21
4.868609
 31
0.0
  0
LINE
  5
361
100
AcDbEntity
  8
DR-100_R-SIDE_50P_
390
0
 62
     7
100
AcDbLine
 10
73.732967
 20
4.844838
 30
0.0
 11
73.652007
 21
4.853795
 31
0.0
  0
LINE
  5
360
100
AcDbEntity
  8
DR-100_R-SIDE_50P_
390
0
 62
     7
100
AcDbLine
 10
73.828396
 20
4.841737
 30
0.0
 11
73.732967
 21
4.844838
 31
0.0
  0
LINE
  5
35F
100
AcDbEntity
  8
DR-100_R-SIDE_50P_
390
0
 62
     7
100
AcDbLine
 10
71.347583
 20
4.868609
 30
0.0
 11
71.32829
 21
4.887901
 31
0.0
  0
LINE
  5
35E
100
AcDbEntity
  8
DR-100_R-SIDE_50P_
390
0
 62
     7
100
AcDbLine
 10
71.401671
 20
4.853795
 30
0.0
 11
71.347583
 21
4.868609
 31
0.0
  0
LINE
  5
35D
100
AcDbEntity
  8
DR-100_R-SIDE_50P_
390
0
 62
     7
100
AcDbLine
 10
71.482631
 20
4.844838
 30
0.0
 11
71.401671
 21
4.853795
 31
0.0
  0
LINE
  5
35C
100
AcDbEntity
  8
DR-100_R-SIDE_50P_
390
0
 62
     7
100
AcDbLine
 10
71.578404
 20
4.841737
 30
0.0
 11
71.482631
 21
4.844838
 31
0.0
  0
LINE
  5
35B
100
AcDbEntity
  8
DR-100_R-SIDE_50P_
390
0
 62
     7
100
AcDbLine
 10
69.097591
 20
4.868609
 30
0.0
 11
69.078299
 21
4.887901
 31
0.0
  0
LINE
  5
35A
100
AcDbEntity
  8
DR-100_R-SIDE_50P_
390
0
 62
     7
100
AcDbLine
 10
69.151679
 20
4.853795
 30
0.0
 11
69.097591
 21
4.868609
 31
0.0
  0
LINE
  5
359
100
AcDbEntity
  8
DR-100_R-SIDE_50P_
390
0
 62
     7
100
AcDbLine
 10
69.232639
 20
4.844838
 30
0.0
 11
69.151679
 21
4.853795
 31
0.0
  0
LINE
  5
358
100
AcDbEntity
  8
DR-100_R-SIDE_50P_
390
0
 62
     7
100
AcDbLine
 10
69.328413
 20
4.841737
 30
0.0
 11
69.232639
 21
4.844838
 31
0.0
  0
LINE
  5
357
100
AcDbEntity
  8
DR-100_R-SIDE_50P_
390
0
 62
     7
100
AcDbLine
 10
66.025944
 20
3.779959
 30
0.0
 11
66.125852
 21
3.836803
 31
0.0
  0
LINE
  5
356
100
AcDbEntity
  8
DR-100_R-SIDE_50P_
390
0
 62
     7
100
AcDbLine
 10
65.931893
 20
3.745852
 30
0.0
 11
66.025944
 21
3.779959
 31
0.0
  0
LINE
  5
355
100
AcDbEntity
  8
DR-100_R-SIDE_50P_
390
0
 62
     7
100
AcDbLine
 10
65.84611
 20
3.733105
 30
0.0
 11
65.931893
 21
3.745852
 31
0.0
  0
LINE
  5
354
100
AcDbEntity
  8
DR-100_R-SIDE_50P_
390
0
 62
     7
100
AcDbLine
 10
65.775141
 20
3.742063
 30
0.0
 11
65.84611
 21
3.733105
 31
0.0
  0
LINE
  5
353
100
AcDbEntity
  8
DR-100_R-SIDE_50P_
390
0
 62
     7
100
AcDbLine
 10
65.104725
 20
1.2926
 30
0.0
 11
65.103347
 21
1.295011
 31
0.0
  0
LINE
  5
352
100
AcDbEntity
  8
DR-100_R-SIDE_50P_
390
0
 62
     7
100
AcDbLine
 10
65.108171
 20
1.291911
 30
0.0
 11
65.104725
 21
1.2926
 31
0.0
  0
LINE
  5
351
100
AcDbEntity
  8
DR-100_R-SIDE_50P_
390
0
 62
     7
100
AcDbLine
 10
11.964817
 20
0.31247
 30
0.0
 11
11.965161
 21
0.313848
 31
0.0
  0
LINE
  5
350
100
AcDbEntity
  8
DR-100_R-SIDE_50P_
390
0
 62
     7
100
AcDbLine
 10
11.928299
 20
0.276297
 30
0.0
 11
11.964817
 21
0.31247
 31
0.0
  0
LINE
  5
34F
100
AcDbEntity
  8
DR-100_R-SIDE_50P_
390
0
 62
     7
100
AcDbLine
 10
11.878345
 20
0.263205
 30
0.0
 11
11.928299
 21
0.276297
 31
0.0
  0
LINE
  5
34E
100
AcDbEntity
  8
DR-100_R-SIDE_50P_
390
0
 62
     7
100
AcDbLine
 10
11.977908
 20
0.324528
 30
0.0
 11
12.017871
 21
0.341409
 31
0.0
  0
LINE
  5
34D
100
AcDbEntity
  8
DR-100_R-SIDE_50P_
390
0
 62
     7
100
AcDbLine
 10
11.961027
 20
0.314882
 30
0.0
 11
11.977908
 21
0.324528
 31
0.0
  0
LINE
  5
34C
100
AcDbEntity
  8
DR-100_R-SIDE_50P_
390
0
 62
     7
100
AcDbLine
 10
11.961027
 20
0.314882
 30
0.0
 11
11.961027
 21
0.314882
 31
0.0
  0
LINE
  5
34B
100
AcDbEntity
  8
DR-100_R-SIDE_50P_
390
0
 62
     7
100
AcDbLine
 10
70.308887
 20
5.481147
 30
0.0
 11
70.328179
 21
5.504574
 31
0.0
  0
LINE
  5
34A
100
AcDbEntity
  8
DR-100_R-SIDE_50P_
390
0
 62
     7
100
AcDbLine
 10
70.25411
 20
5.463921
 30
0.0
 11
70.308887
 21
5.481147
 31
0.0
  0
LINE
  5
349
100
AcDbEntity
  8
DR-100_R-SIDE_50P_
390
0
 62
     7
100
AcDbLine
 10
70.173494
 20
5.453586
 30
0.0
 11
70.25411
 21
5.463921
 31
0.0
  0
LINE
  5
348
100
AcDbEntity
  8
DR-100_R-SIDE_50P_
390
0
 62
     7
100
AcDbLine
 10
70.07841
 20
5.450141
 30
0.0
 11
70.173494
 21
5.453586
 31
0.0
  0
LINE
  5
347
100
AcDbEntity
  8
DR-100_R-SIDE_50P_
390
0
 62
     7
100
AcDbLine
 10
74.80887
 20
5.481147
 30
0.0
 11
74.828507
 21
5.504574
 31
0.0
  0
LINE
  5
346
100
AcDbEntity
  8
DR-100_R-SIDE_50P_
390
0
 62
     7
100
AcDbLine
 10
74.754438
 20
5.463921
 30
0.0
 11
74.80887
 21
5.481147
 31
0.0
  0
LINE
  5
345
100
AcDbEntity
  8
DR-100_R-SIDE_50P_
390
0
 62
     7
100
AcDbLine
 10
74.673478
 20
5.453586
 30
0.0
 11
74.754438
 21
5.463921
 31
0.0
  0
LINE
  5
344
100
AcDbEntity
  8
DR-100_R-SIDE_50P_
390
0
 62
     7
100
AcDbLine
 10
74.578394
 20
5.450141
 30
0.0
 11
74.673478
 21
5.453586
 31
0.0
  0
LINE
  5
343
100
AcDbEntity
  8
DR-100_R-SIDE_50P_
390
0
 62
     7
100
AcDbLine
 10
64.105303
 20
0.292489
 30
0.0
 11
64.103236
 21
0.295245
 31
0.0
  0
LINE
  5
342
100
AcDbEntity
  8
DR-100_R-SIDE_50P_
390
0
 62
     7
100
AcDbLine
 10
64.110471
 20
0.2918
 30
0.0
 11
64.105303
 21
0.292489
 31
0.0
  0
LINE
  5
341
100
AcDbEntity
  8
DR-100_R-SIDE_50P_
390
0
 62
     7
100
AcDbLine
 10
63.216813
 20
0.153307
 30
0.0
 11
63.252642
 21
0.153307
 31
0.0
  0
LINE
  5
340
100
AcDbEntity
  8
DR-100_R-SIDE_50P_
390
0
 62
     7
100
AcDbLine
 10
63.203377
 20
0.156407
 30
0.0
 11
63.216813
 21
0.153307
 31
0.0
  0
LINE
  5
33F
100
AcDbEntity
  8
DR-100_R-SIDE_50P_
390
0
 62
     7
100
AcDbLine
 10
65.708995
 20
14.28371
 30
0.0
 11
65.703139
 21
14.251671
 31
0.0
  0
LINE
  5
33E
100
AcDbEntity
  8
DR-100_R-SIDE_50P_
390
0
 62
     7
100
AcDbLine
 10
65.724154
 20
14.309204
 30
0.0
 11
65.708995
 21
14.28371
 31
0.0
  0
LINE
  5
33D
100
AcDbEntity
  8
DR-100_R-SIDE_50P_
390
0
 62
     7
100
AcDbLine
 10
65.746891
 20
14.328152
 30
0.0
 11
65.724154
 21
14.309204
 31
0.0
  0
LINE
  5
33C
100
AcDbEntity
  8
DR-100_R-SIDE_50P_
390
0
 62
     7
100
AcDbLine
 10
65.775141
 20
14.341243
 30
0.0
 11
65.746891
 21
14.328152
 31
0.0
  0
LINE
  5
33B
100
AcDbEntity
  8
DR-100_R-SIDE_50P_
390
0
 62
     7
100
AcDbLine
 10
28.028263
 20
0.276297
 30
0.0
 11
28.064781
 21
0.31247
 31
0.0
  0
LINE
  5
33A
100
AcDbEntity
  8
DR-100_R-SIDE_50P_
390
0
 62
     7
100
AcDbLine
 10
27.977965
 20
0.263205
 30
0.0
 11
28.028263
 21
0.276297
 31
0.0
  0
LINE
  5
339
100
AcDbEntity
  8
DR-100_R-SIDE_50P_
390
0
 62
     7
100
AcDbLine
 10
66.308442
 20
3.944634
 30
0.0
 11
66.125852
 21
3.836803
 31
0.0
  0
LINE
  5
338
100
AcDbEntity
  8
DR-100_R-SIDE_50P_
390
0
 62
     7
100
AcDbLine
 10
66.517215
 20
4.037307
 30
0.0
 11
66.308442
 21
3.944634
 31
0.0
  0
LINE
  5
337
100
AcDbEntity
  8
DR-100_R-SIDE_50P_
390
0
 62
     7
100
AcDbLine
 10
66.735634
 20
4.104487
 30
0.0
 11
66.517215
 21
4.037307
 31
0.0
  0
LINE
  5
336
100
AcDbEntity
  8
DR-100_R-SIDE_50P_
390
0
 62
     7
100
AcDbLine
 10
66.954397
 20
4.143761
 30
0.0
 11
66.735634
 21
4.104487
 31
0.0
  0
LINE
  5
335
100
AcDbEntity
  8
DR-100_R-SIDE_50P_
390
0
 62
     7
100
AcDbLine
 10
67.177295
 20
4.15513
 30
0.0
 11
66.954397
 21
4.143761
 31
0.0
  0
LINE
  5
334
100
AcDbEntity
  8
DR-100_R-SIDE_50P_
390
0
 62
     7
100
AcDbLine
 10
12.159465
 20
0.430637
 30
0.0
 11
11.982042
 21
0.394808
 31
0.0
  0
LINE
  5
333
100
AcDbEntity
  8
DR-100_R-SIDE_50P_
390
0
 62
     7
100
AcDbLine
 10
12.363414
 20
0.454064
 30
0.0
 11
12.159465
 21
0.430637
 31
0.0
  0
LINE
  5
332
100
AcDbEntity
  8
DR-100_R-SIDE_50P_
390
0
 62
     7
100
AcDbLine
 10
12.578044
 20
0.462332
 30
0.0
 11
12.363414
 21
0.454064
 31
0.0
  0
LINE
  5
331
100
AcDbEntity
  8
DR-100_R-SIDE_50P_
390
0
 62
     7
100
AcDbLine
 10
11.660959
 20
0.403765
 30
0.0
 11
11.628231
 21
0.361735
 31
0.0
  0
LINE
  5
330
100
AcDbEntity
  8
DR-100_R-SIDE_50P_
390
0
 62
     7
100
AcDbLine
 10
11.757766
 20
0.448896
 30
0.0
 11
11.660959
 21
0.403765
 31
0.0
  0
LINE
  5
32F
100
AcDbEntity
  8
DR-100_R-SIDE_50P_
390
0
 62
     7
100
AcDbLine
 10
11.911418
 20
0.491615
 30
0.0
 11
11.757766
 21
0.448896
 31
0.0
  0
LINE
  5
32E
100
AcDbEntity
  8
DR-100_R-SIDE_50P_
390
0
 62
     7
100
AcDbLine
 10
12.109511
 20
0.5271
 30
0.0
 11
11.911418
 21
0.491615
 31
0.0
  0
LINE
  5
32D
100
AcDbEntity
  8
DR-100_R-SIDE_50P_
390
0
 62
     7
100
AcDbLine
 10
12.336542
 20
0.550182
 30
0.0
 11
12.109511
 21
0.5271
 31
0.0
  0
LINE
  5
32C
100
AcDbEntity
  8
DR-100_R-SIDE_50P_
390
0
 62
     7
100
AcDbLine
 10
12.578044
 20
0.558105
 30
0.0
 11
12.336542
 21
0.550182
 31
0.0
  0
LINE
  5
32B
100
AcDbEntity
  8
DR-100_R-SIDE_50P_
390
0
 62
     7
100
AcDbLine
 10
62.889529
 20
0.153307
 30
0.0
 11
62.903309
 21
0.156407
 31
0.0
  0
LINE
  5
32A
100
AcDbEntity
  8
DR-100_R-SIDE_50P_
390
0
 62
     7
100
AcDbLine
 10
62.853356
 20
0.153307
 30
0.0
 11
62.889529
 21
0.153307
 31
0.0
  0
LINE
  5
329
100
AcDbEntity
  8
DR-100_R-SIDE_50P_
390
0
 62
     7
100
AcDbLine
 10
28.151942
 20
0.457164
 30
0.0
 11
28.178125
 21
0.412378
 31
0.0
  0
LINE
  5
328
100
AcDbEntity
  8
DR-100_R-SIDE_50P_
390
0
 62
     7
100
AcDbLine
 10
28.072361
 20
0.507118
 30
0.0
 11
28.151942
 21
0.457164
 31
0.0
  0
LINE
  5
327
100
AcDbEntity
  8
DR-100_R-SIDE_50P_
390
0
 62
     7
100
AcDbLine
 10
27.945237
 20
0.557416
 30
0.0
 11
28.072361
 21
0.507118
 31
0.0
  0
LINE
  5
326
100
AcDbEntity
  8
DR-100_R-SIDE_50P_
390
0
 62
     7
100
AcDbLine
 10
27.780216
 20
0.602547
 30
0.0
 11
27.945237
 21
0.557416
 31
0.0
  0
LINE
  5
325
100
AcDbEntity
  8
DR-100_R-SIDE_50P_
390
0
 62
     7
100
AcDbLine
 10
27.579367
 20
0.63941
 30
0.0
 11
27.780216
 21
0.602547
 31
0.0
  0
LINE
  5
324
100
AcDbEntity
  8
DR-100_R-SIDE_50P_
390
0
 62
     7
100
AcDbLine
 10
27.355781
 20
0.663181
 30
0.0
 11
27.579367
 21
0.63941
 31
0.0
  0
LINE
  5
323
100
AcDbEntity
  8
DR-100_R-SIDE_50P_
390
0
 62
     7
100
AcDbLine
 10
27.12806
 20
0.671105
 30
0.0
 11
27.355781
 21
0.663181
 31
0.0
  0
LINE
  5
322
100
AcDbEntity
  8
DR-100_R-SIDE_50P_
390
0
 62
     7
100
AcDbLine
 10
1.078315
 20
4.95887
 30
0.0
 11
1.053166
 21
5.061534
 31
0.0
  0
LINE
  5
321
100
AcDbEntity
  8
DR-100_R-SIDE_50P_
390
0
 62
     7
100
AcDbLine
 10
1.15204
 20
4.861374
 30
0.0
 11
1.078315
 21
4.95887
 31
0.0
  0
LINE
  5
320
100
AcDbEntity
  8
DR-100_R-SIDE_50P_
390
0
 62
     7
100
AcDbLine
 10
1.271585
 20
4.773524
 30
0.0
 11
1.15204
 21
4.861374
 31
0.0
  0
LINE
  5
31F
100
AcDbEntity
  8
DR-100_R-SIDE_50P_
390
0
 62
     7
100
AcDbLine
 10
1.429715
 20
4.700833
 30
0.0
 11
1.271585
 21
4.773524
 31
0.0
  0
LINE
  5
31E
100
AcDbEntity
  8
DR-100_R-SIDE_50P_
390
0
 62
     7
100
AcDbLine
 10
1.619195
 20
4.645711
 30
0.0
 11
1.429715
 21
4.700833
 31
0.0
  0
LINE
  5
31D
100
AcDbEntity
  8
DR-100_R-SIDE_50P_
390
0
 62
     7
100
AcDbLine
 10
1.830724
 20
4.611605
 30
0.0
 11
1.619195
 21
4.645711
 31
0.0
  0
LINE
  5
31C
100
AcDbEntity
  8
DR-100_R-SIDE_50P_
390
0
 62
     7
100
AcDbLine
 10
2.053277
 20
4.599891
 30
0.0
 11
1.830724
 21
4.611605
 31
0.0
  0
LINE
  5
31B
100
AcDbEntity
  8
DR-100_R-SIDE_50P_
390
0
 62
     7
100
AcDbLine
 10
59.496799
 20
17.180691
 30
0.0
 11
59.353139
 21
17.023595
 31
0.0
  0
LINE
  5
31A
100
AcDbEntity
  8
DR-100_R-SIDE_50P_
390
0
 62
     7
100
AcDbLine
 10
59.637703
 20
17.3464
 30
0.0
 11
59.496799
 21
17.180691
 31
0.0
  0
LINE
  5
319
100
AcDbEntity
  8
DR-100_R-SIDE_50P_
390
0
 62
     7
100
AcDbLine
 10
59.758626
 20
17.494884
 30
0.0
 11
59.637703
 21
17.3464
 31
0.0
  0
LINE
  5
318
100
AcDbEntity
  8
DR-100_R-SIDE_50P_
390
0
 62
     7
100
AcDbLine
 10
59.856467
 20
17.610639
 30
0.0
 11
59.758626
 21
17.494884
 31
0.0
  0
LINE
  5
317
100
AcDbEntity
  8
DR-100_R-SIDE_50P_
390
0
 62
     7
100
AcDbLine
 10
59.932948
 20
17.69401
 30
0.0
 11
59.856467
 21
17.610639
 31
0.0
  0
LINE
  5
316
100
AcDbEntity
  8
DR-100_R-SIDE_50P_
390
0
 62
     7
100
AcDbLine
 10
59.98807
 20
17.749132
 30
0.0
 11
59.932948
 21
17.69401
 31
0.0
  0
LINE
  5
315
100
AcDbEntity
  8
DR-100_R-SIDE_50P_
390
0
 62
     7
100
AcDbLine
 10
60.022521
 20
17.781171
 30
0.0
 11
59.98807
 21
17.749132
 31
0.0
  0
LINE
  5
314
100
AcDbEntity
  8
DR-100_R-SIDE_50P_
390
0
 62
     7
100
AcDbLine
 10
60.034923
 20
17.791851
 30
0.0
 11
60.022521
 21
17.781171
 31
0.0
  0
LINE
  5
313
100
AcDbEntity
  8
DR-100_R-SIDE_50P_
390
0
 62
     7
100
AcDbLine
 10
66.097257
 20
14.178635
 30
0.0
 11
66.124474
 21
14.247537
 31
0.0
  0
LINE
  5
312
100
AcDbEntity
  8
DR-100_R-SIDE_50P_
390
0
 62
     7
100
AcDbLine
 10
66.056261
 20
14.116279
 30
0.0
 11
66.097257
 21
14.178635
 31
0.0
  0
LINE
  5
311
100
AcDbEntity
  8
DR-100_R-SIDE_50P_
390
0
 62
     7
100
AcDbLine
 10
66.005273
 20
14.065291
 30
0.0
 11
66.056261
 21
14.116279
 31
0.0
  0
LINE
  5
310
100
AcDbEntity
  8
DR-100_R-SIDE_50P_
390
0
 62
     7
100
AcDbLine
 10
65.948774
 20
14.03084
 30
0.0
 11
66.005273
 21
14.065291
 31
0.0
  0
LINE
  5
30F
100
AcDbEntity
  8
DR-100_R-SIDE_50P_
390
0
 62
     7
100
AcDbLine
 10
27.470502
 20
0.396186
 30
0.0
 11
27.616919
 21
0.368625
 31
0.0
  0
LINE
  5
30E
100
AcDbEntity
  8
DR-100_R-SIDE_50P_
390
0
 62
     7
100
AcDbLine
 10
27.303415
 20
0.413756
 30
0.0
 11
27.470502
 21
0.396186
 31
0.0
  0
LINE
  5
30D
100
AcDbEntity
  8
DR-100_R-SIDE_50P_
390
0
 62
     7
100
AcDbLine
 10
0.464743
 20
3.956692
 30
0.0
 11
0.45303
 21
3.994244
 31
0.0
  0
LINE
  5
30C
100
AcDbEntity
  8
DR-100_R-SIDE_50P_
390
0
 62
     7
100
AcDbLine
 10
0.497127
 20
3.924997
 30
0.0
 11
0.464743
 21
3.956692
 31
0.0
  0
LINE
  5
30B
100
AcDbEntity
  8
DR-100_R-SIDE_50P_
390
0
 62
     7
100
AcDbLine
 10
0.545703
 20
3.903638
 30
0.0
 11
0.497127
 21
3.924997
 31
0.0
  0
LINE
  5
30A
100
AcDbEntity
  8
DR-100_R-SIDE_50P_
390
0
 62
     7
100
AcDbLine
 10
0.603236
 20
3.896403
 30
0.0
 11
0.545703
 21
3.903638
 31
0.0
  0
LINE
  5
309
100
AcDbEntity
  8
DR-100_R-SIDE_50P_
390
0
 62
     7
100
AcDbLine
 10
27.547328
 20
0.430637
 30
0.0
 11
27.343378
 21
0.454064
 31
0.0
  0
LINE
  5
308
100
AcDbEntity
  8
DR-100_R-SIDE_50P_
390
0
 62
     7
100
AcDbLine
 10
27.72475
 20
0.394808
 30
0.0
 11
27.547328
 21
0.430637
 31
0.0
  0
LINE
  5
307
100
AcDbEntity
  8
DR-100_R-SIDE_50P_
390
0
 62
     7
100
AcDbLine
 10
27.741631
 20
0.31247
 30
0.0
 11
27.73922
 21
0.321427
 31
0.0
  0
LINE
  5
306
100
AcDbEntity
  8
DR-100_R-SIDE_50P_
390
0
 62
     7
100
AcDbLine
 10
27.778149
 20
0.276297
 30
0.0
 11
27.741631
 21
0.31247
 31
0.0
  0
LINE
  5
305
100
AcDbEntity
  8
DR-100_R-SIDE_50P_
390
0
 62
     7
100
AcDbLine
 10
27.828103
 20
0.263205
 30
0.0
 11
27.778149
 21
0.276297
 31
0.0
  0
LINE
  5
304
100
AcDbEntity
  8
DR-100_R-SIDE_50P_
390
0
 62
     7
100
AcDbLine
 10
27.727851
 20
0.324873
 30
0.0
 11
27.736119
 21
0.320738
 31
0.0
  0
LINE
  5
303
100
AcDbEntity
  8
DR-100_R-SIDE_50P_
390
0
 62
     7
100
AcDbLine
 10
27.686854
 20
0.341753
 30
0.0
 11
27.727851
 21
0.324873
 31
0.0
  0
LINE
  5
302
100
AcDbEntity
  8
DR-100_R-SIDE_50P_
390
0
 62
     7
100
AcDbLine
 10
27.624498
 20
0.360701
 30
0.0
 11
27.686854
 21
0.341753
 31
0.0
  0
LINE
  5
301
100
AcDbEntity
  8
DR-100_R-SIDE_50P_
390
0
 62
     7
100
AcDbLine
 10
67.484597
 20
15.703779
 30
0.0
 11
67.471162
 21
15.685864
 31
0.0
  0
LINE
  5
300
100
AcDbEntity
  8
DR-100_R-SIDE_50P_
390
0
 62
     7
100
AcDbLine
 10
67.56349
 20
15.777504
 30
0.0
 11
67.484597
 21
15.703779
 31
0.0
  0
LINE
  5
2FF
100
AcDbEntity
  8
DR-100_R-SIDE_50P_
390
0
 62
     7
100
AcDbLine
 10
67.653063
 20
15.837104
 30
0.0
 11
67.56349
 21
15.777504
 31
0.0
  0
LINE
  5
2FE
100
AcDbEntity
  8
DR-100_R-SIDE_50P_
390
0
 62
     7
100
AcDbLine
 10
65.074064
 20
1.03284
 30
0.0
 11
65.108171
 21
1.291911
 31
0.0
  0
LINE
  5
2FD
100
AcDbEntity
  8
DR-100_R-SIDE_50P_
390
0
 62
     7
100
AcDbLine
 10
64.974501
 20
0.791683
 30
0.0
 11
65.074064
 21
1.03284
 31
0.0
  0
LINE
  5
2FC
100
AcDbEntity
  8
DR-100_R-SIDE_50P_
390
0
 62
     7
100
AcDbLine
 10
64.816026
 20
0.584633
 30
0.0
 11
64.974501
 21
0.791683
 31
0.0
  0
LINE
  5
2FB
100
AcDbEntity
  8
DR-100_R-SIDE_50P_
390
0
 62
     7
100
AcDbLine
 10
64.609321
 20
0.425814
 30
0.0
 11
64.816026
 21
0.584633
 31
0.0
  0
LINE
  5
2FA
100
AcDbEntity
  8
DR-100_R-SIDE_50P_
390
0
 62
     7
100
AcDbLine
 10
64.368853
 20
0.325562
 30
0.0
 11
64.609321
 21
0.425814
 31
0.0
  0
LINE
  5
2F9
100
AcDbEntity
  8
DR-100_R-SIDE_50P_
390
0
 62
     7
100
AcDbLine
 10
64.110471
 20
0.2918
 30
0.0
 11
64.368853
 21
0.325562
 31
0.0
  0
LINE
  5
2F8
100
AcDbEntity
  8
DR-100_R-SIDE_50P_
390
0
 62
     7
100
AcDbLine
 10
65.069241
 20
1.036285
 30
0.0
 11
65.103347
 21
1.295011
 31
0.0
  0
LINE
  5
2F7
100
AcDbEntity
  8
DR-100_R-SIDE_50P_
390
0
 62
     7
100
AcDbLine
 10
64.969333
 20
0.795128
 30
0.0
 11
65.069241
 21
1.036285
 31
0.0
  0
LINE
  5
2F6
100
AcDbEntity
  8
DR-100_R-SIDE_50P_
390
0
 62
     7
100
AcDbLine
 10
64.810514
 20
0.588078
 30
0.0
 11
64.969333
 21
0.795128
 31
0.0
  0
LINE
  5
2F5
100
AcDbEntity
  8
DR-100_R-SIDE_50P_
390
0
 62
     7
100
AcDbLine
 10
64.60312
 20
0.429259
 30
0.0
 11
64.810514
 21
0.588078
 31
0.0
  0
LINE
  5
2F4
100
AcDbEntity
  8
DR-100_R-SIDE_50P_
390
0
 62
     7
100
AcDbLine
 10
64.362307
 20
0.329351
 30
0.0
 11
64.60312
 21
0.429259
 31
0.0
  0
LINE
  5
2F3
100
AcDbEntity
  8
DR-100_R-SIDE_50P_
390
0
 62
     7
100
AcDbLine
 10
64.103236
 20
0.295245
 30
0.0
 11
64.362307
 21
0.329351
 31
0.0
  0
LINE
  5
2F2
100
AcDbEntity
  8
DR-100_R-SIDE_50P_
390
0
 62
     7
100
AcDbLine
 10
27.803988
 20
0.298001
 30
0.0
 11
27.828103
 21
0.263205
 31
0.0
  0
LINE
  5
2F1
100
AcDbEntity
  8
DR-100_R-SIDE_50P_
390
0
 62
     7
100
AcDbLine
 10
27.731641
 20
0.334519
 30
0.0
 11
27.803988
 21
0.298001
 31
0.0
  0
LINE
  5
2F0
100
AcDbEntity
  8
DR-100_R-SIDE_50P_
390
0
 62
     7
100
AcDbLine
 10
27.369561
 20
0.550182
 30
0.0
 11
27.12806
 21
0.558105
 31
0.0
  0
LINE
  5
2EF
100
AcDbEntity
  8
DR-100_R-SIDE_50P_
390
0
 62
     7
100
AcDbLine
 10
27.596937
 20
0.5271
 30
0.0
 11
27.369561
 21
0.550182
 31
0.0
  0
LINE
  5
2EE
100
AcDbEntity
  8
DR-100_R-SIDE_50P_
390
0
 62
     7
100
AcDbLine
 10
27.794686
 20
0.491615
 30
0.0
 11
27.596937
 21
0.5271
 31
0.0
  0
LINE
  5
2ED
100
AcDbEntity
  8
DR-100_R-SIDE_50P_
390
0
 62
     7
100
AcDbLine
 10
27.948337
 20
0.448896
 30
0.0
 11
27.794686
 21
0.491615
 31
0.0
  0
LINE
  5
2EC
100
AcDbEntity
  8
DR-100_R-SIDE_50P_
390
0
 62
     7
100
AcDbLine
 10
28.045489
 20
0.403765
 30
0.0
 11
27.948337
 21
0.448896
 31
0.0
  0
LINE
  5
2EB
100
AcDbEntity
  8
DR-100_R-SIDE_50P_
390
0
 62
     7
100
AcDbLine
 10
28.078217
 20
0.361735
 30
0.0
 11
28.045489
 21
0.403765
 31
0.0
  0
LINE
  5
2EA
100
AcDbEntity
  8
DR-100_R-SIDE_50P_
390
0
 62
     7
100
AcDbLine
 10
72.484465
 20
15.703779
 30
0.0
 11
72.471373
 21
15.685864
 31
0.0
  0
LINE
  5
2E9
100
AcDbEntity
  8
DR-100_R-SIDE_50P_
390
0
 62
     7
100
AcDbLine
 10
72.563357
 20
15.777504
 30
0.0
 11
72.484465
 21
15.703779
 31
0.0
  0
LINE
  5
2E8
100
AcDbEntity
  8
DR-100_R-SIDE_50P_
390
0
 62
     7
100
AcDbLine
 10
72.653274
 20
15.837104
 30
0.0
 11
72.563357
 21
15.777504
 31
0.0
  0
LINE
  5
2E7
100
AcDbEntity
  8
DR-100_R-SIDE_50P_
390
0
 62
     7
100
AcDbLine
 10
11.641322
 20
0.31247
 30
0.0
 11
11.628231
 21
0.361735
 31
0.0
  0
LINE
  5
2E6
100
AcDbEntity
  8
DR-100_R-SIDE_50P_
390
0
 62
     7
100
AcDbLine
 10
11.678185
 20
0.276297
 30
0.0
 11
11.641322
 21
0.31247
 31
0.0
  0
LINE
  5
2E5
100
AcDbEntity
  8
DR-100_R-SIDE_50P_
390
0
 62
     7
100
AcDbLine
 10
11.728139
 20
0.263205
 30
0.0
 11
11.678185
 21
0.276297
 31
0.0
  0
LINE
  5
2E4
100
AcDbEntity
  8
DR-100_R-SIDE_50P_
390
0
 62
     7
100
AcDbLine
 10
27.949026
 20
0.30558
 30
0.0
 11
27.862554
 21
0.351055
 31
0.0
  0
LINE
  5
2E3
100
AcDbEntity
  8
DR-100_R-SIDE_50P_
390
0
 62
     7
100
AcDbLine
 10
27.977965
 20
0.263205
 30
0.0
 11
27.949026
 21
0.30558
 31
0.0
  0
LINE
  5
2E2
100
AcDbEntity
  8
DR-100_R-SIDE_50P_
390
0
 62
     7
100
AcDbLine
 10
69.232639
 20
13.238813
 30
0.0
 11
69.328413
 21
13.241914
 31
0.0
  0
LINE
  5
2E1
100
AcDbEntity
  8
DR-100_R-SIDE_50P_
390
0
 62
     7
100
AcDbLine
 10
69.151679
 20
13.229856
 30
0.0
 11
69.232639
 21
13.238813
 31
0.0
  0
LINE
  5
2E0
100
AcDbEntity
  8
DR-100_R-SIDE_50P_
390
0
 62
     7
100
AcDbLine
 10
69.097591
 20
13.215042
 30
0.0
 11
69.151679
 21
13.229856
 31
0.0
  0
LINE
  5
2DF
100
AcDbEntity
  8
DR-100_R-SIDE_50P_
390
0
 62
     7
100
AcDbLine
 10
69.078299
 20
13.195405
 30
0.0
 11
69.097591
 21
13.215042
 31
0.0
  0
LINE
  5
2DE
100
AcDbEntity
  8
DR-100_R-SIDE_50P_
390
0
 62
     7
100
AcDbLine
 10
71.482631
 20
13.238813
 30
0.0
 11
71.578404
 21
13.241914
 31
0.0
  0
LINE
  5
2DD
100
AcDbEntity
  8
DR-100_R-SIDE_50P_
390
0
 62
     7
100
AcDbLine
 10
71.401671
 20
13.229856
 30
0.0
 11
71.482631
 21
13.238813
 31
0.0
  0
LINE
  5
2DC
100
AcDbEntity
  8
DR-100_R-SIDE_50P_
390
0
 62
     7
100
AcDbLine
 10
71.347583
 20
13.215042
 30
0.0
 11
71.401671
 21
13.229856
 31
0.0
  0
LINE
  5
2DB
100
AcDbEntity
  8
DR-100_R-SIDE_50P_
390
0
 62
     7
100
AcDbLine
 10
71.32829
 20
13.195405
 30
0.0
 11
71.347583
 21
13.215042
 31
0.0
  0
LINE
  5
2DA
100
AcDbEntity
  8
DR-100_R-SIDE_50P_
390
0
 62
     7
100
AcDbLine
 10
65.706584
 20
3.837492
 30
0.0
 11
65.703139
 21
3.83198
 31
0.0
  0
LINE
  5
2D9
100
AcDbEntity
  8
DR-100_R-SIDE_50P_
390
0
 62
     7
100
AcDbLine
 10
65.715541
 20
3.84576
 30
0.0
 11
65.706584
 21
3.837492
 31
0.0
  0
LINE
  5
2D8
100
AcDbEntity
  8
DR-100_R-SIDE_50P_
390
0
 62
     7
100
AcDbLine
 10
65.728632
 20
3.85644
 30
0.0
 11
65.715541
 21
3.84576
 31
0.0
  0
LINE
  5
2D7
100
AcDbEntity
  8
DR-100_R-SIDE_50P_
390
0
 62
     7
100
AcDbLine
 10
65.78651
 20
3.901571
 30
0.0
 11
65.728632
 21
3.85644
 31
0.0
  0
LINE
  5
2D6
100
AcDbEntity
  8
DR-100_R-SIDE_50P_
390
0
 62
     7
100
AcDbLine
 10
74.799913
 20
4.103798
 30
0.0
 11
74.488132
 21
4.090362
 31
0.0
  0
LINE
  5
2D5
100
AcDbEntity
  8
DR-100_R-SIDE_50P_
390
0
 62
     7
100
AcDbLine
 10
75.103082
 20
4.149618
 30
0.0
 11
74.799913
 21
4.103798
 31
0.0
  0
LINE
  5
2D4
100
AcDbEntity
  8
DR-100_R-SIDE_50P_
390
0
 62
     7
100
AcDbLine
 10
75.391436
 20
4.230233
 30
0.0
 11
75.103082
 21
4.149618
 31
0.0
  0
LINE
  5
2D3
100
AcDbEntity
  8
DR-100_R-SIDE_50P_
390
0
 62
     7
100
AcDbLine
 10
75.658431
 20
4.348055
 30
0.0
 11
75.391436
 21
4.230233
 31
0.0
  0
LINE
  5
2D2
100
AcDbEntity
  8
DR-100_R-SIDE_50P_
390
0
 62
     7
100
AcDbLine
 10
65.948774
 20
4.052466
 30
0.0
 11
65.891585
 21
3.992866
 31
0.0
  0
LINE
  5
2D1
100
AcDbEntity
  8
DR-100_R-SIDE_50P_
390
0
 62
     7
100
AcDbLine
 10
73.732967
 20
13.238813
 30
0.0
 11
73.828396
 21
13.241914
 31
0.0
  0
LINE
  5
2D0
100
AcDbEntity
  8
DR-100_R-SIDE_50P_
390
0
 62
     7
100
AcDbLine
 10
73.652007
 20
13.229856
 30
0.0
 11
73.732967
 21
13.238813
 31
0.0
  0
LINE
  5
2CF
100
AcDbEntity
  8
DR-100_R-SIDE_50P_
390
0
 62
     7
100
AcDbLine
 10
73.597575
 20
13.215042
 30
0.0
 11
73.652007
 21
13.229856
 31
0.0
  0
LINE
  5
2CE
100
AcDbEntity
  8
DR-100_R-SIDE_50P_
390
0
 62
     7
100
AcDbLine
 10
73.578282
 20
13.195405
 30
0.0
 11
73.597575
 21
13.215042
 31
0.0
  0
LINE
  5
2CD
100
AcDbEntity
  8
DR-100_R-SIDE_50P_
390
0
 62
     7
100
AcDbLine
 10
68.424419
 20
2.382284
 30
0.0
 11
68.431654
 21
2.394686
 31
0.0
  0
LINE
  5
2CC
100
AcDbEntity
  8
DR-100_R-SIDE_50P_
390
0
 62
     7
100
AcDbLine
 10
68.253198
 20
2.246547
 30
0.0
 11
68.424419
 21
2.382284
 31
0.0
  0
LINE
  5
2CB
100
AcDbEntity
  8
DR-100_R-SIDE_50P_
390
0
 62
     7
100
AcDbLine
 10
68.56119
 20
2.653068
 30
0.0
 11
68.575659
 21
2.791905
 31
0.0
  0
LINE
  5
2CA
100
AcDbEntity
  8
DR-100_R-SIDE_50P_
390
0
 62
     7
100
AcDbLine
 10
68.4413
 20
2.402265
 30
0.0
 11
68.56119
 21
2.653068
 31
0.0
  0
LINE
  5
2C9
100
AcDbEntity
  8
DR-100_R-SIDE_50P_
390
0
 62
     7
100
AcDbLine
 10
68.22357
 20
2.230699
 30
0.0
 11
68.4413
 21
2.402265
 31
0.0
  0
LINE
  5
2C8
100
AcDbEntity
  8
DR-100_R-SIDE_50P_
390
0
 62
     7
100
AcDbLine
 10
67.418452
 20
2.468066
 30
0.0
 11
67.460826
 21
2.411222
 31
0.0
  0
LINE
  5
2C7
100
AcDbEntity
  8
DR-100_R-SIDE_50P_
390
0
 62
     7
100
AcDbLine
 10
67.369876
 20
2.569697
 30
0.0
 11
67.418452
 21
2.468066
 31
0.0
  0
LINE
  5
2C6
100
AcDbEntity
  8
DR-100_R-SIDE_50P_
390
0
 62
     7
100
AcDbLine
 10
67.350239
 20
2.643422
 30
0.0
 11
67.369876
 21
2.569697
 31
0.0
  0
LINE
  5
2C5
100
AcDbEntity
  8
DR-100_R-SIDE_50P_
390
0
 62
     7
100
AcDbLine
 10
65.746891
 20
3.755154
 30
0.0
 11
65.775141
 21
3.742063
 31
0.0
  0
LINE
  5
2C4
100
AcDbEntity
  8
DR-100_R-SIDE_50P_
390
0
 62
     7
100
AcDbLine
 10
65.724154
 20
3.774102
 30
0.0
 11
65.746891
 21
3.755154
 31
0.0
  0
LINE
  5
2C3
100
AcDbEntity
  8
DR-100_R-SIDE_50P_
390
0
 62
     7
100
AcDbLine
 10
65.708995
 20
3.799596
 30
0.0
 11
65.724154
 21
3.774102
 31
0.0
  0
LINE
  5
2C2
100
AcDbEntity
  8
DR-100_R-SIDE_50P_
390
0
 62
     7
100
AcDbLine
 10
65.703139
 20
3.83198
 30
0.0
 11
65.708995
 21
3.799596
 31
0.0
  0
LINE
  5
2C1
100
AcDbEntity
  8
DR-100_R-SIDE_50P_
390
0
 62
     7
100
AcDbLine
 10
67.684068
 20
2.230699
 30
0.0
 11
67.95313
 21
2.166621
 31
0.0
  0
LINE
  5
2C0
100
AcDbEntity
  8
DR-100_R-SIDE_50P_
390
0
 62
     7
100
AcDbLine
 10
67.465305
 20
2.402265
 30
0.0
 11
67.684068
 21
2.230699
 31
0.0
  0
LINE
  5
2BF
100
AcDbEntity
  8
DR-100_R-SIDE_50P_
390
0
 62
     7
100
AcDbLine
 10
67.345416
 20
2.653068
 30
0.0
 11
67.465305
 21
2.402265
 31
0.0
  0
LINE
  5
2BE
100
AcDbEntity
  8
DR-100_R-SIDE_50P_
390
0
 62
     7
100
AcDbLine
 10
67.330602
 20
2.791905
 30
0.0
 11
67.345416
 21
2.653068
 31
0.0
  0
LINE
  5
2BD
100
AcDbEntity
  8
DR-100_R-SIDE_50P_
390
0
 62
     7
100
AcDbLine
 10
67.340248
 20
2.680973
 30
0.0
 11
67.344038
 21
2.665815
 31
0.0
  0
LINE
  5
2BC
100
AcDbEntity
  8
DR-100_R-SIDE_50P_
390
0
 62
     7
100
AcDbLine
 10
67.332324
 20
2.778814
 30
0.0
 11
67.340248
 21
2.680973
 31
0.0
  0
LINE
  5
2BB
100
AcDbEntity
  8
DR-100_R-SIDE_50P_
390
0
 62
     7
100
AcDbLine
 10
67.684068
 20
15.852951
 30
0.0
 11
67.95313
 21
15.916686
 31
0.0
  0
LINE
  5
2BA
100
AcDbEntity
  8
DR-100_R-SIDE_50P_
390
0
 62
     7
100
AcDbLine
 10
67.465305
 20
15.681386
 30
0.0
 11
67.684068
 21
15.852951
 31
0.0
  0
LINE
  5
2B9
100
AcDbEntity
  8
DR-100_R-SIDE_50P_
390
0
 62
     7
100
AcDbLine
 10
67.345416
 20
15.430583
 30
0.0
 11
67.465305
 21
15.681386
 31
0.0
  0
LINE
  5
2B8
100
AcDbEntity
  8
DR-100_R-SIDE_50P_
390
0
 62
     7
100
AcDbLine
 10
67.330602
 20
15.291745
 30
0.0
 11
67.345416
 21
15.430583
 31
0.0
  0
LINE
  5
2B7
100
AcDbEntity
  8
DR-100_R-SIDE_50P_
390
0
 62
     7
100
AcDbLine
 10
67.340248
 20
15.403022
 30
0.0
 11
67.332324
 21
15.304837
 31
0.0
  0
LINE
  5
2B6
100
AcDbEntity
  8
DR-100_R-SIDE_50P_
390
0
 62
     7
100
AcDbLine
 10
67.344382
 20
15.417836
 30
0.0
 11
67.340248
 21
15.403022
 31
0.0
  0
LINE
  5
2B5
100
AcDbEntity
  8
DR-100_R-SIDE_50P_
390
0
 62
     7
100
AcDbLine
 10
70.173839
 20
4.844838
 30
0.0
 11
70.07841
 21
4.841737
 31
0.0
  0
LINE
  5
2B4
100
AcDbEntity
  8
DR-100_R-SIDE_50P_
390
0
 62
     7
100
AcDbLine
 10
70.254454
 20
4.853795
 30
0.0
 11
70.173839
 21
4.844838
 31
0.0
  0
LINE
  5
2B3
100
AcDbEntity
  8
DR-100_R-SIDE_50P_
390
0
 62
     7
100
AcDbLine
 10
70.308887
 20
4.868609
 30
0.0
 11
70.254454
 21
4.853795
 31
0.0
  0
LINE
  5
2B2
100
AcDbEntity
  8
DR-100_R-SIDE_50P_
390
0
 62
     7
100
AcDbLine
 10
70.328179
 20
4.887901
 30
0.0
 11
70.308887
 21
4.868609
 31
0.0
  0
LINE
  5
2B1
100
AcDbEntity
  8
DR-100_R-SIDE_50P_
390
0
 62
     7
100
AcDbLine
 10
73.424287
 20
2.382284
 30
0.0
 11
73.431866
 21
2.394686
 31
0.0
  0
LINE
  5
2B0
100
AcDbEntity
  8
DR-100_R-SIDE_50P_
390
0
 62
     7
100
AcDbLine
 10
73.25341
 20
2.246547
 30
0.0
 11
73.424287
 21
2.382284
 31
0.0
  0
LINE
  5
2AF
100
AcDbEntity
  8
DR-100_R-SIDE_50P_
390
0
 62
     7
100
AcDbLine
 10
73.561057
 20
2.653068
 30
0.0
 11
73.575871
 21
2.791905
 31
0.0
  0
LINE
  5
2AE
100
AcDbEntity
  8
DR-100_R-SIDE_50P_
390
0
 62
     7
100
AcDbLine
 10
73.441512
 20
2.402265
 30
0.0
 11
73.561057
 21
2.653068
 31
0.0
  0
LINE
  5
2AD
100
AcDbEntity
  8
DR-100_R-SIDE_50P_
390
0
 62
     7
100
AcDbLine
 10
73.223437
 20
2.230699
 30
0.0
 11
73.441512
 21
2.402265
 31
0.0
  0
LINE
  5
2AC
100
AcDbEntity
  8
DR-100_R-SIDE_50P_
390
0
 62
     7
100
AcDbLine
 10
72.418663
 20
2.468066
 30
0.0
 11
72.461038
 21
2.411222
 31
0.0
  0
LINE
  5
2AB
100
AcDbEntity
  8
DR-100_R-SIDE_50P_
390
0
 62
     7
100
AcDbLine
 10
72.369743
 20
2.569697
 30
0.0
 11
72.418663
 21
2.468066
 31
0.0
  0
LINE
  5
2AA
100
AcDbEntity
  8
DR-100_R-SIDE_50P_
390
0
 62
     7
100
AcDbLine
 10
72.350106
 20
2.643422
 30
0.0
 11
72.369743
 21
2.569697
 31
0.0
  0
LINE
  5
2A9
100
AcDbEntity
  8
DR-100_R-SIDE_50P_
390
0
 62
     7
100
AcDbLine
 10
68.537763
 20
15.511198
 30
0.0
 11
68.461627
 21
15.638666
 31
0.0
  0
LINE
  5
2A8
100
AcDbEntity
  8
DR-100_R-SIDE_50P_
390
0
 62
     7
100
AcDbLine
 10
68.546376
 20
15.4609
 30
0.0
 11
68.537763
 21
15.511198
 31
0.0
  0
LINE
  5
2A7
100
AcDbEntity
  8
DR-100_R-SIDE_50P_
390
0
 62
     7
100
AcDbLine
 10
67.176261
 20
14.747765
 30
0.0
 11
67.17695
 21
14.699189
 31
0.0
  0
LINE
  5
2A6
100
AcDbEntity
  8
DR-100_R-SIDE_50P_
390
0
 62
     7
100
AcDbLine
 10
67.175572
 20
14.780149
 30
0.0
 11
67.176261
 21
14.747765
 31
0.0
  0
LINE
  5
2A5
100
AcDbEntity
  8
DR-100_R-SIDE_50P_
390
0
 62
     7
100
AcDbLine
 10
67.174539
 20
14.791862
 30
0.0
 11
67.175572
 21
14.780149
 31
0.0
  0
LINE
  5
2A4
100
AcDbEntity
  8
DR-100_R-SIDE_50P_
390
0
 62
     7
100
AcDbLine
 10
67.176261
 20
2.835658
 30
0.0
 11
67.17695
 21
2.884234
 31
0.0
  0
LINE
  5
2A3
100
AcDbEntity
  8
DR-100_R-SIDE_50P_
390
0
 62
     7
100
AcDbLine
 10
67.175572
 20
2.803274
 30
0.0
 11
67.176261
 21
2.835658
 31
0.0
  0
LINE
  5
2A2
100
AcDbEntity
  8
DR-100_R-SIDE_50P_
390
0
 62
     7
100
AcDbLine
 10
67.174539
 20
2.791905
 30
0.0
 11
67.175572
 21
2.803274
 31
0.0
  0
LINE
  5
2A1
100
AcDbEntity
  8
DR-100_R-SIDE_50P_
390
0
 62
     7
100
AcDbLine
 10
72.340115
 20
15.403022
 30
0.0
 11
72.332191
 21
15.304837
 31
0.0
  0
LINE
  5
2A0
100
AcDbEntity
  8
DR-100_R-SIDE_50P_
390
0
 62
     7
100
AcDbLine
 10
72.344249
 20
15.417836
 30
0.0
 11
72.340115
 21
15.403022
 31
0.0
  0
LINE
  5
29F
100
AcDbEntity
  8
DR-100_R-SIDE_50P_
390
0
 62
     7
100
AcDbLine
 10
68.537763
 20
2.572108
 30
0.0
 11
68.546376
 21
2.622751
 31
0.0
  0
LINE
  5
29E
100
AcDbEntity
  8
DR-100_R-SIDE_50P_
390
0
 62
     7
100
AcDbLine
 10
68.461627
 20
2.44464
 30
0.0
 11
68.537763
 21
2.572108
 31
0.0
  0
LINE
  5
29D
100
AcDbEntity
  8
DR-100_R-SIDE_50P_
390
0
 62
     7
100
AcDbLine
 10
74.673823
 20
4.844838
 30
0.0
 11
74.578394
 21
4.841737
 31
0.0
  0
LINE
  5
29C
100
AcDbEntity
  8
DR-100_R-SIDE_50P_
390
0
 62
     7
100
AcDbLine
 10
74.754438
 20
4.853795
 30
0.0
 11
74.673823
 21
4.844838
 31
0.0
  0
LINE
  5
29B
100
AcDbEntity
  8
DR-100_R-SIDE_50P_
390
0
 62
     7
100
AcDbLine
 10
74.80887
 20
4.868609
 30
0.0
 11
74.754438
 21
4.853795
 31
0.0
  0
LINE
  5
29A
100
AcDbEntity
  8
DR-100_R-SIDE_50P_
390
0
 62
     7
100
AcDbLine
 10
74.828507
 20
4.887901
 30
0.0
 11
74.80887
 21
4.868609
 31
0.0
  0
LINE
  5
299
100
AcDbEntity
  8
DR-100_R-SIDE_50P_
390
0
 62
     7
100
AcDbLine
 10
72.683936
 20
2.230699
 30
0.0
 11
72.953342
 21
2.166621
 31
0.0
  0
LINE
  5
298
100
AcDbEntity
  8
DR-100_R-SIDE_50P_
390
0
 62
     7
100
AcDbLine
 10
72.465172
 20
2.402265
 30
0.0
 11
72.683936
 21
2.230699
 31
0.0
  0
LINE
  5
297
100
AcDbEntity
  8
DR-100_R-SIDE_50P_
390
0
 62
     7
100
AcDbLine
 10
72.345627
 20
2.653068
 30
0.0
 11
72.465172
 21
2.402265
 31
0.0
  0
LINE
  5
296
100
AcDbEntity
  8
DR-100_R-SIDE_50P_
390
0
 62
     7
100
AcDbLine
 10
72.330813
 20
2.791905
 30
0.0
 11
72.345627
 21
2.653068
 31
0.0
  0
LINE
  5
295
100
AcDbEntity
  8
DR-100_R-SIDE_50P_
390
0
 62
     7
100
AcDbLine
 10
72.340115
 20
2.680973
 30
0.0
 11
72.344249
 21
2.665815
 31
0.0
  0
LINE
  5
294
100
AcDbEntity
  8
DR-100_R-SIDE_50P_
390
0
 62
     7
100
AcDbLine
 10
72.332191
 20
2.778814
 30
0.0
 11
72.340115
 21
2.680973
 31
0.0
  0
LINE
  5
293
100
AcDbEntity
  8
DR-100_R-SIDE_50P_
390
0
 62
     7
100
AcDbLine
 10
72.683936
 20
15.852951
 30
0.0
 11
72.953342
 21
15.916686
 31
0.0
  0
LINE
  5
292
100
AcDbEntity
  8
DR-100_R-SIDE_50P_
390
0
 62
     7
100
AcDbLine
 10
72.465172
 20
15.681386
 30
0.0
 11
72.683936
 21
15.852951
 31
0.0
  0
LINE
  5
291
100
AcDbEntity
  8
DR-100_R-SIDE_50P_
390
0
 62
     7
100
AcDbLine
 10
72.345627
 20
15.430583
 30
0.0
 11
72.465172
 21
15.681386
 31
0.0
  0
LINE
  5
290
100
AcDbEntity
  8
DR-100_R-SIDE_50P_
390
0
 62
     7
100
AcDbLine
 10
72.330813
 20
15.291745
 30
0.0
 11
72.345627
 21
15.430583
 31
0.0
  0
LINE
  5
28F
100
AcDbEntity
  8
DR-100_R-SIDE_50P_
390
0
 62
     7
100
AcDbLine
 10
73.53763
 20
2.572108
 30
0.0
 11
73.546243
 21
2.622751
 31
0.0
  0
LINE
  5
28E
100
AcDbEntity
  8
DR-100_R-SIDE_50P_
390
0
 62
     7
100
AcDbLine
 10
73.461838
 20
2.44464
 30
0.0
 11
73.53763
 21
2.572108
 31
0.0
  0
LINE
  5
28D
100
AcDbEntity
  8
DR-100_R-SIDE_50P_
390
0
 62
     7
100
AcDbLine
 10
73.53763
 20
15.511198
 30
0.0
 11
73.461838
 21
15.638666
 31
0.0
  0
LINE
  5
28C
100
AcDbEntity
  8
DR-100_R-SIDE_50P_
390
0
 62
     7
100
AcDbLine
 10
73.546243
 20
15.4609
 30
0.0
 11
73.53763
 21
15.511198
 31
0.0
  0
LINE
  5
28B
100
AcDbEntity
  8
DR-100_R-SIDE_50P_
390
0
 62
     7
100
AcDbLine
 10
74.487443
 20
14.747765
 30
0.0
 11
74.487788
 21
14.699189
 31
0.0
  0
LINE
  5
28A
100
AcDbEntity
  8
DR-100_R-SIDE_50P_
390
0
 62
     7
100
AcDbLine
 10
74.48641
 20
14.780149
 30
0.0
 11
74.487443
 21
14.747765
 31
0.0
  0
LINE
  5
289
100
AcDbEntity
  8
DR-100_R-SIDE_50P_
390
0
 62
     7
100
AcDbLine
 10
74.48572
 20
14.791862
 30
0.0
 11
74.48641
 21
14.780149
 31
0.0
  0
LINE
  5
288
100
AcDbEntity
  8
DR-100_R-SIDE_50P_
390
0
 62
     7
100
AcDbLine
 10
74.488132
 20
13.993289
 30
0.0
 11
74.488477
 21
13.916463
 31
0.0
  0
LINE
  5
287
100
AcDbEntity
  8
DR-100_R-SIDE_50P_
390
0
 62
     7
100
AcDbLine
 10
74.487788
 20
2.884234
 30
0.0
 11
74.488132
 21
4.090362
 31
0.0
  0
LINE
  5
286
100
AcDbEntity
  8
DR-100_R-SIDE_50P_
390
0
 62
     7
100
AcDbLine
 10
74.487443
 20
2.835658
 30
0.0
 11
74.487788
 21
2.884234
 31
0.0
  0
LINE
  5
285
100
AcDbEntity
  8
DR-100_R-SIDE_50P_
390
0
 62
     7
100
AcDbLine
 10
74.48641
 20
2.803274
 30
0.0
 11
74.487443
 21
2.835658
 31
0.0
  0
LINE
  5
284
100
AcDbEntity
  8
DR-100_R-SIDE_50P_
390
0
 62
     7
100
AcDbLine
 10
74.48572
 20
2.791905
 30
0.0
 11
74.48641
 21
2.803274
 31
0.0
  0
LINE
  5
283
100
AcDbEntity
  8
DR-100_R-SIDE_50P_
390
0
 62
     7
100
AcDbLine
 10
75.896487
 20
4.507563
 30
0.0
 11
75.658431
 21
4.348055
 31
0.0
  0
LINE
  5
282
100
AcDbEntity
  8
DR-100_R-SIDE_50P_
390
0
 62
     7
100
AcDbLine
 10
76.101126
 20
4.71668
 30
0.0
 11
75.896487
 21
4.507563
 31
0.0
  0
LINE
  5
281
100
AcDbEntity
  8
DR-100_R-SIDE_50P_
390
0
 62
     7
100
AcDbLine
 10
76.14729
 20
4.791783
 30
0.0
 11
76.101126
 21
4.71668
 31
0.0
  0
SPLINE
  5
280
100
AcDbEntity
  8
DR-100_R-SIDE_50P_
390
0
 62
     7
100
AcDbSpline
210
0.0
220
0.0
230
1.0
 70
     8
 71
     3
 72
     8
 73
     4
 74
     0
 42
0.00000001
 43
0.00000001
 40
0.0
 40
0.0
 40
0.0
 40
0.0
 40
1.0
 40
1.0
 40
1.0
 40
1.0
 10
59.7617268880208314
 20
2.7919053819444444
 30
0.0
 10
58.85980088975694
 20
2.7919053819444444
 30
0.0
 10
57.9640760633680472
 20
2.6482449001736108
 30
0.0
 10
57.1072808159722172
 20
2.366780598958333
 30
0.0
  0
SPLINE
  5
27F
100
AcDbEntity
  8
DR-100_R-SIDE_50P_
390
0
 62
     7
100
AcDbSpline
210
0.0
220
0.0
230
1.0
 70
     8
 71
     3
 72
     8
 73
     4
 74
     0
 42
0.00000001
 43
0.00000001
 40
0.0
 40
0.0
 40
0.0
 40
0.0
 40
1.0
 40
1.0
 40
1.0
 40
1.0
 10
49.3868218315972172
 20
3.6166612413194441
 30
0.0
 10
47.9216227213541615
 20
4.7042778862847214
 30
0.0
 10
46.1453314887152715
 20
5.2916666666666661
 30
0.0
 10
44.32046440972222
 20
5.2916666666666661
 30
0.0
  0
SPLINE
  5
27E
100
AcDbEntity
  8
DR-100_R-SIDE_50P_
390
0
 62
     7
100
AcDbSpline
210
0.0
220
0.0
230
1.0
 70
     8
 71
     3
 72
     8
 73
     4
 74
     0
 42
0.00000001
 43
0.00000001
 40
0.0
 40
0.0
 40
0.0
 40
0.0
 40
1.0
 40
1.0
 40
1.0
 40
1.0
 10
49.4760498046874986
 20
3.7372395833333329
 30
0.0
 10
47.9850124782986072
 20
4.8438042534722214
 30
0.0
 10
46.1773708767361057
 20
5.4418728298611105
 30
0.0
 10
44.32046440972222
 20
5.4418728298611105
 30
0.0
  0
SPLINE
  5
27D
100
AcDbEntity
  8
DR-100_R-SIDE_50P_
390
0
 62
     7
100
AcDbSpline
210
0.0
220
0.0
230
1.0
 70
     8
 71
     3
 72
     8
 73
     4
 74
     0
 42
0.00000001
 43
0.00000001
 40
0.0
 40
0.0
 40
0.0
 40
0.0
 40
1.0
 40
1.0
 40
1.0
 40
1.0
 10
59.7617268880208314
 20
2.9417670355902774
 30
0.0
 10
58.8439534505208286
 20
2.9417670355902774
 30
0.0
 10
57.9323811848958314
 20
2.7956949869791665
 30
0.0
 10
57.0604275173611057
 20
2.5094075520833332
 30
0.0
  0
SPLINE
  5
27C
100
AcDbEntity
  8
DR-100_R-SIDE_50P_
390
0
 62
     7
100
AcDbSpline
210
0.0
220
0.0
230
1.0
 70
     8
 71
     3
 72
    11
 73
     7
 74
     0
 42
0.00000001
 43
0.00000001
 40
0.0
 40
0.0
 40
0.0
 40
0.0
 40
1.0
 40
1.0
 40
1.0
 40
2.0
 40
2.0
 40
2.0
 40
2.0
 10
76.3033528645833314
 20
2.7919053819444444
 30
0.0
 10
76.3429714626736029
 20
2.7919053819444444
 30
0.0
 10
76.3812120225694429
 20
2.8074083116319444
 30
0.0
 10
76.4094618055555515
 20
2.8356580946180552
 30
0.0
 10
76.4373670789930486
 20
2.8639078776041664
 30
0.0
 10
76.45321451822916
 20
2.9018039279513888
 30
0.0
 10
76.45321451822916
 20
2.9417670355902774
 30
0.0
  0
SPLINE
  5
27B
100
AcDbEntity
  8
DR-100_R-SIDE_50P_
390
0
 62
     7
100
AcDbSpline
210
0.0
220
0.0
230
1.0
 70
     8
 71
     3
 72
    14
 73
    10
 74
     0
 42
0.00000001
 43
0.00000001
 40
0.0
 40
0.0
 40
0.0
 40
0.0
 40
1.0
 40
1.0
 40
1.0
 40
2.0
 40
2.0
 40
2.0
 40
3.0
 40
3.0
 40
3.0
 40
3.0
 10
72.3266791449652686
 20
3.0427083333333331
 30
0.0
 10
72.2140245225694315
 20
2.7608995225694444
 30
0.0
 10
72.3029079861111086
 20
2.4384385850694441
 30
0.0
 10
72.5444091796874915
 20
2.2548149956597219
 30
0.0
 10
72.7862548828125
 20
2.0708468967013887
 30
0.0
 10
73.1204291449652715
 20
2.0708468967013887
 30
0.0
 10
73.3619303385416544
 20
2.2548149956597219
 30
0.0
 10
73.6037760416666629
 20
2.4384385850694441
 30
0.0
 10
73.6926595052083258
 20
2.7608995225694444
 30
0.0
 10
73.5800048828124886
 20
3.0427083333333331
 30
0.0
  0
SPLINE
  5
27A
100
AcDbEntity
  8
DR-100_R-SIDE_50P_
390
0
 62
     7
100
AcDbSpline
210
0.0
220
0.0
230
1.0
 70
     8
 71
     3
 72
    11
 73
     7
 74
     0
 42
0.00000001
 43
0.00000001
 40
0.0
 40
0.0
 40
0.0
 40
0.0
 40
1.0
 40
1.0
 40
1.0
 40
2.0
 40
2.0
 40
2.0
 40
2.0
 10
74.8533121744791572
 20
0.2917995876736111
 30
0.0
 10
75.1185845269097143
 20
0.2917995876736111
 30
0.0
 10
75.37283257378472
 20
0.3972195095486111
 30
0.0
 10
75.5602457682291657
 20
0.5846327039930554
 30
0.0
 10
75.7480034722222086
 20
0.7720458984374999
 30
0.0
 10
75.85342339409722
 20
1.0266384548611109
 30
0.0
 10
75.85342339409722
 20
1.2919108072916665
 30
0.0
  0
SPLINE
  5
279
100
AcDbEntity
  8
DR-100_R-SIDE_50P_
390
0
 62
     7
100
AcDbSpline
210
0.0
220
0.0
230
1.0
 70
     8
 71
     3
 72
    11
 73
     7
 74
     0
 42
0.00000001
 43
0.00000001
 40
0.0
 40
0.0
 40
0.0
 40
0.0
 40
1.0
 40
1.0
 40
1.0
 40
2.0
 40
2.0
 40
2.0
 40
2.0
 10
65.5532769097222143
 20
2.7919053819444444
 30
0.0
 10
65.5928955078125
 20
2.7919053819444444
 30
0.0
 10
65.6311360677083258
 20
2.8074083116319444
 30
0.0
 10
65.6593858506944343
 20
2.8356580946180552
 30
0.0
 10
65.6872911241319315
 20
2.8639078776041664
 30
0.0
 10
65.7031385633680429
 20
2.9018039279513888
 30
0.0
 10
65.7031385633680429
 20
2.9417670355902774
 30
0.0
  0
SPLINE
  5
278
100
AcDbEntity
  8
DR-100_R-SIDE_50P_
390
0
 62
     7
100
AcDbSpline
210
0.0
220
0.0
230
1.0
 70
     8
 71
     3
 72
    14
 73
    10
 74
     0
 42
0.00000001
 43
0.00000001
 40
0.0
 40
0.0
 40
0.0
 40
0.0
 40
1.0
 40
1.0
 40
1.0
 40
2.0
 40
2.0
 40
2.0
 40
3.0
 40
3.0
 40
3.0
 40
3.0
 10
67.32681206597222
 20
3.0427083333333331
 30
0.0
 10
67.2138129340277715
 20
2.7608995225694444
 30
0.0
 10
67.3030409071180458
 20
2.4384385850694441
 30
0.0
 10
67.5445421006944429
 20
2.2548149956597219
 30
0.0
 10
67.7860432942708258
 20
2.0708468967013887
 30
0.0
 10
68.1205620659722229
 20
2.0708468967013887
 30
0.0
 10
68.3620632595486057
 20
2.2548149956597219
 30
0.0
 10
68.6035644531249886
 20
2.4384385850694441
 30
0.0
 10
68.6927924262152771
 20
2.7608995225694444
 30
0.0
 10
68.5797932942708286
 20
3.0427083333333331
 30
0.0
  0
SPLINE
  5
277
100
AcDbEntity
  8
DR-100_R-SIDE_50P_
390
0
 62
     7
100
AcDbSpline
210
0.0
220
0.0
230
1.0
 70
     8
 71
     3
 72
     8
 73
     4
 74
     0
 42
0.00000001
 43
0.00000001
 40
0.0
 40
0.0
 40
0.0
 40
0.0
 40
1.0
 40
1.0
 40
1.0
 40
1.0
 10
65.7031385633680429
 20
4.6419216579861109
 30
0.0
 10
65.7031385633680429
 20
4.5313340928819441
 30
0.0
 10
65.7927110460069429
 20
4.4417616102430548
 30
0.0
 10
65.9032986111111114
 20
4.4417616102430548
 30
0.0
  0
SPLINE
  5
276
100
AcDbEntity
  8
DR-100_R-SIDE_50P_
390
0
 62
     7
100
AcDbSpline
210
0.0
220
0.0
230
1.0
 70
     8
 71
     3
 72
     8
 73
     4
 74
     0
 42
0.00000001
 43
0.00000001
 40
0.0
 40
0.0
 40
0.0
 40
0.0
 40
1.0
 40
1.0
 40
1.0
 40
1.0
 10
62.9033094618055486
 20
0.1898247612847222
 30
0.0
 10
63.00321723090277
 20
0.1843126085069444
 30
0.0
 10
63.1034695095486029
 20
0.1843126085069444
 30
0.0
 10
63.2033772786458243
 20
0.1898247612847222
 30
0.0
  0
SPLINE
  5
275
100
AcDbEntity
  8
DR-100_R-SIDE_50P_
390
0
 62
     7
100
AcDbSpline
210
0.0
220
0.0
230
1.0
 70
     8
 71
     3
 72
     8
 73
     4
 74
     0
 42
0.00000001
 43
0.00000001
 40
0.0
 40
0.0
 40
0.0
 40
0.0
 40
1.0
 40
1.0
 40
1.0
 40
1.0
 10
62.5532877604166586
 20
0.1898247612847222
 30
0.0
 10
62.63597005208333
 20
0.1750108506944444
 30
0.0
 10
62.7193413628472172
 20
0.1639865451388889
 30
0.0
 10
62.8030571831597157
 20
0.1564073350694444
 30
0.0
  0
SPLINE
  5
274
100
AcDbEntity
  8
DR-100_R-SIDE_50P_
390
0
 62
     7
100
AcDbSpline
210
0.0
220
0.0
230
1.0
 70
     8
 71
     3
 72
     8
 73
     4
 74
     0
 42
0.00000001
 43
0.00000001
 40
0.0
 40
0.0
 40
0.0
 40
0.0
 40
1.0
 40
1.0
 40
1.0
 40
1.0
 10
63.3032850477430529
 20
0.1564073350694444
 30
0.0
 10
63.3870008680555515
 20
0.1636420355902778
 30
0.0
 10
63.4703721788194386
 20
0.1750108506944444
 30
0.0
 10
63.5530544704861029
 20
0.1894802517361111
 30
0.0
  0
SPLINE
  5
273
100
AcDbEntity
  8
DR-100_R-SIDE_50P_
390
0
 62
     7
100
AcDbSpline
210
0.0
220
0.0
230
1.0
 70
     8
 71
     3
 72
    11
 73
     7
 74
     0
 42
0.00000001
 43
0.00000001
 40
0.0
 40
0.0
 40
0.0
 40
0.0
 40
1.0
 40
1.0
 40
1.0
 40
2.0
 40
2.0
 40
2.0
 40
2.0
 10
59.20327690972222
 20
0.1915473090277778
 30
0.0
 10
59.4392659505208272
 20
-0.1229899088541666
 30
0.0
 10
59.8099582248263815
 20
-0.3083360460069444
 30
0.0
 10
60.2033881293402757
 20
-0.3083360460069444
 30
0.0
 10
60.5968180338541629
 20
-0.3083360460069444
 30
0.0
 10
60.9671657986111057
 20
-0.1229899088541666
 30
0.0
 10
61.2034993489583243
 20
0.1915473090277778
 30
0.0
  0
SPLINE
  5
272
100
AcDbEntity
  8
DR-100_R-SIDE_50P_
390
0
 62
     7
100
AcDbSpline
210
0.0
220
0.0
230
1.0
 70
     8
 71
     3
 72
    11
 73
     7
 74
     0
 42
0.00000001
 43
0.00000001
 40
0.0
 40
0.0
 40
0.0
 40
0.0
 40
1.0
 40
1.0
 40
1.0
 40
2.0
 40
2.0
 40
2.0
 40
2.0
 10
27.9779649522569436
 20
0.1415934244791666
 30
0.0
 10
28.00483669704861
 20
0.1415934244791666
 30
0.0
 10
28.0299858940972193
 20
0.1522732204861111
 30
0.0
 10
28.04893391927083
 20
0.1708767361111111
 30
0.0
 10
28.0675374348958293
 20
0.1898247612847222
 30
0.0
 10
28.0782172309027764
 20
0.2149739583333333
 30
0.0
 10
28.0782172309027764
 20
0.241845703125
 30
0.0
  0
SPLINE
  5
271
100
AcDbEntity
  8
DR-100_R-SIDE_50P_
390
0
 62
     7
100
AcDbSpline
210
0.0
220
0.0
230
1.0
 70
     8
 71
     3
 72
    11
 73
     7
 74
     0
 42
0.00000001
 43
0.00000001
 40
0.0
 40
0.0
 40
0.0
 40
0.0
 40
1.0
 40
1.0
 40
1.0
 40
2.0
 40
2.0
 40
2.0
 40
2.0
 10
27.7281955295138864
 20
0.241845703125
 30
0.0
 10
27.7281955295138864
 20
0.2149739583333333
 30
0.0
 10
27.73887532552083
 20
0.1894802517361111
 30
0.0
 10
27.7578233506944407
 20
0.1705322265625
 30
0.0
 10
27.7767713758680515
 20
0.1519287109375
 30
0.0
 10
27.8026095920138872
 20
0.1412489149305556
 30
0.0
 10
27.8294813368055536
 20
0.1415934244791666
 30
0.0
  0
SPLINE
  5
270
100
AcDbEntity
  8
DR-100_R-SIDE_50P_
390
0
 62
     7
100
AcDbSpline
210
0.0
220
0.0
230
1.0
 70
     8
 71
     3
 72
    11
 73
     7
 74
     0
 42
0.00000001
 43
0.00000001
 40
0.0
 40
0.0
 40
0.0
 40
0.0
 40
1.0
 40
1.0
 40
1.0
 40
2.0
 40
2.0
 40
2.0
 40
2.0
 10
33.6282660590277729
 20
0.0416856553819444
 30
0.0
 10
33.65444878472222
 20
0.0416856553819444
 30
0.0
 10
33.6799424913194443
 20
0.0523654513888889
 30
0.0
 10
33.6988905164930515
 20
0.0709689670138889
 30
0.0
 10
33.7174940321180543
 20
0.0899169921875
 30
0.0
 10
33.7281738281249943
 20
0.1154106987847222
 30
0.0
 10
33.7281738281249943
 20
0.1415934244791666
 30
0.0
  0
SPLINE
  5
26F
100
AcDbEntity
  8
DR-100_R-SIDE_50P_
390
0
 62
     7
100
AcDbSpline
210
0.0
220
0.0
230
1.0
 70
     8
 71
     3
 72
     8
 73
     4
 74
     0
 42
0.00000001
 43
0.00000001
 40
0.0
 40
0.0
 40
0.0
 40
0.0
 40
1.0
 40
1.0
 40
1.0
 40
1.0
 10
29.4779595269097179
 20
0.1415934244791666
 30
0.0
 10
29.4779595269097179
 20
0.0864718967013889
 30
0.0
 10
29.5230902777777757
 20
0.0416856553819444
 30
0.0
 10
29.5782118055555543
 20
0.0416856553819444
 30
0.0
  0
SPLINE
  5
26E
100
AcDbEntity
  8
DR-100_R-SIDE_50P_
390
0
 62
     7
100
AcDbSpline
210
0.0
220
0.0
230
1.0
 70
     8
 71
     3
 72
    11
 73
     7
 74
     0
 42
0.00000001
 43
0.00000001
 40
0.0
 40
0.0
 40
0.0
 40
0.0
 40
1.0
 40
1.0
 40
1.0
 40
2.0
 40
2.0
 40
2.0
 40
2.0
 10
11.6282307942708325
 20
0.241845703125
 30
0.0
 10
11.6282307942708325
 20
0.2149739583333333
 30
0.0
 10
11.6389105902777761
 20
0.1891357421875
 30
0.0
 10
11.6582031249999982
 20
0.1701877170138889
 30
0.0
 10
11.6771511501736107
 20
0.1515842013888889
 30
0.0
 10
11.7029893663194429
 20
0.1412489149305556
 30
0.0
 10
11.7298611111111093
 20
0.1415934244791666
 30
0.0
  0
SPLINE
  5
26D
100
AcDbEntity
  8
DR-100_R-SIDE_50P_
390
0
 62
     7
100
AcDbSpline
210
0.0
220
0.0
230
1.0
 70
     8
 71
     3
 72
    11
 73
     7
 74
     0
 42
0.00000001
 43
0.00000001
 40
0.0
 40
0.0
 40
0.0
 40
0.0
 40
1.0
 40
1.0
 40
1.0
 40
2.0
 40
2.0
 40
2.0
 40
2.0
 10
11.8783447265624993
 20
0.1415934244791666
 30
0.0
 10
11.9045274522569429
 20
0.1415934244791666
 30
0.0
 10
11.9300211588541654
 20
0.1522732204861111
 30
0.0
 10
11.9489691840277761
 20
0.1708767361111111
 30
0.0
 10
11.9675726996527771
 20
0.1898247612847222
 30
0.0
 10
11.9782524956597207
 20
0.2149739583333333
 30
0.0
 10
11.9782524956597207
 20
0.241845703125
 30
0.0
  0
SPLINE
  5
26C
100
AcDbEntity
  8
DR-100_R-SIDE_50P_
390
0
 62
     7
100
AcDbSpline
210
0.0
220
0.0
230
1.0
 70
     8
 71
     3
 72
     8
 73
     4
 74
     0
 42
0.00000001
 43
0.00000001
 40
0.0
 40
0.0
 40
0.0
 40
0.0
 40
1.0
 40
1.0
 40
1.0
 40
1.0
 10
0.2032606336805555
 20
2.6416992187499999
 30
0.0
 10
0.2032606336805555
 20
2.5865776909722218
 30
0.0
 10
0.248046875
 20
2.5417914496527776
 30
0.0
 10
0.3031684027777777
 20
2.5417914496527776
 30
0.0
  0
SPLINE
  5
26B
100
AcDbEntity
  8
DR-100_R-SIDE_50P_
390
0
 62
     7
100
AcDbSpline
210
0.0
220
0.0
230
1.0
 70
     8
 71
     3
 72
     8
 73
     4
 74
     0
 42
0.00000001
 43
0.00000001
 40
0.0
 40
0.0
 40
0.0
 40
0.0
 40
1.0
 40
1.0
 40
1.0
 40
1.0
 10
0.453030056423611
 20
1.6915418836805554
 30
0.0
 10
0.453030056423611
 20
1.6088595920138888
 30
0.0
 10
0.5202094184027777
 20
1.5416802300347221
 30
0.0
 10
0.6032362196180555
 20
1.5416802300347221
 30
0.0
  0
SPLINE
  5
26A
100
AcDbEntity
  8
DR-100_R-SIDE_50P_
390
0
 62
     7
100
AcDbSpline
210
0.0
220
0.0
230
1.0
 70
     8
 71
     3
 72
     8
 73
     4
 74
     0
 42
0.00000001
 43
0.00000001
 40
0.0
 40
0.0
 40
0.0
 40
0.0
 40
1.0
 40
1.0
 40
1.0
 40
1.0
 10
1.0531656901041666
 20
1.2919108072916665
 30
0.0
 10
1.0531656901041666
 20
0.7396620008680554
 30
0.0
 10
1.501028103298611
 20
0.2917995876736111
 30
0.0
 10
2.0532769097222219
 20
0.2917995876736111
 30
0.0
  0
SPLINE
  5
269
100
AcDbEntity
  8
DR-100_R-SIDE_50P_
390
0
 62
     7
100
AcDbSpline
210
0.0
220
0.0
230
1.0
 70
     8
 71
     3
 72
    11
 73
     7
 74
     0
 42
0.00000001
 43
0.00000001
 40
0.0
 40
0.0
 40
0.0
 40
0.0
 40
1.0
 40
1.0
 40
1.0
 40
2.0
 40
2.0
 40
2.0
 40
2.0
 10
3.9532470703124996
 20
0.1915473090277778
 30
0.0
 10
4.1892361111111107
 20
-0.1229899088541666
 30
0.0
 10
4.5595838758680554
 20
-0.3083360460069444
 30
0.0
 10
4.9530137803819443
 20
-0.3083360460069444
 30
0.0
 10
5.3467881944444438
 20
-0.3083360460069444
 30
0.0
 10
5.7171359592013884
 20
-0.1229899088541666
 30
0.0
 10
5.9531249999999991
 20
0.1915473090277778
 30
0.0
  0
SPLINE
  5
268
100
AcDbEntity
  8
DR-100_R-SIDE_50P_
390
0
 62
     7
100
AcDbSpline
210
0.0
220
0.0
230
1.0
 70
     8
 71
     3
 72
     8
 73
     4
 74
     0
 42
0.00000001
 43
0.00000001
 40
0.0
 40
0.0
 40
0.0
 40
0.0
 40
1.0
 40
1.0
 40
1.0
 40
1.0
 10
0.453030056423611
 20
5.4418728298611105
 30
0.0
 10
0.453030056423611
 20
5.358846028645833
 30
0.0
 10
0.5202094184027777
 20
5.2916666666666661
 30
0.0
 10
0.6032362196180555
 20
5.2916666666666661
 30
0.0
  0
SPLINE
  5
267
100
AcDbEntity
  8
DR-100_R-SIDE_50P_
390
0
 62
     7
100
AcDbSpline
210
0.0
220
0.0
230
1.0
 70
     8
 71
     3
 72
    11
 73
     7
 74
     0
 42
0.00000001
 43
0.00000001
 40
0.0
 40
0.0
 40
0.0
 40
0.0
 40
1.0
 40
1.0
 40
1.0
 40
2.0
 40
2.0
 40
2.0
 40
2.0
 10
53.0403455946180529
 20
6.9432454427083323
 30
0.0
 10
53.13267415364583
 20
6.9056939019097214
 30
0.0
 10
53.2377495659722157
 20
6.9163736979166659
 30
0.0
 10
53.3207763671874986
 20
6.9721842447916664
 30
0.0
 10
53.4034586588541629
 20
7.0276502821180546
 30
0.0
 10
53.45341254340277
 20
7.1210123697916661
 30
0.0
 10
53.45341254340277
 20
7.2212646484374989
 30
0.0
  0
SPLINE
  5
266
100
AcDbEntity
  8
DR-100_R-SIDE_50P_
390
0
 62
     7
100
AcDbSpline
210
0.0
220
0.0
230
1.0
 70
     8
 71
     3
 72
    11
 73
     7
 74
     0
 42
0.00000001
 43
0.00000001
 40
0.0
 40
0.0
 40
0.0
 40
0.0
 40
1.0
 40
1.0
 40
1.0
 40
2.0
 40
2.0
 40
2.0
 40
2.0
 10
55.45329047309027
 20
7.2212646484374989
 30
0.0
 10
55.45329047309027
 20
7.1210123697916661
 30
0.0
 10
55.5028998480902729
 20
7.0279947916666661
 30
0.0
 10
55.5855821397569372
 20
6.9721842447916664
 30
0.0
 10
55.66860894097222
 20
6.9163736979166659
 30
0.0
 10
55.7736843532986057
 20
6.9056939019097214
 30
0.0
 10
55.8663574218749943
 20
6.9432454427083323
 30
0.0
  0
SPLINE
  5
265
100
AcDbEntity
  8
DR-100_R-SIDE_50P_
390
0
 62
     7
100
AcDbSpline
210
0.0
220
0.0
230
1.0
 70
     8
 71
     3
 72
    11
 73
     7
 74
     0
 42
0.00000001
 43
0.00000001
 40
0.0
 40
0.0
 40
0.0
 40
0.0
 40
1.0
 40
1.0
 40
1.0
 40
2.0
 40
2.0
 40
2.0
 40
2.0
 10
52.9835015190972172
 20
6.8040635850694438
 30
0.0
 10
53.1223388671874943
 20
6.7475640190972213
 30
0.0
 10
53.2801242404513857
 20
6.7641004774305546
 30
0.0
 10
53.4044921874999972
 20
6.847816297743055
 30
0.0
 10
53.5288601345486086
 20
6.9311876085069439
 30
0.0
 10
53.6032741970486057
 20
7.0710584852430545
 30
0.0
 10
53.6032741970486057
 20
7.2212646484374989
 30
0.0
  0
SPLINE
  5
264
100
AcDbEntity
  8
DR-100_R-SIDE_50P_
390
0
 62
     7
100
AcDbSpline
210
0.0
220
0.0
230
1.0
 70
     8
 71
     3
 72
    11
 73
     7
 74
     0
 42
0.00000001
 43
0.00000001
 40
0.0
 40
0.0
 40
0.0
 40
0.0
 40
1.0
 40
1.0
 40
1.0
 40
2.0
 40
2.0
 40
2.0
 40
2.0
 10
55.3034288194444414
 20
7.2212646484374989
 30
0.0
 10
55.3034288194444414
 20
7.0710584852430545
 30
0.0
 10
55.3778428819444386
 20
6.9311876085069439
 30
0.0
 10
55.50221082899305
 20
6.847816297743055
 30
0.0
 10
55.62623426649305
 20
6.7641004774305546
 30
0.0
 10
55.7840196397569414
 20
6.7475640190972213
 30
0.0
 10
55.9228569878472186
 20
6.8040635850694438
 30
0.0
  0
SPLINE
  5
263
100
AcDbEntity
  8
DR-100_R-SIDE_50P_
390
0
 62
     7
100
AcDbSpline
210
0.0
220
0.0
230
1.0
 70
     8
 71
     3
 72
    11
 73
     7
 74
     0
 42
0.00000001
 43
0.00000001
 40
0.0
 40
0.0
 40
0.0
 40
0.0
 40
1.0
 40
1.0
 40
1.0
 40
2.0
 40
2.0
 40
2.0
 40
2.0
 10
45.2533962673611043
 20
5.9417561848958327
 30
0.0
 10
45.45217827690972
 20
5.9417561848958327
 30
0.0
 10
45.6430365668402729
 20
6.0206488715277775
 30
0.0
 10
45.7835964626736072
 20
6.1612087673611109
 30
0.0
 10
45.9241563585069414
 20
6.3021131727430548
 30
0.0
 10
46.0033935546874986
 20
6.4929714626736104
 30
0.0
 10
46.0033935546874986
 20
6.6917534722222216
 30
0.0
  0
SPLINE
  5
262
100
AcDbEntity
  8
DR-100_R-SIDE_50P_
390
0
 62
     7
100
AcDbSpline
210
0.0
220
0.0
230
1.0
 70
     8
 71
     3
 72
    11
 73
     7
 74
     0
 42
0.00000001
 43
0.00000001
 40
0.0
 40
0.0
 40
0.0
 40
0.0
 40
1.0
 40
1.0
 40
1.0
 40
2.0
 40
2.0
 40
2.0
 40
2.0
 10
45.2533962673611043
 20
5.7915500217013882
 30
0.0
 10
45.49214138454861
 20
5.7915500217013882
 30
0.0
 10
45.7208957248263843
 20
5.886634657118055
 30
0.0
 10
45.8897054036458272
 20
6.0554443359374996
 30
0.0
 10
46.05851508246527
 20
6.2242540147569443
 30
0.0
 10
46.1532552083333272
 20
6.4530083550347213
 30
0.0
 10
46.1532552083333272
 20
6.6917534722222216
 30
0.0
  0
SPLINE
  5
261
100
AcDbEntity
  8
DR-100_R-SIDE_50P_
390
0
 62
     7
100
AcDbSpline
210
0.0
220
0.0
230
1.0
 70
     8
 71
     3
 72
    11
 73
     7
 74
     0
 42
0.00000001
 43
0.00000001
 40
0.0
 40
0.0
 40
0.0
 40
0.0
 40
1.0
 40
1.0
 40
1.0
 40
2.0
 40
2.0
 40
2.0
 40
2.0
 10
53.0403455946180529
 20
13.8902804904513868
 30
0.0
 10
51.6271674262152729
 20
13.3152940538194429
 30
0.0
 10
50.7031928168402715
 20
11.9420789930555546
 30
0.0
 10
50.7031928168402715
 20
10.4165907118055543
 30
0.0
 10
50.7031928168402715
 20
8.8914469401041654
 30
0.0
 10
51.6271674262152729
 20
7.5178873697916657
 30
0.0
 10
53.0403455946180529
 20
6.9432454427083323
 30
0.0
  0
SPLINE
  5
260
100
AcDbEntity
  8
DR-100_R-SIDE_50P_
390
0
 62
     7
100
AcDbSpline
210
0.0
220
0.0
230
1.0
 70
     8
 71
     3
 72
    11
 73
     7
 74
     0
 42
0.00000001
 43
0.00000001
 40
0.0
 40
0.0
 40
0.0
 40
0.0
 40
1.0
 40
1.0
 40
1.0
 40
2.0
 40
2.0
 40
2.0
 40
2.0
 10
55.8663574218749943
 20
6.9432454427083323
 30
0.0
 10
57.2791910807291629
 20
7.5178873697916657
 30
0.0
 10
58.2035101996527757
 20
8.8914469401041654
 30
0.0
 10
58.2035101996527757
 20
10.4165907118055543
 30
0.0
 10
58.2035101996527757
 20
11.9420789930555546
 30
0.0
 10
57.2791910807291629
 20
13.3152940538194429
 30
0.0
 10
55.8663574218749943
 20
13.8902804904513868
 30
0.0
  0
SPLINE
  5
25F
100
AcDbEntity
  8
DR-100_R-SIDE_50P_
390
0
 62
     7
100
AcDbSpline
210
0.0
220
0.0
230
1.0
 70
     8
 71
     3
 72
    11
 73
     7
 74
     0
 42
0.00000001
 43
0.00000001
 40
0.0
 40
0.0
 40
0.0
 40
0.0
 40
1.0
 40
1.0
 40
1.0
 40
2.0
 40
2.0
 40
2.0
 40
2.0
 10
52.9835015190972172
 20
14.0291178385416657
 30
0.0
 10
51.5141682942708314
 20
13.4313937717013872
 30
0.0
 10
50.5533311631944429
 20
12.0030571831597204
 30
0.0
 10
50.5533311631944429
 20
10.4165907118055543
 30
0.0
 10
50.5533311631944429
 20
8.8304687499999996
 30
0.0
 10
51.5141682942708314
 20
7.4017876519097214
 30
0.0
 10
52.9835015190972172
 20
6.8040635850694438
 30
0.0
  0
SPLINE
  5
25E
100
AcDbEntity
  8
DR-100_R-SIDE_50P_
390
0
 62
     7
100
AcDbSpline
210
0.0
220
0.0
230
1.0
 70
     8
 71
     3
 72
    11
 73
     7
 74
     0
 42
0.00000001
 43
0.00000001
 40
0.0
 40
0.0
 40
0.0
 40
0.0
 40
1.0
 40
1.0
 40
1.0
 40
2.0
 40
2.0
 40
2.0
 40
2.0
 10
55.9228569878472186
 20
6.8040635850694438
 30
0.0
 10
57.3921902126736043
 20
7.4017876519097214
 30
0.0
 10
58.3533718532986043
 20
8.8304687499999996
 30
0.0
 10
58.3533718532986043
 20
10.4165907118055543
 30
0.0
 10
58.3533718532986043
 20
12.0030571831597204
 30
0.0
 10
57.3921902126736043
 20
13.4313937717013872
 30
0.0
 10
55.9228569878472186
 20
14.0291178385416657
 30
0.0
  0
SPLINE
  5
25D
100
AcDbEntity
  8
DR-100_R-SIDE_50P_
390
0
 62
     7
100
AcDbSpline
210
0.0
220
0.0
230
1.0
 70
     8
 71
     3
 72
    17
 73
    13
 74
     0
 42
0.00000001
 43
0.00000001
 40
0.0
 40
0.0
 40
0.0
 40
0.0
 40
1.0
 40
1.0
 40
1.0
 40
2.0
 40
2.0
 40
2.0
 40
3.0
 40
3.0
 40
3.0
 40
4.0
 40
4.0
 40
4.0
 40
4.0
 10
54.4531792534722143
 20
5.3168158637152771
 30
0.0
 10
57.2698893229166615
 20
5.3168158637152771
 30
0.0
 10
59.5532986111111029
 20
7.5998806423611107
 30
0.0
 10
59.5532986111111029
 20
10.4165907118055543
 30
0.0
 10
59.5532986111111029
 20
13.2333007812499996
 30
0.0
 10
57.2698893229166615
 20
15.5167100694444429
 30
0.0
 10
54.4531792534722143
 20
15.5167100694444429
 30
0.0
 10
51.6364691840277743
 20
15.5167100694444429
 30
0.0
 10
49.3530598958333258
 20
13.2333007812499996
 30
0.0
 10
49.3530598958333258
 20
10.4165907118055543
 30
0.0
 10
49.3530598958333258
 20
7.5998806423611107
 30
0.0
 10
51.6364691840277743
 20
5.3168158637152771
 30
0.0
 10
54.4531792534722143
 20
5.3168158637152771
 30
0.0
  0
SPLINE
  5
25C
100
AcDbEntity
  8
DR-100_R-SIDE_50P_
390
0
 62
     7
100
AcDbSpline
210
0.0
220
0.0
230
1.0
 70
     8
 71
     3
 72
    17
 73
    13
 74
     0
 42
0.00000001
 43
0.00000001
 40
0.0
 40
0.0
 40
0.0
 40
0.0
 40
1.0
 40
1.0
 40
1.0
 40
2.0
 40
2.0
 40
2.0
 40
3.0
 40
3.0
 40
3.0
 40
4.0
 40
4.0
 40
4.0
 40
4.0
 10
54.4531792534722143
 20
5.1666097005208327
 30
0.0
 10
57.3529161241319372
 20
5.1666097005208327
 30
0.0
 10
59.7031602647569386
 20
7.5171983506944438
 30
0.0
 10
59.7031602647569386
 20
10.4165907118055543
 30
0.0
 10
59.7031602647569386
 20
13.3163275824652771
 30
0.0
 10
57.3529161241319372
 20
15.6665717230902768
 30
0.0
 10
54.4531792534722143
 20
15.6665717230902768
 30
0.0
 10
51.5537868923611029
 20
15.6665717230902768
 30
0.0
 10
49.2031982421874972
 20
13.3163275824652771
 30
0.0
 10
49.2031982421874972
 20
10.4165907118055543
 30
0.0
 10
49.2031982421874972
 20
7.5171983506944438
 30
0.0
 10
51.5537868923611029
 20
5.1666097005208327
 30
0.0
 10
54.4531792534722143
 20
5.1666097005208327
 30
0.0
  0
SPLINE
  5
25B
100
AcDbEntity
  8
DR-100_R-SIDE_50P_
390
0
 62
     7
100
AcDbSpline
210
0.0
220
0.0
230
1.0
 70
     8
 71
     3
 72
    17
 73
    13
 74
     0
 42
0.00000001
 43
0.00000001
 40
0.0
 40
0.0
 40
0.0
 40
0.0
 40
1.0
 40
1.0
 40
1.0
 40
2.0
 40
2.0
 40
2.0
 40
3.0
 40
3.0
 40
3.0
 40
4.0
 40
4.0
 40
4.0
 40
4.0
 10
54.4531792534722143
 20
4.9168402777777773
 30
0.0
 10
57.4910644531249915
 20
4.9168402777777773
 30
0.0
 10
59.9532741970486072
 20
7.3790500217013886
 30
0.0
 10
59.9532741970486072
 20
10.4165907118055543
 30
0.0
 10
59.9532741970486072
 20
13.4541314019097218
 30
0.0
 10
57.4910644531249915
 20
15.9166856553819436
 30
0.0
 10
54.4531792534722143
 20
15.9166856553819436
 30
0.0
 10
51.4156385633680486
 20
15.9166856553819436
 30
0.0
 10
48.95342881944444
 20
13.4541314019097218
 30
0.0
 10
48.95342881944444
 20
10.4165907118055543
 30
0.0
 10
48.95342881944444
 20
7.3790500217013886
 30
0.0
 10
51.4156385633680486
 20
4.9168402777777773
 30
0.0
 10
54.4531792534722143
 20
4.9168402777777773
 30
0.0
  0
SPLINE
  5
25A
100
AcDbEntity
  8
DR-100_R-SIDE_50P_
390
0
 62
     7
100
AcDbSpline
210
0.0
220
0.0
230
1.0
 70
     8
 71
     3
 72
    17
 73
    13
 74
     0
 42
0.00000001
 43
0.00000001
 40
0.0
 40
0.0
 40
0.0
 40
0.0
 40
1.0
 40
1.0
 40
1.0
 40
2.0
 40
2.0
 40
2.0
 40
3.0
 40
3.0
 40
3.0
 40
4.0
 40
4.0
 40
4.0
 40
4.0
 10
54.4531792534722143
 20
4.7666341145833329
 30
0.0
 10
57.5737467447916629
 20
4.7666341145833329
 30
0.0
 10
60.1031358506944358
 20
7.2960232204861102
 30
0.0
 10
60.1031358506944358
 20
10.4165907118055543
 30
0.0
 10
60.1031358506944358
 20
13.5371582031249993
 30
0.0
 10
57.5737467447916629
 20
16.0665473090277757
 30
0.0
 10
54.4531792534722143
 20
16.0665473090277757
 30
0.0
 10
51.3329562717013843
 20
16.0665473090277757
 30
0.0
 10
48.8035671657986043
 20
13.5371582031249993
 30
0.0
 10
48.8035671657986043
 20
10.4165907118055543
 30
0.0
 10
48.8035671657986043
 20
7.2960232204861102
 30
0.0
 10
51.3329562717013843
 20
4.7666341145833329
 30
0.0
 10
54.4531792534722143
 20
4.7666341145833329
 30
0.0
  0
SPLINE
  5
259
100
AcDbEntity
  8
DR-100_R-SIDE_50P_
390
0
 62
     7
100
AcDbSpline
210
0.0
220
0.0
230
1.0
 70
     8
 71
     3
 72
    17
 73
    13
 74
     0
 42
0.00000001
 43
0.00000001
 40
0.0
 40
0.0
 40
0.0
 40
0.0
 40
1.0
 40
1.0
 40
1.0
 40
2.0
 40
2.0
 40
2.0
 40
3.0
 40
3.0
 40
3.0
 40
4.0
 40
4.0
 40
4.0
 40
4.0
 10
54.4531792534722143
 20
3.5667073567708329
 30
0.0
 10
58.2365831163194372
 20
3.5667073567708329
 30
0.0
 10
61.3034071180555529
 20
6.6335313585069438
 30
0.0
 10
61.3034071180555529
 20
10.4165907118055543
 30
0.0
 10
61.3034071180555529
 20
14.1999945746527771
 30
0.0
 10
58.2365831163194372
 20
17.2668185763888857
 30
0.0
 10
54.4531792534722143
 20
17.2668185763888857
 30
0.0
 10
50.67011990017361
 20
17.2668185763888857
 30
0.0
 10
47.6032958984374943
 20
14.1999945746527771
 30
0.0
 10
47.6032958984374943
 20
10.4165907118055543
 30
0.0
 10
47.6032958984374943
 20
6.6335313585069438
 30
0.0
 10
50.67011990017361
 20
3.5667073567708329
 30
0.0
 10
54.4531792534722143
 20
3.5667073567708329
 30
0.0
  0
SPLINE
  5
258
100
AcDbEntity
  8
DR-100_R-SIDE_50P_
390
0
 62
     7
100
AcDbSpline
210
0.0
220
0.0
230
1.0
 70
     8
 71
     3
 72
    17
 73
    13
 74
     0
 42
0.00000001
 43
0.00000001
 40
0.0
 40
0.0
 40
0.0
 40
0.0
 40
1.0
 40
1.0
 40
1.0
 40
2.0
 40
2.0
 40
2.0
 40
3.0
 40
3.0
 40
3.0
 40
4.0
 40
4.0
 40
4.0
 40
4.0
 10
54.4531792534722143
 20
3.4168457031249999
 30
0.0
 10
58.3192654079861086
 20
3.4168457031249999
 30
0.0
 10
61.4532687717013815
 20
6.5508490668402768
 30
0.0
 10
61.4532687717013815
 20
10.4165907118055543
 30
0.0
 10
61.4532687717013815
 20
14.2826768663194432
 30
0.0
 10
58.3192654079861086
 20
17.41633572048611
 30
0.0
 10
54.4531792534722143
 20
17.41633572048611
 30
0.0
 10
50.5874376085069386
 20
17.41633572048611
 30
0.0
 10
47.4534342447916657
 20
14.2826768663194432
 30
0.0
 10
47.4534342447916657
 20
10.4165907118055543
 30
0.0
 10
47.4534342447916657
 20
6.5508490668402768
 30
0.0
 10
50.5874376085069386
 20
3.4168457031249999
 30
0.0
 10
54.4531792534722143
 20
3.4168457031249999
 30
0.0
  0
SPLINE
  5
257
100
AcDbEntity
  8
DR-100_R-SIDE_50P_
390
0
 62
     7
100
AcDbSpline
210
0.0
220
0.0
230
1.0
 70
     8
 71
     3
 72
    17
 73
    13
 74
     0
 42
0.00000001
 43
0.00000001
 40
0.0
 40
0.0
 40
0.0
 40
0.0
 40
1.0
 40
1.0
 40
1.0
 40
2.0
 40
2.0
 40
2.0
 40
3.0
 40
3.0
 40
3.0
 40
4.0
 40
4.0
 40
4.0
 40
4.0
 10
54.4531792534722143
 20
3.3165934244791662
 30
0.0
 10
58.3747314453124915
 20
3.3165934244791662
 30
0.0
 10
61.5531765407986029
 20
6.4953830295138886
 30
0.0
 10
61.5531765407986029
 20
10.4165907118055543
 30
0.0
 10
61.5531765407986029
 20
14.3377983940972218
 30
0.0
 10
58.3747314453124915
 20
17.5169325086805543
 30
0.0
 10
54.4531792534722143
 20
17.5169325086805543
 30
0.0
 10
50.5319715711805486
 20
17.5169325086805543
 30
0.0
 10
47.3531819661458258
 20
14.3377983940972218
 30
0.0
 10
47.3531819661458258
 20
10.4165907118055543
 30
0.0
 10
47.3531819661458258
 20
6.4953830295138886
 30
0.0
 10
50.5319715711805486
 20
3.3165934244791662
 30
0.0
 10
54.4531792534722143
 20
3.3165934244791662
 30
0.0
  0
SPLINE
  5
256
100
AcDbEntity
  8
DR-100_R-SIDE_50P_
390
0
 62
     7
100
AcDbSpline
210
0.0
220
0.0
230
1.0
 70
     8
 71
     3
 72
    17
 73
    13
 74
     0
 42
0.00000001
 43
0.00000001
 40
0.0
 40
0.0
 40
0.0
 40
0.0
 40
1.0
 40
1.0
 40
1.0
 40
2.0
 40
2.0
 40
2.0
 40
3.0
 40
3.0
 40
3.0
 40
4.0
 40
4.0
 40
4.0
 40
4.0
 10
49.9531955295138843
 20
16.2532714843749986
 30
0.0
 10
47.4682481553819429
 20
14.3288411458333318
 30
0.0
 10
46.48191731770833
 20
11.0377414279513886
 30
0.0
 10
47.49856499565972
 20
8.0639350043402764
 30
0.0
 10
48.51521267361111
 20
5.0901285807291661
 30
0.0
 10
51.3105631510416629
 20
3.0916286892361109
 30
0.0
 10
54.4531792534722143
 20
3.0916286892361109
 30
0.0
 10
57.5961398654513843
 20
3.0916286892361109
 30
0.0
 10
60.3911458333333258
 20
5.0901285807291661
 30
0.0
 10
61.4081380208333272
 20
8.0639350043402764
 30
0.0
 10
62.4247856987847172
 20
11.0377414279513886
 30
0.0
 10
61.4384548611111043
 20
14.3288411458333318
 30
0.0
 10
58.9535074869791629
 20
16.2532714843749986
 30
0.0
  0
SPLINE
  5
255
100
AcDbEntity
  8
DR-100_R-SIDE_50P_
390
0
 62
     7
100
AcDbSpline
210
0.0
220
0.0
230
1.0
 70
     8
 71
     3
 72
     8
 73
     4
 74
     0
 42
0.00000001
 43
0.00000001
 40
0.0
 40
0.0
 40
0.0
 40
0.0
 40
1.0
 40
1.0
 40
1.0
 40
1.0
 10
50.58537055121527
 20
16.6918321397569436
 30
0.0
 10
50.3672960069444429
 20
16.5564398871527771
 30
0.0
 10
50.15611165364583
 20
16.4103678385416636
 30
0.0
 10
49.9531955295138843
 20
16.2532714843749986
 30
0.0
  0
SPLINE
  5
254
100
AcDbEntity
  8
DR-100_R-SIDE_50P_
390
0
 62
     7
100
AcDbSpline
210
0.0
220
0.0
230
1.0
 70
     8
 71
     3
 72
     8
 73
     4
 74
     0
 42
0.00000001
 43
0.00000001
 40
0.0
 40
0.0
 40
0.0
 40
0.0
 40
1.0
 40
1.0
 40
1.0
 40
1.0
 10
58.9535074869791629
 20
16.2532714843749986
 30
0.0
 10
58.7502468532986057
 20
16.4103678385416636
 30
0.0
 10
58.5394070095486043
 20
16.5564398871527771
 30
0.0
 10
58.32133246527777
 20
16.6918321397569436
 30
0.0
  0
SPLINE
  5
253
100
AcDbEntity
  8
DR-100_R-SIDE_50P_
390
0
 62
     7
100
AcDbSpline
210
0.0
220
0.0
230
1.0
 70
     8
 71
     3
 72
     8
 73
     4
 74
     0
 42
0.00000001
 43
0.00000001
 40
0.0
 40
0.0
 40
0.0
 40
0.0
 40
1.0
 40
1.0
 40
1.0
 40
1.0
 10
49.4760498046874986
 20
3.7372395833333329
 30
0.0
 10
51.6547281901041586
 20
2.1201117621527774
 30
0.0
 10
54.4831515842013872
 20
1.6619140625
 30
0.0
 10
57.0604275173611057
 20
2.5090630425347218
 30
0.0
  0
SPLINE
  5
252
100
AcDbEntity
  8
DR-100_R-SIDE_50P_
390
0
 62
     7
100
AcDbSpline
210
0.0
220
0.0
230
1.0
 70
     8
 71
     3
 72
     8
 73
     4
 74
     0
 42
0.00000001
 43
0.00000001
 40
0.0
 40
0.0
 40
0.0
 40
0.0
 40
1.0
 40
1.0
 40
1.0
 40
1.0
 10
49.3868218315972172
 20
3.6166612413194441
 30
0.0
 10
51.60442979600694
 20
1.9705946180555554
 30
0.0
 10
54.4834960937499986
 20
1.5044731987847222
 30
0.0
 10
57.1072808159722172
 20
2.366780598958333
 30
0.0
  0
SPLINE
  5
251
100
AcDbEntity
  8
DR-100_R-SIDE_50P_
390
0
 62
     7
100
AcDbSpline
210
0.0
220
0.0
230
1.0
 70
     8
 71
     3
 72
    11
 73
     7
 74
     0
 42
0.00000001
 43
0.00000001
 40
0.0
 40
0.0
 40
0.0
 40
0.0
 40
1.0
 40
1.0
 40
1.0
 40
2.0
 40
2.0
 40
2.0
 40
2.0
 10
76.45321451822916
 20
14.6416558159722214
 30
0.0
 10
76.45321451822916
 20
14.6816189236111097
 30
0.0
 10
76.43771158854166
 20
14.7198594835069425
 30
0.0
 10
76.4094618055555515
 20
14.7477647569444432
 30
0.0
 10
76.3812120225694429
 20
14.7760145399305536
 30
0.0
 10
76.3429714626736029
 20
14.791861979166665
 30
0.0
 10
76.3033528645833314
 20
14.791861979166665
 30
0.0
  0
SPLINE
  5
250
100
AcDbEntity
  8
DR-100_R-SIDE_50P_
390
0
 62
     7
100
AcDbSpline
210
0.0
220
0.0
230
1.0
 70
     8
 71
     3
 72
    11
 73
     7
 74
     0
 42
0.00000001
 43
0.00000001
 40
0.0
 40
0.0
 40
0.0
 40
0.0
 40
1.0
 40
1.0
 40
1.0
 40
2.0
 40
2.0
 40
2.0
 40
2.0
 10
63.3032850477430529
 20
13.0417534722222204
 30
0.0
 10
63.3032850477430529
 20
13.0682807074652771
 30
0.0
 10
63.2926052517361057
 20
13.0937744140624996
 30
0.0
 10
63.2740017361111029
 20
13.1123779296874989
 30
0.0
 10
63.2553982204861072
 20
13.1313259548611097
 30
0.0
 10
63.2299045138888829
 20
13.1416612413194436
 30
0.0
 10
63.2033772786458243
 20
13.1416612413194436
 30
0.0
  0
SPLINE
  5
24F
100
AcDbEntity
  8
DR-100_R-SIDE_50P_
390
0
 62
     7
100
AcDbSpline
210
0.0
220
0.0
230
1.0
 70
     8
 71
     3
 72
     8
 73
     4
 74
     0
 42
0.00000001
 43
0.00000001
 40
0.0
 40
0.0
 40
0.0
 40
0.0
 40
1.0
 40
1.0
 40
1.0
 40
1.0
 10
63.70326063368055
 20
13.1416612413194436
 30
0.0
 10
63.6481391059027715
 20
13.1416612413194436
 30
0.0
 10
63.6033528645833286
 20
13.0968749999999989
 30
0.0
 10
63.6033528645833286
 20
13.0417534722222204
 30
0.0
  0
SPLINE
  5
24E
100
AcDbEntity
  8
DR-100_R-SIDE_50P_
390
0
 62
     7
100
AcDbSpline
210
0.0
220
0.0
230
1.0
 70
     8
 71
     3
 72
    11
 73
     7
 74
     0
 42
0.00000001
 43
0.00000001
 40
0.0
 40
0.0
 40
0.0
 40
0.0
 40
1.0
 40
1.0
 40
1.0
 40
2.0
 40
2.0
 40
2.0
 40
2.0
 10
63.6033528645833286
 20
13.5416368272569425
 30
0.0
 10
63.6033528645833286
 20
13.5147650824652761
 30
0.0
 10
63.6140326605902686
 20
13.4892713758680536
 30
0.0
 10
63.6329806857638829
 20
13.4703233506944429
 30
0.0
 10
63.6522732204861086
 20
13.4513753255208321
 30
0.0
 10
63.6781114366319372
 20
13.4413845486111097
 30
0.0
 10
63.7049831814236072
 20
13.4417290581597211
 30
0.0
  0
SPLINE
  5
24D
100
AcDbEntity
  8
DR-100_R-SIDE_50P_
390
0
 62
     7
100
AcDbSpline
210
0.0
220
0.0
230
1.0
 70
     8
 71
     3
 72
    11
 73
     7
 74
     0
 42
0.00000001
 43
0.00000001
 40
0.0
 40
0.0
 40
0.0
 40
0.0
 40
1.0
 40
1.0
 40
1.0
 40
2.0
 40
2.0
 40
2.0
 40
2.0
 10
63.2033772786458243
 20
13.4417290581597211
 30
0.0
 10
63.2299045138888829
 20
13.4417290581597211
 30
0.0
 10
63.2553982204861072
 20
13.452064344618055
 30
0.0
 10
63.2740017361111029
 20
13.4710123697916657
 30
0.0
 10
63.2926052517361057
 20
13.4899603949652764
 30
0.0
 10
63.3032850477430529
 20
13.5151095920138875
 30
0.0
 10
63.3032850477430529
 20
13.5416368272569425
 30
0.0
  0
SPLINE
  5
24C
100
AcDbEntity
  8
DR-100_R-SIDE_50P_
390
0
 62
     7
100
AcDbSpline
210
0.0
220
0.0
230
1.0
 70
     8
 71
     3
 72
    11
 73
     7
 74
     0
 42
0.00000001
 43
0.00000001
 40
0.0
 40
0.0
 40
0.0
 40
0.0
 40
1.0
 40
1.0
 40
1.0
 40
2.0
 40
2.0
 40
2.0
 40
2.0
 10
65.7031385633680429
 20
14.6416558159722214
 30
0.0
 10
65.7031385633680429
 20
14.6816189236111097
 30
0.0
 10
65.6876356336805429
 20
14.7198594835069425
 30
0.0
 10
65.6593858506944343
 20
14.7477647569444432
 30
0.0
 10
65.6311360677083258
 20
14.7760145399305536
 30
0.0
 10
65.5932400173611114
 20
14.791861979166665
 30
0.0
 10
65.5532769097222143
 20
14.791861979166665
 30
0.0
  0
SPLINE
  5
24B
100
AcDbEntity
  8
DR-100_R-SIDE_50P_
390
0
 62
     7
100
AcDbSpline
210
0.0
220
0.0
230
1.0
 70
     8
 71
     3
 72
     8
 73
     4
 74
     0
 42
0.00000001
 43
0.00000001
 40
0.0
 40
0.0
 40
0.0
 40
0.0
 40
1.0
 40
1.0
 40
1.0
 40
1.0
 10
65.9032986111111114
 20
13.6415445963541657
 30
0.0
 10
65.7927110460069429
 20
13.6415445963541657
 30
0.0
 10
65.7031385633680429
 20
13.5523166232638879
 30
0.0
 10
65.7031385633680429
 20
13.4417290581597211
 30
0.0
  0
SPLINE
  5
24A
100
AcDbEntity
  8
DR-100_R-SIDE_50P_
390
0
 62
     7
100
AcDbSpline
210
0.0
220
0.0
230
1.0
 70
     8
 71
     3
 72
    17
 73
    13
 74
     0
 42
0.00000001
 43
0.00000001
 40
0.0
 40
0.0
 40
0.0
 40
0.0
 40
1.0
 40
1.0
 40
1.0
 40
2.0
 40
2.0
 40
2.0
 40
3.0
 40
3.0
 40
3.0
 40
4.0
 40
4.0
 40
4.0
 40
4.0
 10
63.4534912109374929
 20
12.5418701171874982
 30
0.0
 10
63.8675916883680515
 20
12.5418701171874982
 30
0.0
 10
64.20348849826388
 20
12.8774224175347207
 30
0.0
 10
64.20348849826388
 20
13.2918674045138872
 30
0.0
 10
64.20348849826388
 20
13.7059678819444439
 30
0.0
 10
63.8675916883680515
 20
14.0418646918402761
 30
0.0
 10
63.4534912109374929
 20
14.0418646918402761
 30
0.0
 10
63.03904622395833
 20
14.0418646918402761
 30
0.0
 10
62.7034939236111057
 20
13.7059678819444439
 30
0.0
 10
62.7034939236111057
 20
13.2918674045138872
 30
0.0
 10
62.7034939236111057
 20
12.8774224175347207
 30
0.0
 10
63.03904622395833
 20
12.5418701171874982
 30
0.0
 10
63.4534912109374929
 20
12.5418701171874982
 30
0.0
  0
SPLINE
  5
249
100
AcDbEntity
  8
DR-100_R-SIDE_50P_
390
0
 62
     7
100
AcDbSpline
210
0.0
220
0.0
230
1.0
 70
     8
 71
     3
 72
    17
 73
    13
 74
     0
 42
0.00000001
 43
0.00000001
 40
0.0
 40
0.0
 40
0.0
 40
0.0
 40
1.0
 40
1.0
 40
1.0
 40
2.0
 40
2.0
 40
2.0
 40
3.0
 40
3.0
 40
3.0
 40
4.0
 40
4.0
 40
4.0
 40
4.0
 10
63.4534912109374929
 20
12.4667670355902764
 30
0.0
 10
63.90893283420138
 20
12.4667670355902764
 30
0.0
 10
64.2782470703124886
 20
12.8360812717013886
 30
0.0
 10
64.2782470703124886
 20
13.2918674045138872
 30
0.0
 10
64.2782470703124886
 20
13.7473090277777761
 30
0.0
 10
63.90893283420138
 20
14.1166232638888882
 30
0.0
 10
63.4534912109374929
 20
14.1166232638888882
 30
0.0
 10
62.9977050781249943
 20
14.1166232638888882
 30
0.0
 10
62.6283908420138857
 20
13.7473090277777761
 30
0.0
 10
62.6283908420138857
 20
13.2918674045138872
 30
0.0
 10
62.6283908420138857
 20
12.8360812717013886
 30
0.0
 10
62.9977050781249943
 20
12.4667670355902764
 30
0.0
 10
63.4534912109374929
 20
12.4667670355902764
 30
0.0
  0
SPLINE
  5
248
100
AcDbEntity
  8
DR-100_R-SIDE_50P_
390
0
 62
     7
100
AcDbSpline
210
0.0
220
0.0
230
1.0
 70
     8
 71
     3
 72
     8
 73
     4
 74
     0
 42
0.00000001
 43
0.00000001
 40
0.0
 40
0.0
 40
0.0
 40
0.0
 40
1.0
 40
1.0
 40
1.0
 40
1.0
 10
73.2782145182291629
 20
15.8546739366319436
 30
0.0
 10
73.0770209418402743
 20
15.9707736545138879
 30
0.0
 10
72.8293185763888857
 20
15.9707736545138879
 30
0.0
 10
72.6281249999999972
 20
15.8546739366319436
 30
0.0
  0
SPLINE
  5
247
100
AcDbEntity
  8
DR-100_R-SIDE_50P_
390
0
 62
     7
100
AcDbSpline
210
0.0
220
0.0
230
1.0
 70
     8
 71
     3
 72
     8
 73
     4
 74
     0
 42
0.00000001
 43
0.00000001
 40
0.0
 40
0.0
 40
0.0
 40
0.0
 40
1.0
 40
1.0
 40
1.0
 40
1.0
 10
68.2783474392361001
 20
15.8546739366319436
 30
0.0
 10
68.0771538628472115
 20
15.9707736545138879
 30
0.0
 10
67.8294514973958229
 20
15.9707736545138879
 30
0.0
 10
67.6282579210069343
 20
15.8546739366319436
 30
0.0
  0
SPLINE
  5
246
100
AcDbEntity
  8
DR-100_R-SIDE_50P_
390
0
 62
     7
100
AcDbSpline
210
0.0
220
0.0
230
1.0
 70
     8
 71
     3
 72
    11
 73
     7
 74
     0
 42
0.00000001
 43
0.00000001
 40
0.0
 40
0.0
 40
0.0
 40
0.0
 40
1.0
 40
1.0
 40
1.0
 40
2.0
 40
2.0
 40
2.0
 40
2.0
 10
68.6283691406249972
 20
15.2917453342013872
 30
0.0
 10
68.6283691406249972
 20
15.66450466579861
 30
0.0
 10
68.3262342664930458
 20
15.9666395399305543
 30
0.0
 10
67.9531304253472115
 20
15.9666395399305543
 30
0.0
 10
67.5803710937499886
 20
15.9666395399305543
 30
0.0
 10
67.2782362196180515
 20
15.66450466579861
 30
0.0
 10
67.2782362196180515
 20
15.2917453342013872
 30
0.0
  0
SPLINE
  5
245
100
AcDbEntity
  8
DR-100_R-SIDE_50P_
390
0
 62
     7
100
AcDbSpline
210
0.0
220
0.0
230
1.0
 70
     8
 71
     3
 72
    11
 73
     7
 74
     0
 42
0.00000001
 43
0.00000001
 40
0.0
 40
0.0
 40
0.0
 40
0.0
 40
1.0
 40
1.0
 40
1.0
 40
2.0
 40
2.0
 40
2.0
 40
2.0
 10
73.6282362196180458
 20
15.2917453342013872
 30
0.0
 10
73.6282362196180458
 20
15.66450466579861
 30
0.0
 10
73.3261013454861086
 20
15.9666395399305543
 30
0.0
 10
72.9533420138888857
 20
15.9666395399305543
 30
0.0
 10
72.5805826822916629
 20
15.9666395399305543
 30
0.0
 10
72.2784478081597115
 20
15.66450466579861
 30
0.0
 10
72.2784478081597115
 20
15.2917453342013872
 30
0.0
  0
SPLINE
  5
244
100
AcDbEntity
  8
DR-100_R-SIDE_50P_
390
0
 62
     7
100
AcDbSpline
210
0.0
220
0.0
230
1.0
 70
     8
 71
     3
 72
    11
 73
     7
 74
     0
 42
0.00000001
 43
0.00000001
 40
0.0
 40
0.0
 40
0.0
 40
0.0
 40
1.0
 40
1.0
 40
1.0
 40
2.0
 40
2.0
 40
2.0
 40
2.0
 10
75.85342339409722
 20
16.791739908854165
 30
0.0
 10
75.85342339409722
 20
17.0570122612847221
 30
0.0
 10
75.7480034722222086
 20
17.3112603081597207
 30
0.0
 10
75.5602457682291657
 20
17.4986735026041664
 30
0.0
 10
75.37283257378472
 20
17.68643120659722
 30
0.0
 10
75.1185845269097143
 20
17.7918511284722207
 30
0.0
 10
74.8533121744791572
 20
17.7918511284722207
 30
0.0
  0
SPLINE
  5
243
100
AcDbEntity
  8
DR-100_R-SIDE_50P_
390
0
 62
     7
100
AcDbSpline
210
0.0
220
0.0
230
1.0
 70
     8
 71
     3
 72
     8
 73
     4
 74
     0
 42
0.00000001
 43
0.00000001
 40
0.0
 40
0.0
 40
0.0
 40
0.0
 40
1.0
 40
1.0
 40
1.0
 40
1.0
 10
60.0349229600694372
 20
17.7918511284722207
 30
0.0
 10
59.9494845920138815
 20
17.7918511284722207
 30
0.0
 10
59.8664577907986057
 20
17.7642903645833314
 30
0.0
 10
59.7975558810763843
 20
17.7136474609374979
 30
0.0
  0
SPLINE
  5
242
100
AcDbEntity
  8
DR-100_R-SIDE_50P_
390
0
 62
     7
100
AcDbSpline
210
0.0
220
0.0
230
1.0
 70
     8
 71
     3
 72
    11
 73
     7
 74
     0
 42
0.00000001
 43
0.00000001
 40
0.0
 40
0.0
 40
0.0
 40
0.0
 40
1.0
 40
1.0
 40
1.0
 40
2.0
 40
2.0
 40
2.0
 40
2.0
 10
65.1033474392361029
 20
16.791739908854165
 30
0.0
 10
65.1033474392361029
 20
17.0570122612847221
 30
0.0
 10
64.9979275173611057
 20
17.3112603081597207
 30
0.0
 10
64.81051432291666
 20
17.4986735026041664
 30
0.0
 10
64.6227566189236029
 20
17.68643120659722
 30
0.0
 10
64.3685085720486114
 20
17.7918511284722207
 30
0.0
 10
64.1032362196180543
 20
17.7918511284722207
 30
0.0
  0
SPLINE
  5
241
100
AcDbEntity
  8
DR-100_R-SIDE_50P_
390
0
 62
     7
100
AcDbSpline
210
0.0
220
0.0
230
1.0
 70
     8
 71
     3
 72
    11
 73
     7
 74
     0
 42
0.00000001
 43
0.00000001
 40
0.0
 40
0.0
 40
0.0
 40
0.0
 40
1.0
 40
1.0
 40
1.0
 40
2.0
 40
2.0
 40
2.0
 40
2.0
 10
53.45341254340277
 20
13.6122612847222211
 30
0.0
 10
53.45341254340277
 20
13.7121690538194425
 30
0.0
 10
53.4034586588541629
 20
13.8058756510416654
 30
0.0
 10
53.3207763671874986
 20
13.8613416883680536
 30
0.0
 10
53.2377495659722157
 20
13.917152235243055
 30
0.0
 10
53.13267415364583
 20
13.9278320312499986
 30
0.0
 10
53.0403455946180529
 20
13.8902804904513868
 30
0.0
  0
SPLINE
  5
240
100
AcDbEntity
  8
DR-100_R-SIDE_50P_
390
0
 62
     7
100
AcDbSpline
210
0.0
220
0.0
230
1.0
 70
     8
 71
     3
 72
    11
 73
     7
 74
     0
 42
0.00000001
 43
0.00000001
 40
0.0
 40
0.0
 40
0.0
 40
0.0
 40
1.0
 40
1.0
 40
1.0
 40
2.0
 40
2.0
 40
2.0
 40
2.0
 10
55.8663574218749943
 20
13.8902804904513868
 30
0.0
 10
55.7736843532986057
 20
13.9278320312499986
 30
0.0
 10
55.66860894097222
 20
13.917152235243055
 30
0.0
 10
55.5859266493055486
 20
13.8613416883680536
 30
0.0
 10
55.5028998480902729
 20
13.8055311414930539
 30
0.0
 10
55.45329047309027
 20
13.7121690538194425
 30
0.0
 10
55.45329047309027
 20
13.6122612847222211
 30
0.0
  0
SPLINE
  5
23F
100
AcDbEntity
  8
DR-100_R-SIDE_50P_
390
0
 62
     7
100
AcDbSpline
210
0.0
220
0.0
230
1.0
 70
     8
 71
     3
 72
     8
 73
     4
 74
     0
 42
0.00000001
 43
0.00000001
 40
0.0
 40
0.0
 40
0.0
 40
0.0
 40
1.0
 40
1.0
 40
1.0
 40
1.0
 10
49.1091471354166629
 20
17.7136474609374979
 30
0.0
 10
49.0409342447916643
 20
17.7642903645833314
 30
0.0
 10
48.9582519531249929
 20
17.7911621093749979
 30
0.0
 10
48.8731580946180486
 20
17.7918511284722207
 30
0.0
  0
SPLINE
  5
23E
100
AcDbEntity
  8
DR-100_R-SIDE_50P_
390
0
 62
     7
100
AcDbSpline
210
0.0
220
0.0
230
1.0
 70
     8
 71
     3
 72
    11
 73
     7
 74
     0
 42
0.00000001
 43
0.00000001
 40
0.0
 40
0.0
 40
0.0
 40
0.0
 40
1.0
 40
1.0
 40
1.0
 40
2.0
 40
2.0
 40
2.0
 40
2.0
 10
53.6032741970486057
 20
13.6122612847222211
 30
0.0
 10
53.6032741970486057
 20
13.7624674479166647
 30
0.0
 10
53.5285156249999972
 20
13.9023383246527761
 30
0.0
 10
53.4044921874999972
 20
13.985709635416665
 30
0.0
 10
53.2801242404513857
 20
14.0694254557291654
 30
0.0
 10
53.1223388671874943
 20
14.0859619140624979
 30
0.0
 10
52.9835015190972172
 20
14.0291178385416657
 30
0.0
  0
SPLINE
  5
23D
100
AcDbEntity
  8
DR-100_R-SIDE_50P_
390
0
 62
     7
100
AcDbSpline
210
0.0
220
0.0
230
1.0
 70
     8
 71
     3
 72
    11
 73
     7
 74
     0
 42
0.00000001
 43
0.00000001
 40
0.0
 40
0.0
 40
0.0
 40
0.0
 40
1.0
 40
1.0
 40
1.0
 40
2.0
 40
2.0
 40
2.0
 40
2.0
 10
55.9228569878472186
 20
14.0291178385416657
 30
0.0
 10
55.7840196397569414
 20
14.0856174045138882
 30
0.0
 10
55.62623426649305
 20
14.0694254557291654
 30
0.0
 10
55.50221082899305
 20
13.985709635416665
 30
0.0
 10
55.3778428819444386
 20
13.9023383246527761
 30
0.0
 10
55.3034288194444414
 20
13.762122938368055
 30
0.0
 10
55.3034288194444414
 20
13.6122612847222211
 30
0.0
  0
SPLINE
  5
23C
100
AcDbEntity
  8
DR-100_R-SIDE_50P_
390
0
 62
     7
100
AcDbSpline
210
0.0
220
0.0
230
1.0
 70
     8
 71
     3
 72
    11
 73
     7
 74
     0
 42
0.00000001
 43
0.00000001
 40
0.0
 40
0.0
 40
0.0
 40
0.0
 40
1.0
 40
1.0
 40
1.0
 40
2.0
 40
2.0
 40
2.0
 40
2.0
 10
46.0033935546874986
 20
13.3917751736111104
 30
0.0
 10
46.0033935546874986
 20
13.5905571831597207
 30
0.0
 10
45.9241563585069414
 20
13.7814154730902771
 30
0.0
 10
45.7835964626736072
 20
13.9219753689236097
 30
0.0
 10
45.6430365668402729
 20
14.0628797743055536
 30
0.0
 10
45.45217827690972
 20
14.1417724609374993
 30
0.0
 10
45.2533962673611043
 20
14.1417724609374993
 30
0.0
  0
SPLINE
  5
23B
100
AcDbEntity
  8
DR-100_R-SIDE_50P_
390
0
 62
     7
100
AcDbSpline
210
0.0
220
0.0
230
1.0
 70
     8
 71
     3
 72
     8
 73
     4
 74
     0
 42
0.00000001
 43
0.00000001
 40
0.0
 40
0.0
 40
0.0
 40
0.0
 40
1.0
 40
1.0
 40
1.0
 40
1.0
 10
46.1532552083333272
 20
13.3917751736111104
 30
0.0
 10
46.1532552083333272
 20
13.8875244140624989
 30
0.0
 10
45.7525906032986072
 20
14.2895670572916647
 30
0.0
 10
45.2568413628472186
 20
14.2916341145833314
 30
0.0
  0
SPLINE
  5
23A
100
AcDbEntity
  8
DR-100_R-SIDE_50P_
390
0
 62
     7
100
AcDbSpline
210
0.0
220
0.0
230
1.0
 70
     8
 71
     3
 72
     8
 73
     4
 74
     0
 42
0.00000001
 43
0.00000001
 40
0.0
 40
0.0
 40
0.0
 40
0.0
 40
1.0
 40
1.0
 40
1.0
 40
1.0
 10
27.9280110677083293
 20
6.4416395399305548
 30
0.0
 10
27.9280110677083293
 20
6.165687391493055
 30
0.0
 10
28.1519422743055543
 20
5.9417561848958327
 30
0.0
 10
28.4278944227430515
 20
5.9417561848958327
 30
0.0
  0
SPLINE
  5
239
100
AcDbEntity
  8
DR-100_R-SIDE_50P_
390
0
 62
     7
100
AcDbSpline
210
0.0
220
0.0
230
1.0
 70
     8
 71
     3
 72
     8
 73
     4
 74
     0
 42
0.00000001
 43
0.00000001
 40
0.0
 40
0.0
 40
0.0
 40
0.0
 40
1.0
 40
1.0
 40
1.0
 40
1.0
 10
27.6782416449652757
 20
6.4416395399305548
 30
0.0
 10
27.6782416449652757
 20
6.0826605902777775
 30
0.0
 10
27.9690077039930536
 20
5.7915500217013882
 30
0.0
 10
28.3283311631944414
 20
5.7915500217013882
 30
0.0
  0
SPLINE
  5
238
100
AcDbEntity
  8
DR-100_R-SIDE_50P_
390
0
 62
     7
100
AcDbSpline
210
0.0
220
0.0
230
1.0
 70
     8
 71
     3
 72
     8
 73
     4
 74
     0
 42
0.00000001
 43
0.00000001
 40
0.0
 40
0.0
 40
0.0
 40
0.0
 40
1.0
 40
1.0
 40
1.0
 40
1.0
 10
35.5747450086805515
 20
17.8748779296875
 30
0.0
 10
35.3094726562499943
 20
17.9131184895833329
 30
0.0
 10
35.04316677517361
 20
17.9420572916666643
 30
0.0
 10
34.7761718749999957
 20
17.9616943359374979
 30
0.0
  0
SPLINE
  5
237
100
AcDbEntity
  8
DR-100_R-SIDE_50P_
390
0
 62
     7
100
AcDbSpline
210
0.0
220
0.0
230
1.0
 70
     8
 71
     3
 72
     8
 73
     4
 74
     0
 42
0.00000001
 43
0.00000001
 40
0.0
 40
0.0
 40
0.0
 40
0.0
 40
1.0
 40
1.0
 40
1.0
 40
1.0
 10
33.1301052517361114
 20
17.9616943359374979
 30
0.0
 10
32.8631103515624972
 20
17.9420572916666643
 30
0.0
 10
32.5968044704861057
 20
17.9131184895833329
 30
0.0
 10
32.3315321180555557
 20
17.8748779296875
 30
0.0
  0
SPLINE
  5
236
100
AcDbEntity
  8
DR-100_R-SIDE_50P_
390
0
 62
     7
100
AcDbSpline
210
0.0
220
0.0
230
1.0
 70
     8
 71
     3
 72
    11
 73
     7
 74
     0
 42
0.00000001
 43
0.00000001
 40
0.0
 40
0.0
 40
0.0
 40
0.0
 40
1.0
 40
1.0
 40
1.0
 40
2.0
 40
2.0
 40
2.0
 40
2.0
 10
3.3031575520833329
 20
6.5415473090277771
 30
0.0
 10
3.3031575520833329
 20
6.5684190538194436
 30
0.0
 10
3.2924777560763885
 20
6.5935682508680546
 30
0.0
 10
3.2738742404513888
 20
6.6125162760416663
 30
0.0
 10
3.2549262152777776
 20
6.6311197916666664
 30
0.0
 10
3.2297770182291665
 20
6.6417995876736109
 30
0.0
 10
3.2032497829861106
 20
6.6417995876736109
 30
0.0
  0
SPLINE
  5
235
100
AcDbEntity
  8
DR-100_R-SIDE_50P_
390
0
 62
     7
100
AcDbSpline
210
0.0
220
0.0
230
1.0
 70
     8
 71
     3
 72
     8
 73
     4
 74
     0
 42
0.00000001
 43
0.00000001
 40
0.0
 40
0.0
 40
0.0
 40
0.0
 40
1.0
 40
1.0
 40
1.0
 40
1.0
 10
3.7031331380208332
 20
6.6417995876736109
 30
0.0
 10
3.6480116102430551
 20
6.6417995876736109
 30
0.0
 10
3.6032253689236109
 20
6.5970133463541663
 30
0.0
 10
3.6032253689236109
 20
6.5415473090277771
 30
0.0
  0
SPLINE
  5
234
100
AcDbEntity
  8
DR-100_R-SIDE_50P_
390
0
 62
     7
100
AcDbSpline
210
0.0
220
0.0
230
1.0
 70
     8
 71
     3
 72
    11
 73
     7
 74
     0
 42
0.00000001
 43
0.00000001
 40
0.0
 40
0.0
 40
0.0
 40
0.0
 40
1.0
 40
1.0
 40
1.0
 40
2.0
 40
2.0
 40
2.0
 40
2.0
 10
3.6032253689236109
 20
7.0417751736111107
 30
0.0
 10
3.6032253689236109
 20
7.0149034288194434
 30
0.0
 10
3.6139051649305554
 20
6.9894097222222218
 30
0.0
 10
3.6328531901041665
 20
6.9708062065972216
 30
0.0
 10
3.6518012152777772
 20
6.9518581814236109
 30
0.0
 10
3.6776394314236107
 20
6.941522894965277
 30
0.0
 10
3.7045111762152776
 20
6.9418674045138884
 30
0.0
  0
SPLINE
  5
233
100
AcDbEntity
  8
DR-100_R-SIDE_50P_
390
0
 62
     7
100
AcDbSpline
210
0.0
220
0.0
230
1.0
 70
     8
 71
     3
 72
    11
 73
     7
 74
     0
 42
0.00000001
 43
0.00000001
 40
0.0
 40
0.0
 40
0.0
 40
0.0
 40
1.0
 40
1.0
 40
1.0
 40
2.0
 40
2.0
 40
2.0
 40
2.0
 10
3.2032497829861106
 20
6.9418674045138884
 30
0.0
 10
3.2297770182291665
 20
6.9418674045138884
 30
0.0
 10
3.2549262152777776
 20
6.9522026909722214
 30
0.0
 10
3.2738742404513888
 20
6.971150716145833
 30
0.0
 10
3.2924777560763885
 20
6.9897542317708323
 30
0.0
 10
3.3031575520833329
 20
7.0152479383680548
 30
0.0
 10
3.3031575520833329
 20
7.0417751736111107
 30
0.0
  0
SPLINE
  5
232
100
AcDbEntity
  8
DR-100_R-SIDE_50P_
390
0
 62
     7
100
AcDbSpline
210
0.0
220
0.0
230
1.0
 70
     8
 71
     3
 72
    17
 73
    13
 74
     0
 42
0.00000001
 43
0.00000001
 40
0.0
 40
0.0
 40
0.0
 40
0.0
 40
1.0
 40
1.0
 40
1.0
 40
2.0
 40
2.0
 40
2.0
 40
3.0
 40
3.0
 40
3.0
 40
4.0
 40
4.0
 40
4.0
 40
4.0
 10
3.4530192057291664
 20
6.041663953993055
 30
0.0
 10
3.8674641927083329
 20
6.041663953993055
 30
0.0
 10
4.2030164930555554
 20
6.3772162543402775
 30
0.0
 10
4.2030164930555554
 20
6.7916612413194439
 30
0.0
 10
4.2030164930555554
 20
7.2061062282986104
 30
0.0
 10
3.8674641927083329
 20
7.5416585286458329
 30
0.0
 10
3.4530192057291664
 20
7.5416585286458329
 30
0.0
 10
3.038918728298611
 20
7.5416585286458329
 30
0.0
 10
2.7030219184027775
 20
7.2061062282986104
 30
0.0
 10
2.7030219184027775
 20
6.7916612413194439
 30
0.0
 10
2.7030219184027775
 20
6.3772162543402775
 30
0.0
 10
3.038918728298611
 20
6.041663953993055
 30
0.0
 10
3.4530192057291664
 20
6.041663953993055
 30
0.0
  0
SPLINE
  5
231
100
AcDbEntity
  8
DR-100_R-SIDE_50P_
390
0
 62
     7
100
AcDbSpline
210
0.0
220
0.0
230
1.0
 70
     8
 71
     3
 72
    17
 73
    13
 74
     0
 42
0.00000001
 43
0.00000001
 40
0.0
 40
0.0
 40
0.0
 40
0.0
 40
1.0
 40
1.0
 40
1.0
 40
2.0
 40
2.0
 40
2.0
 40
3.0
 40
3.0
 40
3.0
 40
4.0
 40
4.0
 40
4.0
 40
4.0
 10
3.4530192057291664
 20
5.9665608723958332
 30
0.0
 10
3.9088053385416663
 20
5.9665608723958332
 30
0.0
 10
4.2781195746527771
 20
6.3358751085069436
 30
0.0
 10
4.2781195746527771
 20
6.7916612413194439
 30
0.0
 10
4.2781195746527771
 20
7.2474473741319434
 30
0.0
 10
3.9088053385416663
 20
7.6167616102430546
 30
0.0
 10
3.4530192057291664
 20
7.6167616102430546
 30
0.0
 10
2.9975775824652775
 20
7.6167616102430546
 30
0.0
 10
2.6282633463541663
 20
7.2474473741319434
 30
0.0
 10
2.6282633463541663
 20
6.7916612413194439
 30
0.0
 10
2.6282633463541663
 20
6.3358751085069436
 30
0.0
 10
2.9975775824652775
 20
5.9665608723958332
 30
0.0
 10
3.4530192057291664
 20
5.9665608723958332
 30
0.0
  0
SPLINE
  5
230
100
AcDbEntity
  8
DR-100_R-SIDE_50P_
390
0
 62
     7
100
AcDbSpline
210
0.0
220
0.0
230
1.0
 70
     8
 71
     3
 72
     8
 73
     4
 74
     0
 42
0.00000001
 43
0.00000001
 40
0.0
 40
0.0
 40
0.0
 40
0.0
 40
1.0
 40
1.0
 40
1.0
 40
1.0
 10
24.3316758897569407
 20
17.8748779296875
 30
0.0
 10
24.2827555338541643
 20
17.8676432291666636
 30
0.0
 10
24.2403808593749979
 20
17.836981879340275
 30
0.0
 10
24.2186767578124993
 20
17.7925401475694436
 30
0.0
  0
SPLINE
  5
22F
100
AcDbEntity
  8
DR-100_R-SIDE_50P_
390
0
 62
     7
100
AcDbSpline
210
0.0
220
0.0
230
1.0
 70
     8
 71
     3
 72
     8
 73
     4
 74
     0
 42
0.00000001
 43
0.00000001
 40
0.0
 40
0.0
 40
0.0
 40
0.0
 40
1.0
 40
1.0
 40
1.0
 40
1.0
 10
27.687887912326385
 20
17.7925401475694436
 30
0.0
 10
27.665839301215275
 20
17.836981879340275
 30
0.0
 10
27.6234646267361086
 20
17.8676432291666636
 30
0.0
 10
27.5745442708333321
 20
17.8748779296875
 30
0.0
  0
SPLINE
  5
22E
100
AcDbEntity
  8
DR-100_R-SIDE_50P_
390
0
 62
     7
100
AcDbSpline
210
0.0
220
0.0
230
1.0
 70
     8
 71
     3
 72
     8
 73
     4
 74
     0
 42
0.00000001
 43
0.00000001
 40
0.0
 40
0.0
 40
0.0
 40
0.0
 40
1.0
 40
1.0
 40
1.0
 40
1.0
 10
19.6876871744791657
 20
17.7925401475694436
 30
0.0
 10
19.6659830729166636
 20
17.836981879340275
 30
0.0
 10
19.6236083984374972
 20
17.8676432291666636
 30
0.0
 10
19.5746880425347207
 20
17.8748779296875
 30
0.0
  0
SPLINE
  5
22D
100
AcDbEntity
  8
DR-100_R-SIDE_50P_
390
0
 62
     7
100
AcDbSpline
210
0.0
220
0.0
230
1.0
 70
     8
 71
     3
 72
     8
 73
     4
 74
     0
 42
0.00000001
 43
0.00000001
 40
0.0
 40
0.0
 40
0.0
 40
0.0
 40
1.0
 40
1.0
 40
1.0
 40
1.0
 10
32.3315321180555557
 20
17.8748779296875
 30
0.0
 10
32.2826117621527757
 20
17.8676432291666636
 30
0.0
 10
32.2405815972222172
 20
17.836981879340275
 30
0.0
 10
32.2185329861111072
 20
17.7925401475694436
 30
0.0
  0
SPLINE
  5
22C
100
AcDbEntity
  8
DR-100_R-SIDE_50P_
390
0
 62
     7
100
AcDbSpline
210
0.0
220
0.0
230
1.0
 70
     8
 71
     3
 72
     8
 73
     4
 74
     0
 42
0.00000001
 43
0.00000001
 40
0.0
 40
0.0
 40
0.0
 40
0.0
 40
1.0
 40
1.0
 40
1.0
 40
1.0
 10
35.687744140625
 20
17.7925401475694436
 30
0.0
 10
35.6656955295138829
 20
17.836981879340275
 30
0.0
 10
35.6236653645833314
 20
17.8676432291666636
 30
0.0
 10
35.5747450086805515
 20
17.8748779296875
 30
0.0
  0
SPLINE
  5
22B
100
AcDbEntity
  8
DR-100_R-SIDE_50P_
390
0
 62
     7
100
AcDbSpline
210
0.0
220
0.0
230
1.0
 70
     8
 71
     3
 72
     8
 73
     4
 74
     0
 42
0.00000001
 43
0.00000001
 40
0.0
 40
0.0
 40
0.0
 40
0.0
 40
1.0
 40
1.0
 40
1.0
 40
1.0
 10
33.2782443576388829
 20
18.1418728298611107
 30
0.0
 10
33.1952175564236072
 20
18.1418728298611107
 30
0.0
 10
33.1280381944444429
 20
18.0743489583333314
 30
0.0
 10
33.1280381944444429
 20
17.9916666666666636
 30
0.0
  0
SPLINE
  5
22A
100
AcDbEntity
  8
DR-100_R-SIDE_50P_
390
0
 62
     7
100
AcDbSpline
210
0.0
220
0.0
230
1.0
 70
     8
 71
     3
 72
    11
 73
     7
 74
     0
 42
0.00000001
 43
0.00000001
 40
0.0
 40
0.0
 40
0.0
 40
0.0
 40
1.0
 40
1.0
 40
1.0
 40
2.0
 40
2.0
 40
2.0
 40
2.0
 10
34.7782389322916643
 20
17.9916666666666636
 30
0.0
 10
34.7782389322916643
 20
18.0316297743055536
 30
0.0
 10
34.7623914930555529
 20
18.0698703342013864
 30
0.0
 10
34.7341417100694443
 20
18.0977756076388872
 30
0.0
 10
34.70623643663194
 20
18.1256808810763879
 30
0.0
 10
34.6679958767361072
 20
18.1418728298611107
 30
0.0
 10
34.6280327690972172
 20
18.1418728298611107
 30
0.0
  0
SPLINE
  5
229
100
AcDbEntity
  8
DR-100_R-SIDE_50P_
390
0
 62
     7
100
AcDbSpline
210
0.0
220
0.0
230
1.0
 70
     8
 71
     3
 72
     8
 73
     4
 74
     0
 42
0.00000001
 43
0.00000001
 40
0.0
 40
0.0
 40
0.0
 40
0.0
 40
1.0
 40
1.0
 40
1.0
 40
1.0
 10
28.4278944227430515
 20
14.1417724609374993
 30
0.0
 10
28.1519422743055543
 20
14.1417724609374993
 30
0.0
 10
27.9280110677083293
 20
13.9178412543402761
 30
0.0
 10
27.9280110677083293
 20
13.6415445963541657
 30
0.0
  0
SPLINE
  5
228
100
AcDbEntity
  8
DR-100_R-SIDE_50P_
390
0
 62
     7
100
AcDbSpline
210
0.0
220
0.0
230
1.0
 70
     8
 71
     3
 72
     8
 73
     4
 74
     0
 42
0.00000001
 43
0.00000001
 40
0.0
 40
0.0
 40
0.0
 40
0.0
 40
1.0
 40
1.0
 40
1.0
 40
1.0
 10
28.3283311631944414
 20
14.2916341145833314
 30
0.0
 10
27.969352213541665
 20
14.2916341145833314
 30
0.0
 10
27.6782416449652757
 20
14.0008680555555536
 30
0.0
 10
27.6782416449652757
 20
13.6415445963541657
 30
0.0
  0
SPLINE
  5
227
100
AcDbEntity
  8
DR-100_R-SIDE_50P_
390
0
 62
     7
100
AcDbSpline
210
0.0
220
0.0
230
1.0
 70
     8
 71
     3
 72
     8
 73
     4
 74
     0
 42
0.00000001
 43
0.00000001
 40
0.0
 40
0.0
 40
0.0
 40
0.0
 40
1.0
 40
1.0
 40
1.0
 40
1.0
 10
0.3031684027777777
 20
13.5416368272569425
 30
0.0
 10
0.248046875
 20
13.5416368272569425
 30
0.0
 10
0.2032606336805555
 20
13.4971950954861093
 30
0.0
 10
0.2032606336805555
 20
13.4417290581597211
 30
0.0
  0
SPLINE
  5
226
100
AcDbEntity
  8
DR-100_R-SIDE_50P_
390
0
 62
     7
100
AcDbSpline
210
0.0
220
0.0
230
1.0
 70
     8
 71
     3
 72
    11
 73
     7
 74
     0
 42
0.00000001
 43
0.00000001
 40
0.0
 40
0.0
 40
0.0
 40
0.0
 40
1.0
 40
1.0
 40
1.0
 40
2.0
 40
2.0
 40
2.0
 40
2.0
 10
3.3031575520833329
 20
13.0417534722222204
 30
0.0
 10
3.3031575520833329
 20
13.0682807074652771
 30
0.0
 10
3.2924777560763885
 20
13.0937744140624996
 30
0.0
 10
3.2738742404513888
 20
13.1123779296874989
 30
0.0
 10
3.2549262152777776
 20
13.1313259548611097
 30
0.0
 10
3.2297770182291665
 20
13.1416612413194436
 30
0.0
 10
3.2032497829861106
 20
13.1416612413194436
 30
0.0
  0
SPLINE
  5
225
100
AcDbEntity
  8
DR-100_R-SIDE_50P_
390
0
 62
     7
100
AcDbSpline
210
0.0
220
0.0
230
1.0
 70
     8
 71
     3
 72
     8
 73
     4
 74
     0
 42
0.00000001
 43
0.00000001
 40
0.0
 40
0.0
 40
0.0
 40
0.0
 40
1.0
 40
1.0
 40
1.0
 40
1.0
 10
3.7031331380208332
 20
13.1416612413194436
 30
0.0
 10
3.6480116102430551
 20
13.1416612413194436
 30
0.0
 10
3.6032253689236109
 20
13.0968749999999989
 30
0.0
 10
3.6032253689236109
 20
13.0417534722222204
 30
0.0
  0
SPLINE
  5
224
100
AcDbEntity
  8
DR-100_R-SIDE_50P_
390
0
 62
     7
100
AcDbSpline
210
0.0
220
0.0
230
1.0
 70
     8
 71
     3
 72
    11
 73
     7
 74
     0
 42
0.00000001
 43
0.00000001
 40
0.0
 40
0.0
 40
0.0
 40
0.0
 40
1.0
 40
1.0
 40
1.0
 40
2.0
 40
2.0
 40
2.0
 40
2.0
 10
3.6032253689236109
 20
13.5416368272569425
 30
0.0
 10
3.6032253689236109
 20
13.5151095920138875
 30
0.0
 10
3.6139051649305554
 20
13.4892713758680536
 30
0.0
 10
3.6328531901041665
 20
13.4706678602430543
 30
0.0
 10
3.6518012152777772
 20
13.4517198350694436
 30
0.0
 10
3.6776394314236107
 20
13.4413845486111097
 30
0.0
 10
3.7045111762152776
 20
13.4417290581597211
 30
0.0
  0
SPLINE
  5
223
100
AcDbEntity
  8
DR-100_R-SIDE_50P_
390
0
 62
     7
100
AcDbSpline
210
0.0
220
0.0
230
1.0
 70
     8
 71
     3
 72
    11
 73
     7
 74
     0
 42
0.00000001
 43
0.00000001
 40
0.0
 40
0.0
 40
0.0
 40
0.0
 40
1.0
 40
1.0
 40
1.0
 40
2.0
 40
2.0
 40
2.0
 40
2.0
 10
3.2032497829861106
 20
13.4417290581597211
 30
0.0
 10
3.2297770182291665
 20
13.4417290581597211
 30
0.0
 10
3.2549262152777776
 20
13.452064344618055
 30
0.0
 10
3.2738742404513888
 20
13.4710123697916657
 30
0.0
 10
3.2924777560763885
 20
13.4899603949652764
 30
0.0
 10
3.3031575520833329
 20
13.5151095920138875
 30
0.0
 10
3.3031575520833329
 20
13.5416368272569425
 30
0.0
  0
SPLINE
  5
222
100
AcDbEntity
  8
DR-100_R-SIDE_50P_
390
0
 62
     7
100
AcDbSpline
210
0.0
220
0.0
230
1.0
 70
     8
 71
     3
 72
     8
 73
     4
 74
     0
 42
0.00000001
 43
0.00000001
 40
0.0
 40
0.0
 40
0.0
 40
0.0
 40
1.0
 40
1.0
 40
1.0
 40
1.0
 10
0.6032362196180555
 20
14.791861979166665
 30
0.0
 10
0.5202094184027777
 20
14.791861979166665
 30
0.0
 10
0.453030056423611
 20
14.7246826171874989
 30
0.0
 10
0.453030056423611
 20
14.6416558159722214
 30
0.0
  0
SPLINE
  5
221
100
AcDbEntity
  8
DR-100_R-SIDE_50P_
390
0
 62
     7
100
AcDbSpline
210
0.0
220
0.0
230
1.0
 70
     8
 71
     3
 72
     8
 73
     4
 74
     0
 42
0.00000001
 43
0.00000001
 40
0.0
 40
0.0
 40
0.0
 40
0.0
 40
1.0
 40
1.0
 40
1.0
 40
1.0
 10
0.6032362196180555
 20
15.5418592664930539
 30
0.0
 10
0.5202094184027777
 20
15.5418592664930539
 30
0.0
 10
0.453030056423611
 20
15.4746799045138879
 30
0.0
 10
0.453030056423611
 20
15.3916531032986104
 30
0.0
  0
SPLINE
  5
220
100
AcDbEntity
  8
DR-100_R-SIDE_50P_
390
0
 62
     7
100
AcDbSpline
210
0.0
220
0.0
230
1.0
 70
     8
 71
     3
 72
     8
 73
     4
 74
     0
 42
0.00000001
 43
0.00000001
 40
0.0
 40
0.0
 40
0.0
 40
0.0
 40
1.0
 40
1.0
 40
1.0
 40
1.0
 10
16.3318196614583329
 20
17.8748779296875
 30
0.0
 10
16.2828993055555529
 20
17.8676432291666636
 30
0.0
 10
16.2405246310763864
 20
17.836981879340275
 30
0.0
 10
16.2184760199652764
 20
17.7925401475694436
 30
0.0
  0
SPLINE
  5
21F
100
AcDbEntity
  8
DR-100_R-SIDE_50P_
390
0
 62
     7
100
AcDbSpline
210
0.0
220
0.0
230
1.0
 70
     8
 71
     3
 72
     8
 73
     4
 74
     0
 42
0.00000001
 43
0.00000001
 40
0.0
 40
0.0
 40
0.0
 40
0.0
 40
1.0
 40
1.0
 40
1.0
 40
1.0
 10
6.3531005859374998
 20
17.9916666666666636
 30
0.0
 10
6.2700737847222214
 20
17.9916666666666636
 30
0.0
 10
6.2028944227430554
 20
17.9244873046874993
 30
0.0
 10
6.2028944227430554
 20
17.8418050130208314
 30
0.0
  0
SPLINE
  5
21E
100
AcDbEntity
  8
DR-100_R-SIDE_50P_
390
0
 62
     7
100
AcDbSpline
210
0.0
220
0.0
230
1.0
 70
     8
 71
     3
 72
     8
 73
     4
 74
     0
 42
0.00000001
 43
0.00000001
 40
0.0
 40
0.0
 40
0.0
 40
0.0
 40
1.0
 40
1.0
 40
1.0
 40
1.0
 10
10.2033393012152764
 20
17.8418050130208314
 30
0.0
 10
10.2033393012152764
 20
17.9241427951388879
 30
0.0
 10
10.1368489583333332
 20
17.9909776475694443
 30
0.0
 10
10.0548556857638882
 20
17.9916666666666636
 30
0.0
  0
SPLINE
  5
21D
100
AcDbEntity
  8
DR-100_R-SIDE_50P_
390
0
 62
     7
100
AcDbSpline
210
0.0
220
0.0
230
1.0
 70
     8
 71
     3
 72
     8
 73
     4
 74
     0
 42
0.00000001
 43
0.00000001
 40
0.0
 40
0.0
 40
0.0
 40
0.0
 40
1.0
 40
1.0
 40
1.0
 40
1.0
 10
8.0649685329861107
 20
17.9482584635416664
 30
0.0
 10
7.9874538845486107
 20
17.9413682725694414
 30
0.0
 10
7.9281982421874995
 20
17.8766004774305536
 30
0.0
 10
7.9281982421874995
 20
17.7987413194444422
 30
0.0
  0
SPLINE
  5
21C
100
AcDbEntity
  8
DR-100_R-SIDE_50P_
390
0
 62
     7
100
AcDbSpline
210
0.0
220
0.0
230
1.0
 70
     8
 71
     3
 72
     8
 73
     4
 74
     0
 42
0.00000001
 43
0.00000001
 40
0.0
 40
0.0
 40
0.0
 40
0.0
 40
1.0
 40
1.0
 40
1.0
 40
1.0
 10
10.1781901041666654
 20
17.7987413194444422
 30
0.0
 10
10.1781901041666654
 20
17.8766004774305536
 30
0.0
 10
10.1185899522569436
 20
17.9413682725694414
 30
0.0
 10
10.041419813368055
 20
17.9482584635416664
 30
0.0
  0
SPLINE
  5
21B
100
AcDbEntity
  8
DR-100_R-SIDE_50P_
390
0
 62
     7
100
AcDbSpline
210
0.0
220
0.0
230
1.0
 70
     8
 71
     3
 72
     8
 73
     4
 74
     0
 42
0.00000001
 43
0.00000001
 40
0.0
 40
0.0
 40
0.0
 40
0.0
 40
1.0
 40
1.0
 40
1.0
 40
1.0
 10
6.3531005859374998
 20
17.8917588975694422
 30
0.0
 10
6.2900553385416664
 20
17.8917588975694422
 30
0.0
 10
6.2339002821180554
 20
17.8521402994791636
 30
0.0
 10
6.212196180555555
 20
17.792884657118055
 30
0.0
  0
SPLINE
  5
21A
100
AcDbEntity
  8
DR-100_R-SIDE_50P_
390
0
 62
     7
100
AcDbSpline
210
0.0
220
0.0
230
1.0
 70
     8
 71
     3
 72
     8
 73
     4
 74
     0
 42
0.00000001
 43
0.00000001
 40
0.0
 40
0.0
 40
0.0
 40
0.0
 40
1.0
 40
1.0
 40
1.0
 40
1.0
 10
10.1902479383680546
 20
17.8021864149305529
 30
0.0
 10
10.1861138237847211
 20
17.8118326822916657
 30
0.0
 10
10.1812906901041664
 20
17.8204454210069443
 30
0.0
 10
10.1750895182291661
 20
17.8290581597222193
 30
0.0
  0
SPLINE
  5
219
100
AcDbEntity
  8
DR-100_R-SIDE_50P_
390
0
 62
     7
100
AcDbSpline
210
0.0
220
0.0
230
1.0
 70
     8
 71
     3
 72
    17
 73
    13
 74
     0
 42
0.00000001
 43
0.00000001
 40
0.0
 40
0.0
 40
0.0
 40
0.0
 40
1.0
 40
1.0
 40
1.0
 40
2.0
 40
2.0
 40
2.0
 40
3.0
 40
3.0
 40
3.0
 40
4.0
 40
4.0
 40
4.0
 40
4.0
 10
3.4530192057291664
 20
12.5418701171874982
 30
0.0
 10
3.8674641927083329
 20
12.5418701171874982
 30
0.0
 10
4.2030164930555554
 20
12.8774224175347207
 30
0.0
 10
4.2030164930555554
 20
13.2918674045138872
 30
0.0
 10
4.2030164930555554
 20
13.7059678819444439
 30
0.0
 10
3.8674641927083329
 20
14.0418646918402761
 30
0.0
 10
3.4530192057291664
 20
14.0418646918402761
 30
0.0
 10
3.038918728298611
 20
14.0418646918402761
 30
0.0
 10
2.7030219184027775
 20
13.7059678819444439
 30
0.0
 10
2.7030219184027775
 20
13.2918674045138872
 30
0.0
 10
2.7030219184027775
 20
12.8774224175347207
 30
0.0
 10
3.038918728298611
 20
12.5418701171874982
 30
0.0
 10
3.4530192057291664
 20
12.5418701171874982
 30
0.0
  0
SPLINE
  5
218
100
AcDbEntity
  8
DR-100_R-SIDE_50P_
390
0
 62
     7
100
AcDbSpline
210
0.0
220
0.0
230
1.0
 70
     8
 71
     3
 72
    17
 73
    13
 74
     0
 42
0.00000001
 43
0.00000001
 40
0.0
 40
0.0
 40
0.0
 40
0.0
 40
1.0
 40
1.0
 40
1.0
 40
2.0
 40
2.0
 40
2.0
 40
3.0
 40
3.0
 40
3.0
 40
4.0
 40
4.0
 40
4.0
 40
4.0
 10
3.4530192057291664
 20
12.4667670355902764
 30
0.0
 10
3.9088053385416663
 20
12.4667670355902764
 30
0.0
 10
4.2781195746527771
 20
12.8360812717013886
 30
0.0
 10
4.2781195746527771
 20
13.2918674045138872
 30
0.0
 10
4.2781195746527771
 20
13.7473090277777761
 30
0.0
 10
3.9088053385416663
 20
14.1166232638888882
 30
0.0
 10
3.4530192057291664
 20
14.1166232638888882
 30
0.0
 10
2.9975775824652775
 20
14.1166232638888882
 30
0.0
 10
2.6282633463541663
 20
13.7473090277777761
 30
0.0
 10
2.6282633463541663
 20
13.2918674045138872
 30
0.0
 10
2.6282633463541663
 20
12.8360812717013886
 30
0.0
 10
2.9975775824652775
 20
12.4667670355902764
 30
0.0
 10
3.4530192057291664
 20
12.4667670355902764
 30
0.0
  0
SPLINE
  5
217
100
AcDbEntity
  8
DR-100_R-SIDE_50P_
390
0
 62
     7
100
AcDbSpline
210
0.0
220
0.0
230
1.0
 70
     8
 71
     3
 72
     8
 73
     4
 74
     0
 42
0.00000001
 43
0.00000001
 40
0.0
 40
0.0
 40
0.0
 40
0.0
 40
1.0
 40
1.0
 40
1.0
 40
1.0
 10
2.0532769097222219
 20
17.7918511284722207
 30
0.0
 10
1.501028103298611
 20
17.7918511284722207
 30
0.0
 10
1.0531656901041666
 20
17.3439887152777779
 30
0.0
 10
1.0531656901041666
 20
16.791739908854165
 30
0.0
  0
LINE
  5
216
100
AcDbEntity
  8
DR-100_R-SIDE_50P_
390
0
 62
     7
100
AcDbLine
 10
76.653375
 20
13.291867
 30
0.0
 11
76.653375
 21
4.791783
 31
0.0
  0
LINE
  5
215
100
AcDbEntity
  8
DR-100_R-SIDE_50P_
390
0
 62
     7
100
AcDbLine
 10
76.953442
 20
12.991455
 30
0.0
 11
76.953442
 21
5.092196
 31
0.0
  0
LINE
  5
214
100
AcDbEntity
  8
DR-100_R-SIDE_50P_
390
0
 62
     7
100
AcDbLine
 10
76.453215
 20
4.791783
 30
0.0
 11
76.453215
 21
2.941767
 31
0.0
  0
LINE
  5
213
100
AcDbEntity
  8
DR-100_R-SIDE_50P_
390
0
 62
     7
100
AcDbLine
 10
76.453215
 20
14.641656
 30
0.0
 11
76.453215
 21
13.291867
 31
0.0
  0
LINE
  5
212
100
AcDbEntity
  8
DR-100_R-SIDE_50P_
390
0
 62
     7
100
AcDbLine
 10
75.853423
 20
2.791905
 30
0.0
 11
75.853423
 21
1.291911
 31
0.0
  0
LINE
  5
211
100
AcDbEntity
  8
DR-100_R-SIDE_50P_
390
0
 62
     7
100
AcDbLine
 10
75.853423
 20
2.791905
 30
0.0
 11
75.853423
 21
1.291911
 31
0.0
  0
LINE
  5
210
100
AcDbEntity
  8
DR-100_R-SIDE_50P_
390
0
 62
     7
100
AcDbLine
 10
75.853423
 20
16.79174
 30
0.0
 11
75.853423
 21
14.791862
 31
0.0
  0
LINE
  5
20F
100
AcDbEntity
  8
DR-100_R-SIDE_50P_
390
0
 62
     7
100
AcDbLine
 10
74.828507
 20
4.887901
 30
0.0
 11
74.828507
 21
13.195405
 31
0.0
  0
LINE
  5
20E
100
AcDbEntity
  8
DR-100_R-SIDE_50P_
390
0
 62
     7
100
AcDbLine
 10
74.578394
 20
5.450141
 30
0.0
 11
74.578394
 21
4.841737
 31
0.0
  0
LINE
  5
20D
100
AcDbEntity
  8
DR-100_R-SIDE_50P_
390
0
 62
     7
100
AcDbLine
 10
74.578394
 20
13.241914
 30
0.0
 11
74.578394
 21
12.63351
 31
0.0
  0
LINE
  5
20C
100
AcDbEntity
  8
DR-100_R-SIDE_50P_
390
0
 62
     7
100
AcDbLine
 10
74.487788
 20
14.699189
 30
0.0
 11
74.488132
 21
13.993289
 31
0.0
  0
LINE
  5
20B
100
AcDbEntity
  8
DR-100_R-SIDE_50P_
390
0
 62
     7
100
AcDbLine
 10
73.828396
 20
5.450141
 30
0.0
 11
73.828396
 21
4.841737
 31
0.0
  0
LINE
  5
20A
100
AcDbEntity
  8
DR-100_R-SIDE_50P_
390
0
 62
     7
100
AcDbLine
 10
73.828396
 20
13.241914
 30
0.0
 11
73.828396
 21
12.63351
 31
0.0
  0
LINE
  5
209
100
AcDbEntity
  8
DR-100_R-SIDE_50P_
390
0
 62
     7
100
AcDbLine
 10
73.628236
 20
14.791862
 30
0.0
 11
73.628236
 21
15.291745
 31
0.0
  0
LINE
  5
208
100
AcDbEntity
  8
DR-100_R-SIDE_50P_
390
0
 62
     7
100
AcDbLine
 10
73.603432
 20
14.941724
 30
0.0
 11
73.603432
 21
14.916919
 31
0.0
  0
LINE
  5
207
100
AcDbEntity
  8
DR-100_R-SIDE_50P_
390
0
 62
     7
100
AcDbLine
 10
73.578282
 20
4.887901
 30
0.0
 11
73.578282
 21
13.195405
 31
0.0
  0
LINE
  5
206
100
AcDbEntity
  8
DR-100_R-SIDE_50P_
390
0
 62
     7
100
AcDbLine
 10
73.575871
 20
2.791905
 30
0.0
 11
73.575871
 21
15.291745
 31
0.0
  0
LINE
  5
205
100
AcDbEntity
  8
DR-100_R-SIDE_50P_
390
0
 62
     7
100
AcDbLine
 10
73.278215
 20
2.266184
 30
0.0
 11
73.278215
 21
2.202105
 31
0.0
  0
LINE
  5
204
100
AcDbEntity
  8
DR-100_R-SIDE_50P_
390
0
 62
     7
100
AcDbLine
 10
73.278215
 20
15.817122
 30
0.0
 11
73.278215
 21
15.854674
 31
0.0
  0
LINE
  5
203
100
AcDbEntity
  8
DR-100_R-SIDE_50P_
390
0
 62
     7
100
AcDbLine
 10
73.028445
 20
2.166621
 30
0.0
 11
73.028445
 21
2.126657
 31
0.0
  0
LINE
  5
202
100
AcDbEntity
  8
DR-100_R-SIDE_50P_
390
0
 62
     7
100
AcDbLine
 10
73.003296
 20
15.934945
 30
0.0
 11
73.003296
 21
15.916686
 31
0.0
  0
LINE
  5
201
100
AcDbEntity
  8
DR-100_R-SIDE_50P_
390
0
 62
     7
100
AcDbLine
 10
72.878583
 20
2.126657
 30
0.0
 11
72.878583
 21
2.166621
 31
0.0
  0
LINE
  5
200
100
AcDbEntity
  8
DR-100_R-SIDE_50P_
390
0
 62
     7
100
AcDbLine
 10
72.753182
 20
15.90635
 30
0.0
 11
72.753182
 21
15.869488
 31
0.0
  0
LINE
  5
1FF
100
AcDbEntity
  8
DR-100_R-SIDE_50P_
390
0
 62
     7
100
AcDbLine
 10
72.628125
 20
2.263083
 30
0.0
 11
72.628125
 21
2.202105
 31
0.0
  0
LINE
  5
1FE
100
AcDbEntity
  8
DR-100_R-SIDE_50P_
390
0
 62
     7
100
AcDbLine
 10
72.628125
 20
15.820567
 30
0.0
 11
72.628125
 21
15.854674
 31
0.0
  0
LINE
  5
1FD
100
AcDbEntity
  8
DR-100_R-SIDE_50P_
390
0
 62
     7
100
AcDbLine
 10
72.330813
 20
15.291745
 30
0.0
 11
72.330813
 21
2.791905
 31
0.0
  0
LINE
  5
1FC
100
AcDbEntity
  8
DR-100_R-SIDE_50P_
390
0
 62
     7
100
AcDbLine
 10
72.328057
 20
5.450141
 30
0.0
 11
72.328057
 21
4.841737
 31
0.0
  0
LINE
  5
1FB
100
AcDbEntity
  8
DR-100_R-SIDE_50P_
390
0
 62
     7
100
AcDbLine
 10
72.328057
 20
13.241914
 30
0.0
 11
72.328057
 21
12.63351
 31
0.0
  0
LINE
  5
1FA
100
AcDbEntity
  8
DR-100_R-SIDE_50P_
390
0
 62
     7
100
AcDbLine
 10
72.303252
 20
14.941724
 30
0.0
 11
72.303252
 21
14.916919
 31
0.0
  0
LINE
  5
1F9
100
AcDbEntity
  8
DR-100_R-SIDE_50P_
390
0
 62
     7
100
AcDbLine
 10
72.278448
 20
14.791862
 30
0.0
 11
72.278448
 21
15.291745
 31
0.0
  0
LINE
  5
1F8
100
AcDbEntity
  8
DR-100_R-SIDE_50P_
390
0
 62
     7
100
AcDbLine
 10
71.578404
 20
5.450141
 30
0.0
 11
71.578404
 21
4.841737
 31
0.0
  0
LINE
  5
1F7
100
AcDbEntity
  8
DR-100_R-SIDE_50P_
390
0
 62
     7
100
AcDbLine
 10
71.578404
 20
13.241914
 30
0.0
 11
71.578404
 21
12.63351
 31
0.0
  0
LINE
  5
1F6
100
AcDbEntity
  8
DR-100_R-SIDE_50P_
390
0
 62
     7
100
AcDbLine
 10
71.32829
 20
4.887901
 30
0.0
 11
71.32829
 21
13.195405
 31
0.0
  0
LINE
  5
1F5
100
AcDbEntity
  8
DR-100_R-SIDE_50P_
390
0
 62
     7
100
AcDbLine
 10
70.328179
 20
4.887901
 30
0.0
 11
70.328179
 21
13.195405
 31
0.0
  0
LINE
  5
1F4
100
AcDbEntity
  8
DR-100_R-SIDE_50P_
390
0
 62
     7
100
AcDbLine
 10
70.07841
 20
5.450141
 30
0.0
 11
70.07841
 21
4.841737
 31
0.0
  0
LINE
  5
1F3
100
AcDbEntity
  8
DR-100_R-SIDE_50P_
390
0
 62
     7
100
AcDbLine
 10
70.07841
 20
13.241914
 30
0.0
 11
70.07841
 21
12.63351
 31
0.0
  0
LINE
  5
1F2
100
AcDbEntity
  8
DR-100_R-SIDE_50P_
390
0
 62
     7
100
AcDbLine
 10
76.953098
 20
5.091851
 30
0.0
 11
76.653375
 21
4.791783
 31
0.0
  0
LINE
  5
1F1
100
AcDbEntity
  8
DR-100_R-SIDE_50P_
390
0
 62
     7
100
AcDbLine
 10
67.103225
 20
5.041897
 30
0.0
 11
67.103225
 21
13.041753
 31
0.0
  0
LINE
  5
1F0
100
AcDbEntity
  8
DR-100_R-SIDE_50P_
390
0
 62
     7
100
AcDbLine
 10
69.328413
 20
5.450141
 30
0.0
 11
69.328413
 21
4.841737
 31
0.0
  0
LINE
  5
1EF
100
AcDbEntity
  8
DR-100_R-SIDE_50P_
390
0
 62
     7
100
AcDbLine
 10
69.328413
 20
13.241914
 30
0.0
 11
69.328413
 21
12.63351
 31
0.0
  0
LINE
  5
1EE
100
AcDbEntity
  8
DR-100_R-SIDE_50P_
390
0
 62
     7
100
AcDbLine
 10
69.078299
 20
4.887901
 30
0.0
 11
69.078299
 21
13.195405
 31
0.0
  0
LINE
  5
1ED
100
AcDbEntity
  8
DR-100_R-SIDE_50P_
390
0
 62
     7
100
AcDbLine
 10
68.628369
 20
14.791862
 30
0.0
 11
68.628369
 21
15.291745
 31
0.0
  0
LINE
  5
1EC
100
AcDbEntity
  8
DR-100_R-SIDE_50P_
390
0
 62
     7
100
AcDbLine
 10
68.60322
 20
14.941724
 30
0.0
 11
68.60322
 21
14.916919
 31
0.0
  0
LINE
  5
1EB
100
AcDbEntity
  8
DR-100_R-SIDE_50P_
390
0
 62
     7
100
AcDbLine
 10
68.575659
 20
2.791905
 30
0.0
 11
68.575659
 21
15.291745
 31
0.0
  0
LINE
  5
1EA
100
AcDbEntity
  8
DR-100_R-SIDE_50P_
390
0
 62
     7
100
AcDbLine
 10
68.278347
 20
2.266184
 30
0.0
 11
68.278347
 21
2.202105
 31
0.0
  0
LINE
  5
1E9
100
AcDbEntity
  8
DR-100_R-SIDE_50P_
390
0
 62
     7
100
AcDbLine
 10
68.278347
 20
15.817122
 30
0.0
 11
68.278347
 21
15.854674
 31
0.0
  0
LINE
  5
1E8
100
AcDbEntity
  8
DR-100_R-SIDE_50P_
390
0
 62
     7
100
AcDbLine
 10
68.028234
 20
2.166621
 30
0.0
 11
68.028234
 21
2.126657
 31
0.0
  0
LINE
  5
1E7
100
AcDbEntity
  8
DR-100_R-SIDE_50P_
390
0
 62
     7
100
AcDbLine
 10
67.878372
 20
2.126657
 30
0.0
 11
67.878372
 21
2.166621
 31
0.0
  0
LINE
  5
1E6
100
AcDbEntity
  8
DR-100_R-SIDE_50P_
390
0
 62
     7
100
AcDbLine
 10
67.790866
 20
15.878445
 30
0.0
 11
67.790866
 21
15.920131
 31
0.0
  0
LINE
  5
1E5
100
AcDbEntity
  8
DR-100_R-SIDE_50P_
390
0
 62
     7
100
AcDbLine
 10
67.628258
 20
2.263083
 30
0.0
 11
67.628258
 21
2.202105
 31
0.0
  0
LINE
  5
1E4
100
AcDbEntity
  8
DR-100_R-SIDE_50P_
390
0
 62
     7
100
AcDbLine
 10
67.628258
 20
15.820567
 30
0.0
 11
67.628258
 21
15.854674
 31
0.0
  0
LINE
  5
1E3
100
AcDbEntity
  8
DR-100_R-SIDE_50P_
390
0
 62
     7
100
AcDbLine
 10
67.330602
 20
15.291745
 30
0.0
 11
67.330602
 21
2.791905
 31
0.0
  0
LINE
  5
1E2
100
AcDbEntity
  8
DR-100_R-SIDE_50P_
390
0
 62
     7
100
AcDbLine
 10
67.303385
 20
14.941724
 30
0.0
 11
67.303385
 21
14.916919
 31
0.0
  0
LINE
  5
1E1
100
AcDbEntity
  8
DR-100_R-SIDE_50P_
390
0
 62
     7
100
AcDbLine
 10
67.278236
 20
14.791862
 30
0.0
 11
67.278236
 21
15.291745
 31
0.0
  0
LINE
  5
1E0
100
AcDbEntity
  8
DR-100_R-SIDE_50P_
390
0
 62
     7
100
AcDbLine
 10
73.278215
 20
2.262739
 30
0.0
 11
73.25341
 21
2.246547
 31
0.0
  0
LINE
  5
1DF
100
AcDbEntity
  8
DR-100_R-SIDE_50P_
390
0
 62
     7
100
AcDbLine
 10
66.503434
 20
4.441762
 30
0.0
 11
66.503434
 21
13.641545
 31
0.0
  0
LINE
  5
1DE
100
AcDbEntity
  8
DR-100_R-SIDE_50P_
390
0
 62
     7
100
AcDbLine
 10
65.948774
 20
13.641545
 30
0.0
 11
65.948774
 21
14.03084
 31
0.0
  0
LINE
  5
1DD
100
AcDbEntity
  8
DR-100_R-SIDE_50P_
390
0
 62
     7
100
AcDbLine
 10
65.948774
 20
4.05281
 30
0.0
 11
65.948774
 21
4.441762
 31
0.0
  0
LINE
  5
1DC
100
AcDbEntity
  8
DR-100_R-SIDE_50P_
390
0
 62
     7
100
AcDbLine
 10
65.903299
 20
13.641545
 30
0.0
 11
65.903299
 21
4.441762
 31
0.0
  0
LINE
  5
1DB
100
AcDbEntity
  8
DR-100_R-SIDE_50P_
390
0
 62
     7
100
AcDbLine
 10
65.703139
 20
14.641656
 30
0.0
 11
65.703139
 21
2.941767
 31
0.0
  0
LINE
  5
1DA
100
AcDbEntity
  8
DR-100_R-SIDE_50P_
390
0
 62
     7
100
AcDbLine
 10
65.103347
 20
14.791862
 30
0.0
 11
65.103347
 21
16.79174
 31
0.0
  0
LINE
  5
1D9
100
AcDbEntity
  8
DR-100_R-SIDE_50P_
390
0
 62
     7
100
AcDbLine
 10
65.103347
 20
1.295011
 30
0.0
 11
65.103347
 21
2.791905
 31
0.0
  0
LINE
  5
1D8
100
AcDbEntity
  8
DR-100_R-SIDE_50P_
390
0
 62
     7
100
AcDbLine
 10
68.278347
 20
2.262739
 30
0.0
 11
68.253198
 21
2.246547
 31
0.0
  0
LINE
  5
1D7
100
AcDbEntity
  8
DR-100_R-SIDE_50P_
390
0
 62
     7
100
AcDbLine
 10
67.103225
 20
5.041897
 30
0.0
 11
66.50309
 21
4.441762
 31
0.0
  0
LINE
  5
1D6
100
AcDbEntity
  8
DR-100_R-SIDE_50P_
390
0
 62
     7
100
AcDbLine
 10
63.953375
 20
13.441729
 30
0.0
 11
63.953375
 21
13.141661
 31
0.0
  0
LINE
  5
1D5
100
AcDbEntity
  8
DR-100_R-SIDE_50P_
390
0
 62
     7
100
AcDbLine
 10
63.803168
 20
0.2918
 30
0.0
 11
63.803168
 21
0.241846
 31
0.0
  0
LINE
  5
1D4
100
AcDbEntity
  8
DR-100_R-SIDE_50P_
390
0
 62
     7
100
AcDbLine
 10
63.603353
 20
13.041753
 30
0.0
 11
63.603353
 21
12.79164
 31
0.0
  0
LINE
  5
1D3
100
AcDbEntity
  8
DR-100_R-SIDE_50P_
390
0
 62
     7
100
AcDbLine
 10
63.603353
 20
13.791751
 30
0.0
 11
63.603353
 21
13.541637
 31
0.0
  0
LINE
  5
1D2
100
AcDbEntity
  8
DR-100_R-SIDE_50P_
390
0
 62
     7
100
AcDbLine
 10
63.553054
 20
0.189825
 30
0.0
 11
63.553054
 21
0.185691
 31
0.0
  0
LINE
  5
1D1
100
AcDbEntity
  8
DR-100_R-SIDE_50P_
390
0
 62
     7
100
AcDbLine
 10
63.303285
 20
13.541637
 30
0.0
 11
63.303285
 21
13.791751
 31
0.0
  0
LINE
  5
1D0
100
AcDbEntity
  8
DR-100_R-SIDE_50P_
390
0
 62
     7
100
AcDbLine
 10
63.303285
 20
12.79164
 30
0.0
 11
63.303285
 21
13.041753
 31
0.0
  0
LINE
  5
1CF
100
AcDbEntity
  8
DR-100_R-SIDE_50P_
390
0
 62
     7
100
AcDbLine
 10
63.203377
 20
0.189825
 30
0.0
 11
63.203377
 21
0.156407
 31
0.0
  0
LINE
  5
1CE
100
AcDbEntity
  8
DR-100_R-SIDE_50P_
390
0
 62
     7
100
AcDbLine
 10
62.953263
 20
13.141661
 30
0.0
 11
62.953263
 21
13.441729
 31
0.0
  0
LINE
  5
1CD
100
AcDbEntity
  8
DR-100_R-SIDE_50P_
390
0
 62
     7
100
AcDbLine
 10
62.903309
 20
0.156407
 30
0.0
 11
62.903309
 21
0.189825
 31
0.0
  0
LINE
  5
1CC
100
AcDbEntity
  8
DR-100_R-SIDE_50P_
390
0
 62
     7
100
AcDbLine
 10
62.553288
 20
0.185691
 30
0.0
 11
62.553288
 21
0.189825
 31
0.0
  0
LINE
  5
1CB
100
AcDbEntity
  8
DR-100_R-SIDE_50P_
390
0
 62
     7
100
AcDbLine
 10
62.303174
 20
0.2918
 30
0.0
 11
62.303174
 21
0.241846
 31
0.0
  0
LINE
  5
1CA
100
AcDbEntity
  8
DR-100_R-SIDE_50P_
390
0
 62
     7
100
AcDbLine
 10
61.203499
 20
0.2918
 30
0.0
 11
61.203499
 21
0.191547
 31
0.0
  0
LINE
  5
1C9
100
AcDbEntity
  8
DR-100_R-SIDE_50P_
390
0
 62
     7
100
AcDbLine
 10
59.761727
 20
2.791905
 30
0.0
 11
59.761727
 21
2.941767
 31
0.0
  0
LINE
  5
1C8
100
AcDbEntity
  8
DR-100_R-SIDE_50P_
390
0
 62
     7
100
AcDbLine
 10
59.353139
 20
17.023595
 30
0.0
 11
59.353139
 21
15.920131
 31
0.0
  0
LINE
  5
1C7
100
AcDbEntity
  8
DR-100_R-SIDE_50P_
390
0
 62
     7
100
AcDbLine
 10
59.203277
 20
0.2918
 30
0.0
 11
59.203277
 21
0.191547
 31
0.0
  0
LINE
  5
1C6
100
AcDbEntity
  8
DR-100_R-SIDE_50P_
390
0
 62
     7
100
AcDbLine
 10
58.686168
 20
17.791851
 30
0.0
 11
58.686168
 21
17.391876
 31
0.0
  0
LINE
  5
1C5
100
AcDbEntity
  8
DR-100_R-SIDE_50P_
390
0
 62
     7
100
AcDbLine
 10
58.553187
 20
17.29369
 30
0.0
 11
58.553187
 21
16.541626
 31
0.0
  0
LINE
  5
1C4
100
AcDbEntity
  8
DR-100_R-SIDE_50P_
390
0
 62
     7
100
AcDbLine
 10
58.00335
 20
17.891759
 30
0.0
 11
58.00335
 21
17.791851
 31
0.0
  0
LINE
  5
1C3
100
AcDbEntity
  8
DR-100_R-SIDE_50P_
390
0
 62
     7
100
AcDbLine
 10
57.253353
 20
17.891759
 30
0.0
 11
57.253353
 21
17.791851
 31
0.0
  0
LINE
  5
1C2
100
AcDbEntity
  8
DR-100_R-SIDE_50P_
390
0
 62
     7
100
AcDbLine
 10
55.45329
 20
7.221265
 30
0.0
 11
55.45329
 21
13.612261
 31
0.0
  0
LINE
  5
1C1
100
AcDbEntity
  8
DR-100_R-SIDE_50P_
390
0
 62
     7
100
AcDbLine
 10
55.303429
 20
7.221265
 30
0.0
 11
55.303429
 21
13.612261
 31
0.0
  0
LINE
  5
1C0
100
AcDbEntity
  8
DR-100_R-SIDE_50P_
390
0
 62
     7
100
AcDbLine
 10
63.803168
 20
0.241846
 30
0.0
 11
63.553054
 21
0.185691
 31
0.0
  0
LINE
  5
1BF
100
AcDbEntity
  8
DR-100_R-SIDE_50P_
390
0
 62
     7
100
AcDbLine
 10
72.953342
 20
2.166621
 30
0.0
 11
73.222748
 21
2.230699
 31
0.0
  0
LINE
  5
1BE
100
AcDbEntity
  8
DR-100_R-SIDE_50P_
390
0
 62
     7
100
AcDbLine
 10
67.95313
 20
2.166621
 30
0.0
 11
68.222881
 21
2.230699
 31
0.0
  0
LINE
  5
1BD
100
AcDbEntity
  8
DR-100_R-SIDE_50P_
390
0
 62
     7
100
AcDbLine
 10
72.628125
 20
15.817122
 30
0.0
 11
72.653274
 21
15.837104
 31
0.0
  0
LINE
  5
1BC
100
AcDbEntity
  8
DR-100_R-SIDE_50P_
390
0
 62
     7
100
AcDbLine
 10
55.922857
 20
14.029118
 30
0.0
 11
55.866357
 21
13.89028
 31
0.0
  0
LINE
  5
1BB
100
AcDbEntity
  8
DR-100_R-SIDE_50P_
390
0
 62
     7
100
AcDbLine
 10
52.983502
 20
6.804064
 30
0.0
 11
53.040346
 21
6.943245
 31
0.0
  0
LINE
  5
1BA
100
AcDbEntity
  8
DR-100_R-SIDE_50P_
390
0
 62
     7
100
AcDbLine
 10
53.603274
 20
13.612261
 30
0.0
 11
53.603274
 21
7.221265
 31
0.0
  0
LINE
  5
1B9
100
AcDbEntity
  8
DR-100_R-SIDE_50P_
390
0
 62
     7
100
AcDbLine
 10
53.453413
 20
13.612261
 30
0.0
 11
53.453413
 21
7.221265
 31
0.0
  0
LINE
  5
1B8
100
AcDbEntity
  8
DR-100_R-SIDE_50P_
390
0
 62
     7
100
AcDbLine
 10
67.628258
 20
15.817122
 30
0.0
 11
67.653063
 21
15.837104
 31
0.0
  0
LINE
  5
1B7
100
AcDbEntity
  8
DR-100_R-SIDE_50P_
390
0
 62
     7
100
AcDbLine
 10
49.386822
 20
3.616661
 30
0.0
 11
49.47605
 21
3.73724
 31
0.0
  0
LINE
  5
1B6
100
AcDbEntity
  8
DR-100_R-SIDE_50P_
390
0
 62
     7
100
AcDbLine
 10
50.353171
 20
16.541626
 30
0.0
 11
50.353171
 21
17.29369
 31
0.0
  0
LINE
  5
1B5
100
AcDbEntity
  8
DR-100_R-SIDE_50P_
390
0
 62
     7
100
AcDbLine
 10
50.220535
 20
17.791851
 30
0.0
 11
50.220535
 21
17.391876
 31
0.0
  0
LINE
  5
1B4
100
AcDbEntity
  8
DR-100_R-SIDE_50P_
390
0
 62
     7
100
AcDbLine
 10
49.55322
 20
15.920131
 30
0.0
 11
49.55322
 21
17.023939
 31
0.0
  0
LINE
  5
1B3
100
AcDbEntity
  8
DR-100_R-SIDE_50P_
390
0
 62
     7
100
AcDbLine
 10
27.862554
 20
0.351055
 30
0.0
 11
27.72475
 21
0.394808
 31
0.0
  0
LINE
  5
1B2
100
AcDbEntity
  8
DR-100_R-SIDE_50P_
390
0
 62
     7
100
AcDbLine
 10
27.616919
 20
0.368625
 30
0.0
 11
27.731641
 21
0.334519
 31
0.0
  0
LINE
  5
1B1
100
AcDbEntity
  8
DR-100_R-SIDE_50P_
390
0
 62
     7
100
AcDbLine
 10
27.541127
 20
0.379994
 30
0.0
 11
27.62691
 21
0.360357
 31
0.0
  0
LINE
  5
1B0
100
AcDbEntity
  8
DR-100_R-SIDE_50P_
390
0
 62
     7
100
AcDbLine
 10
27.438118
 20
0.39653
 30
0.0
 11
27.544227
 21
0.379305
 31
0.0
  0
LINE
  5
1AF
100
AcDbEntity
  8
DR-100_R-SIDE_50P_
390
0
 62
     7
100
AcDbLine
 10
27.31754
 20
0.409277
 30
0.0
 11
27.441908
 21
0.396186
 31
0.0
  0
LINE
  5
1AE
100
AcDbEntity
  8
DR-100_R-SIDE_50P_
390
0
 62
     7
100
AcDbLine
 10
27.183526
 20
0.415823
 30
0.0
 11
27.322363
 21
0.408933
 31
0.0
  0
LINE
  5
1AD
100
AcDbEntity
  8
DR-100_R-SIDE_50P_
390
0
 62
     7
100
AcDbLine
 10
63.252642
 20
0.153307
 30
0.0
 11
63.303285
 21
0.156407
 31
0.0
  0
LINE
  5
1AC
100
AcDbEntity
  8
DR-100_R-SIDE_50P_
390
0
 62
     7
100
AcDbLine
 10
62.803402
 20
0.156407
 30
0.0
 11
62.853356
 21
0.153307
 31
0.0
  0
LINE
  5
1AB
100
AcDbEntity
  8
DR-100_R-SIDE_50P_
390
0
 62
     7
100
AcDbLine
 10
27.343378
 20
0.454064
 30
0.0
 11
27.12806
 21
0.462332
 31
0.0
  0
LINE
  5
1AA
100
AcDbEntity
  8
DR-100_R-SIDE_50P_
390
0
 62
     7
100
AcDbLine
 10
27.12806
 20
0.419957
 30
0.0
 11
27.303415
 21
0.413756
 31
0.0
  0
LINE
  5
1A9
100
AcDbEntity
  8
DR-100_R-SIDE_50P_
390
0
 62
     7
100
AcDbLine
 10
27.12806
 20
0.416512
 30
0.0
 11
27.183526
 21
0.415823
 31
0.0
  0
LINE
  5
1A8
100
AcDbEntity
  8
DR-100_R-SIDE_50P_
390
0
 62
     7
100
AcDbLine
 10
33.628266
 20
0.041686
 30
0.0
 11
29.578212
 21
0.041686
 31
0.0
  0
LINE
  5
1A7
100
AcDbEntity
  8
DR-100_R-SIDE_50P_
390
0
 62
     7
100
AcDbLine
 10
11.878345
 20
0.141593
 30
0.0
 11
11.728139
 21
0.141593
 31
0.0
  0
LINE
  5
1A6
100
AcDbEntity
  8
DR-100_R-SIDE_50P_
390
0
 62
     7
100
AcDbLine
 10
11.878345
 20
0.141593
 30
0.0
 11
11.728139
 21
0.141593
 31
0.0
  0
LINE
  5
1A5
100
AcDbEntity
  8
DR-100_R-SIDE_50P_
390
0
 62
     7
100
AcDbLine
 10
27.977965
 20
0.141593
 30
0.0
 11
27.828103
 21
0.141593
 31
0.0
  0
LINE
  5
1A4
100
AcDbEntity
  8
DR-100_R-SIDE_50P_
390
0
 62
     7
100
AcDbLine
 10
27.977965
 20
0.141593
 30
0.0
 11
27.828103
 21
0.141593
 31
0.0
  0
LINE
  5
1A3
100
AcDbEntity
  8
DR-100_R-SIDE_50P_
390
0
 62
     7
100
AcDbLine
 10
33.728174
 20
0.141593
 30
0.0
 11
29.47796
 21
0.141593
 31
0.0
  0
LINE
  5
1A2
100
AcDbEntity
  8
DR-100_R-SIDE_50P_
390
0
 62
     7
100
AcDbLine
 10
59.203277
 20
0.191547
 30
0.0
 11
61.203499
 21
0.191547
 31
0.0
  0
LINE
  5
1A1
100
AcDbEntity
  8
DR-100_R-SIDE_50P_
390
0
 62
     7
100
AcDbLine
 10
3.953247
 20
0.191547
 30
0.0
 11
5.953125
 21
0.191547
 31
0.0
  0
LINE
  5
1A0
100
AcDbEntity
  8
DR-100_R-SIDE_50P_
390
0
 62
     7
100
AcDbLine
 10
19.578133
 20
0.241846
 30
0.0
 11
19.128204
 21
0.241846
 31
0.0
  0
LINE
  5
19F
100
AcDbEntity
  8
DR-100_R-SIDE_50P_
390
0
 62
     7
100
AcDbLine
 10
20.578244
 20
0.241846
 30
0.0
 11
20.12797
 21
0.241846
 31
0.0
  0
LINE
  5
19E
100
AcDbEntity
  8
DR-100_R-SIDE_50P_
390
0
 62
     7
100
AcDbLine
 10
63.803168
 20
0.241846
 30
0.0
 11
62.303174
 21
0.241846
 31
0.0
  0
LINE
  5
19D
100
AcDbEntity
  8
DR-100_R-SIDE_50P_
390
0
 62
     7
100
AcDbLine
 10
11.528323
 20
0.2918
 30
0.0
 11
2.053277
 21
0.2918
 31
0.0
  0
LINE
  5
19C
100
AcDbEntity
  8
DR-100_R-SIDE_50P_
390
0
 62
     7
100
AcDbLine
 10
11.528323
 20
0.2918
 30
0.0
 11
2.053277
 21
0.2918
 31
0.0
  0
LINE
  5
19B
100
AcDbEntity
  8
DR-100_R-SIDE_50P_
390
0
 62
     7
100
AcDbLine
 10
27.278266
 20
0.2918
 30
0.0
 11
12.428182
 21
0.2918
 31
0.0
  0
LINE
  5
19A
100
AcDbEntity
  8
DR-100_R-SIDE_50P_
390
0
 62
     7
100
AcDbLine
 10
64.110471
 20
0.2918
 30
0.0
 11
28.178125
 21
0.2918
 31
0.0
  0
LINE
  5
199
100
AcDbEntity
  8
DR-100_R-SIDE_50P_
390
0
 62
     7
100
AcDbLine
 10
74.853312
 20
0.2918
 30
0.0
 11
28.178125
 21
0.2918
 31
0.0
  0
LINE
  5
198
100
AcDbEntity
  8
DR-100_R-SIDE_50P_
390
0
 62
     7
100
AcDbLine
 10
12.578044
 20
0.416512
 30
0.0
 11
27.12806
 21
0.416512
 31
0.0
  0
LINE
  5
197
100
AcDbEntity
  8
DR-100_R-SIDE_50P_
390
0
 62
     7
100
AcDbLine
 10
12.578044
 20
0.419957
 30
0.0
 11
27.12806
 21
0.419957
 31
0.0
  0
LINE
  5
196
100
AcDbEntity
  8
DR-100_R-SIDE_50P_
390
0
 62
     7
100
AcDbLine
 10
27.12806
 20
0.462332
 30
0.0
 11
12.578044
 21
0.462332
 31
0.0
  0
LINE
  5
195
100
AcDbEntity
  8
DR-100_R-SIDE_50P_
390
0
 62
     7
100
AcDbLine
 10
27.12806
 20
0.558105
 30
0.0
 11
12.578044
 21
0.558105
 31
0.0
  0
LINE
  5
194
100
AcDbEntity
  8
DR-100_R-SIDE_50P_
390
0
 62
     7
100
AcDbLine
 10
27.12806
 20
0.671105
 30
0.0
 11
12.578044
 21
0.671105
 31
0.0
  0
LINE
  5
193
100
AcDbEntity
  8
DR-100_R-SIDE_50P_
390
0
 62
     7
100
AcDbLine
 10
0.603236
 20
1.54168
 30
0.0
 11
0.953258
 21
1.54168
 31
0.0
  0
LINE
  5
192
100
AcDbEntity
  8
DR-100_R-SIDE_50P_
390
0
 62
     7
100
AcDbLine
 10
1.409044
 20
1.54168
 30
0.0
 11
0.603408
 21
1.54168
 31
0.0
  0
LINE
  5
191
100
AcDbEntity
  8
DR-100_R-SIDE_50P_
390
0
 62
     7
100
AcDbLine
 10
1.053166
 20
1.791794
 30
0.0
 11
0.953258
 21
1.791794
 31
0.0
  0
LINE
  5
190
100
AcDbEntity
  8
DR-100_R-SIDE_50P_
390
0
 62
     7
100
AcDbLine
 10
1.053166
 20
1.791794
 30
0.0
 11
0.953258
 21
1.791794
 31
0.0
  0
LINE
  5
18F
100
AcDbEntity
  8
DR-100_R-SIDE_50P_
390
0
 62
     7
100
AcDbLine
 10
72.713563
 20
2.166621
 30
0.0
 11
73.193121
 21
2.166621
 31
0.0
  0
LINE
  5
18E
100
AcDbEntity
  8
DR-100_R-SIDE_50P_
390
0
 62
     7
100
AcDbLine
 10
67.713352
 20
2.166621
 30
0.0
 11
68.193254
 21
2.166621
 31
0.0
  0
LINE
  5
18D
100
AcDbEntity
  8
DR-100_R-SIDE_50P_
390
0
 62
     7
100
AcDbLine
 10
73.059451
 20
2.19177
 30
0.0
 11
73.25341
 21
2.19177
 31
0.0
  0
LINE
  5
18C
100
AcDbEntity
  8
DR-100_R-SIDE_50P_
390
0
 62
     7
100
AcDbLine
 10
72.653274
 20
2.19177
 30
0.0
 11
72.847233
 21
2.19177
 31
0.0
  0
LINE
  5
18B
100
AcDbEntity
  8
DR-100_R-SIDE_50P_
390
0
 62
     7
100
AcDbLine
 10
68.059239
 20
2.19177
 30
0.0
 11
68.253543
 21
2.19177
 31
0.0
  0
LINE
  5
18A
100
AcDbEntity
  8
DR-100_R-SIDE_50P_
390
0
 62
     7
100
AcDbLine
 10
67.653063
 20
2.19177
 30
0.0
 11
67.847366
 21
2.19177
 31
0.0
  0
LINE
  5
189
100
AcDbEntity
  8
DR-100_R-SIDE_50P_
390
0
 62
     7
100
AcDbLine
 10
0.45303
 20
2.541791
 30
0.0
 11
0.303168
 21
2.541791
 31
0.0
  0
LINE
  5
188
100
AcDbEntity
  8
DR-100_R-SIDE_50P_
390
0
 62
     7
100
AcDbLine
 10
67.174539
 20
2.791905
 30
0.0
 11
59.761727
 21
2.791905
 31
0.0
  0
LINE
  5
187
100
AcDbEntity
  8
DR-100_R-SIDE_50P_
390
0
 62
     7
100
AcDbLine
 10
67.278236
 20
2.791905
 30
0.0
 11
67.174539
 21
2.791905
 31
0.0
  0
LINE
  5
186
100
AcDbEntity
  8
DR-100_R-SIDE_50P_
390
0
 62
     7
100
AcDbLine
 10
72.278448
 20
2.791905
 30
0.0
 11
68.628369
 21
2.791905
 31
0.0
  0
LINE
  5
185
100
AcDbEntity
  8
DR-100_R-SIDE_50P_
390
0
 62
     7
100
AcDbLine
 10
72.278448
 20
2.791905
 30
0.0
 11
68.628369
 21
2.791905
 31
0.0
  0
LINE
  5
184
100
AcDbEntity
  8
DR-100_R-SIDE_50P_
390
0
 62
     7
100
AcDbLine
 10
74.48572
 20
2.791905
 30
0.0
 11
73.628236
 21
2.791905
 31
0.0
  0
LINE
  5
183
100
AcDbEntity
  8
DR-100_R-SIDE_50P_
390
0
 62
     7
100
AcDbLine
 10
76.303353
 20
2.791905
 30
0.0
 11
74.48572
 21
2.791905
 31
0.0
  0
LINE
  5
182
100
AcDbEntity
  8
DR-100_R-SIDE_50P_
390
0
 62
     7
100
AcDbLine
 10
12.516721
 20
0.415823
 30
0.0
 11
12.578044
 21
0.416512
 31
0.0
  0
LINE
  5
181
100
AcDbEntity
  8
DR-100_R-SIDE_50P_
390
0
 62
     7
100
AcDbLine
 10
12.403033
 20
0.413756
 30
0.0
 11
12.578044
 21
0.419957
 31
0.0
  0
LINE
  5
180
100
AcDbEntity
  8
DR-100_R-SIDE_50P_
390
0
 62
     7
100
AcDbLine
 10
12.38374
 20
0.408933
 30
0.0
 11
12.516721
 21
0.415823
 31
0.0
  0
LINE
  5
17F
100
AcDbEntity
  8
DR-100_R-SIDE_50P_
390
0
 62
     7
100
AcDbLine
 10
12.162221
 20
0.379305
 30
0.0
 11
12.26833
 21
0.39653
 31
0.0
  0
LINE
  5
17E
100
AcDbEntity
  8
DR-100_R-SIDE_50P_
390
0
 62
     7
100
AcDbLine
 10
58.686168
 20
17.391876
 30
0.0
 11
58.553187
 21
17.29369
 31
0.0
  0
LINE
  5
17D
100
AcDbEntity
  8
DR-100_R-SIDE_50P_
390
0
 62
     7
100
AcDbLine
 10
46.153255
 20
6.691753
 30
0.0
 11
46.153255
 21
13.391775
 31
0.0
  0
LINE
  5
17C
100
AcDbEntity
  8
DR-100_R-SIDE_50P_
390
0
 62
     7
100
AcDbLine
 10
46.003394
 20
6.691753
 30
0.0
 11
46.003394
 21
13.391775
 31
0.0
  0
LINE
  5
17B
100
AcDbEntity
  8
DR-100_R-SIDE_50P_
390
0
 62
     7
100
AcDbLine
 10
44.320464
 20
5.291667
 30
0.0
 11
44.320464
 21
5.441873
 31
0.0
  0
LINE
  5
17A
100
AcDbEntity
  8
DR-100_R-SIDE_50P_
390
0
 62
     7
100
AcDbLine
 10
62.303174
 20
0.241846
 30
0.0
 11
62.553288
 21
0.185691
 31
0.0
  0
LINE
  5
179
100
AcDbEntity
  8
DR-100_R-SIDE_50P_
390
0
 62
     7
100
AcDbLine
 10
72.330813
 20
4.10931
 30
0.0
 11
68.575659
 21
4.142727
 31
0.0
  0
LINE
  5
178
100
AcDbEntity
  8
DR-100_R-SIDE_50P_
390
0
 62
     7
100
AcDbLine
 10
74.488132
 20
4.090362
 30
0.0
 11
73.575871
 21
4.098286
 31
0.0
  0
LINE
  5
177
100
AcDbEntity
  8
DR-100_R-SIDE_50P_
390
0
 62
     7
100
AcDbLine
 10
67.330602
 20
4.153752
 30
0.0
 11
67.177295
 21
4.15513
 31
0.0
  0
LINE
  5
176
100
AcDbEntity
  8
DR-100_R-SIDE_50P_
390
0
 62
     7
100
AcDbLine
 10
67.177295
 20
2.941767
 30
0.0
 11
59.761727
 21
2.941767
 31
0.0
  0
LINE
  5
175
100
AcDbEntity
  8
DR-100_R-SIDE_50P_
390
0
 62
     7
100
AcDbLine
 10
67.295117
 20
2.941767
 30
0.0
 11
67.177295
 21
2.941767
 31
0.0
  0
LINE
  5
174
100
AcDbEntity
  8
DR-100_R-SIDE_50P_
390
0
 62
     7
100
AcDbLine
 10
72.295329
 20
2.941767
 30
0.0
 11
68.611488
 21
2.941767
 31
0.0
  0
LINE
  5
173
100
AcDbEntity
  8
DR-100_R-SIDE_50P_
390
0
 62
     7
100
AcDbLine
 10
74.488132
 20
2.941767
 30
0.0
 11
73.611355
 21
2.941767
 31
0.0
  0
LINE
  5
172
100
AcDbEntity
  8
DR-100_R-SIDE_50P_
390
0
 62
     7
100
AcDbLine
 10
76.453215
 20
2.941767
 30
0.0
 11
74.488132
 21
2.941767
 31
0.0
  0
LINE
  5
171
100
AcDbEntity
  8
DR-100_R-SIDE_50P_
390
0
 62
     7
100
AcDbLine
 10
0.603236
 20
3.896403
 30
0.0
 11
0.953258
 21
3.896403
 31
0.0
  0
LINE
  5
170
100
AcDbEntity
  8
DR-100_R-SIDE_50P_
390
0
 62
     7
100
AcDbLine
 10
1.053166
 20
4.059012
 30
0.0
 11
0.953258
 21
4.059012
 31
0.0
  0
LINE
  5
16F
100
AcDbEntity
  8
DR-100_R-SIDE_50P_
390
0
 62
     7
100
AcDbLine
 10
66.503434
 20
4.441762
 30
0.0
 11
65.903299
 21
4.441762
 31
0.0
  0
LINE
  5
16E
100
AcDbEntity
  8
DR-100_R-SIDE_50P_
390
0
 62
     7
100
AcDbLine
 10
2.053277
 20
4.599891
 30
0.0
 11
47.655317
 21
4.599891
 31
0.0
  0
LINE
  5
16D
100
AcDbEntity
  8
DR-100_R-SIDE_50P_
390
0
 62
     7
100
AcDbLine
 10
72.330813
 20
4.791783
 30
0.0
 11
68.575659
 21
4.791783
 31
0.0
  0
LINE
  5
16C
100
AcDbEntity
  8
DR-100_R-SIDE_50P_
390
0
 62
     7
100
AcDbLine
 10
76.653375
 20
4.791783
 30
0.0
 11
73.575871
 21
4.791783
 31
0.0
  0
LINE
  5
16B
100
AcDbEntity
  8
DR-100_R-SIDE_50P_
390
0
 62
     7
100
AcDbLine
 10
70.07841
 20
4.841737
 30
0.0
 11
69.328413
 21
4.841737
 31
0.0
  0
LINE
  5
16A
100
AcDbEntity
  8
DR-100_R-SIDE_50P_
390
0
 62
     7
100
AcDbLine
 10
72.328057
 20
4.841737
 30
0.0
 11
71.578404
 21
4.841737
 31
0.0
  0
LINE
  5
169
100
AcDbEntity
  8
DR-100_R-SIDE_50P_
390
0
 62
     7
100
AcDbLine
 10
74.578394
 20
4.841737
 30
0.0
 11
73.828396
 21
4.841737
 31
0.0
  0
LINE
  5
168
100
AcDbEntity
  8
DR-100_R-SIDE_50P_
390
0
 62
     7
100
AcDbLine
 10
67.330602
 20
5.041897
 30
0.0
 11
67.103225
 21
5.041897
 31
0.0
  0
LINE
  5
167
100
AcDbEntity
  8
DR-100_R-SIDE_50P_
390
0
 62
     7
100
AcDbLine
 10
2.053277
 20
5.061534
 30
0.0
 11
46.233181
 21
5.061534
 31
0.0
  0
LINE
  5
166
100
AcDbEntity
  8
DR-100_R-SIDE_50P_
390
0
 62
     7
100
AcDbLine
 10
2.053277
 20
5.061534
 30
0.0
 11
1.053166
 21
5.061534
 31
0.0
  0
LINE
  5
165
100
AcDbEntity
  8
DR-100_R-SIDE_50P_
390
0
 62
     7
100
AcDbLine
 10
44.320464
 20
5.291667
 30
0.0
 11
0.603236
 21
5.291667
 31
0.0
  0
LINE
  5
164
100
AcDbEntity
  8
DR-100_R-SIDE_50P_
390
0
 62
     7
100
AcDbLine
 10
44.320464
 20
5.441873
 30
0.0
 11
0.45303
 21
5.441873
 31
0.0
  0
LINE
  5
163
100
AcDbEntity
  8
DR-100_R-SIDE_50P_
390
0
 62
     7
100
AcDbLine
 10
70.07841
 20
5.450141
 30
0.0
 11
69.328413
 21
5.450141
 31
0.0
  0
LINE
  5
162
100
AcDbEntity
  8
DR-100_R-SIDE_50P_
390
0
 62
     7
100
AcDbLine
 10
72.328057
 20
5.450141
 30
0.0
 11
71.578404
 21
5.450141
 31
0.0
  0
LINE
  5
161
100
AcDbEntity
  8
DR-100_R-SIDE_50P_
390
0
 62
     7
100
AcDbLine
 10
74.578394
 20
5.450141
 30
0.0
 11
73.828396
 21
5.450141
 31
0.0
  0
LINE
  5
160
100
AcDbEntity
  8
DR-100_R-SIDE_50P_
390
0
 62
     7
100
AcDbLine
 10
12.264195
 20
0.396186
 30
0.0
 11
12.388908
 21
0.409277
 31
0.0
  0
LINE
  5
15F
100
AcDbEntity
  8
DR-100_R-SIDE_50P_
390
0
 62
     7
100
AcDbLine
 10
12.079538
 20
0.360357
 30
0.0
 11
12.165321
 21
0.379994
 31
0.0
  0
LINE
  5
15E
100
AcDbEntity
  8
DR-100_R-SIDE_50P_
390
0
 62
     7
100
AcDbLine
 10
40.753413
 20
17.891759
 30
0.0
 11
40.753413
 21
17.791851
 31
0.0
  0
LINE
  5
15D
100
AcDbEntity
  8
DR-100_R-SIDE_50P_
390
0
 62
     7
100
AcDbLine
 10
28.328331
 20
5.79155
 30
0.0
 11
45.253396
 21
5.79155
 31
0.0
  0
LINE
  5
15C
100
AcDbEntity
  8
DR-100_R-SIDE_50P_
390
0
 62
     7
100
AcDbLine
 10
28.427894
 20
5.941756
 30
0.0
 11
45.253396
 21
5.941756
 31
0.0
  0
LINE
  5
15B
100
AcDbEntity
  8
DR-100_R-SIDE_50P_
390
0
 62
     7
100
AcDbLine
 10
72.330813
 20
6.166721
 30
0.0
 11
73.575871
 21
6.166721
 31
0.0
  0
LINE
  5
15A
100
AcDbEntity
  8
DR-100_R-SIDE_50P_
390
0
 62
     7
100
AcDbLine
 10
67.330602
 20
6.166721
 30
0.0
 11
68.575659
 21
6.166721
 31
0.0
  0
LINE
  5
159
100
AcDbEntity
  8
DR-100_R-SIDE_50P_
390
0
 62
     7
100
AcDbLine
 10
3.603225
 20
6.291778
 30
0.0
 11
3.303158
 21
6.291778
 31
0.0
  0
LINE
  5
158
100
AcDbEntity
  8
DR-100_R-SIDE_50P_
390
0
 62
     7
100
AcDbLine
 10
3.20325
 20
6.6418
 30
0.0
 11
2.953136
 21
6.6418
 31
0.0
  0
LINE
  5
157
100
AcDbEntity
  8
DR-100_R-SIDE_50P_
390
0
 62
     7
100
AcDbLine
 10
3.953247
 20
6.6418
 30
0.0
 11
3.703133
 21
6.6418
 31
0.0
  0
LINE
  5
156
100
AcDbEntity
  8
DR-100_R-SIDE_50P_
390
0
 62
     7
100
AcDbLine
 10
3.703133
 20
6.941867
 30
0.0
 11
3.953247
 21
6.941867
 31
0.0
  0
LINE
  5
155
100
AcDbEntity
  8
DR-100_R-SIDE_50P_
390
0
 62
     7
100
AcDbLine
 10
2.953136
 20
6.941867
 30
0.0
 11
3.20325
 21
6.941867
 31
0.0
  0
LINE
  5
154
100
AcDbEntity
  8
DR-100_R-SIDE_50P_
390
0
 62
     7
100
AcDbLine
 10
25.178136
 20
7.191637
 30
0.0
 11
27.928011
 21
7.191637
 31
0.0
  0
LINE
  5
153
100
AcDbEntity
  8
DR-100_R-SIDE_50P_
390
0
 62
     7
100
AcDbLine
 10
53.603274
 20
7.221265
 30
0.0
 11
53.453413
 21
7.221265
 31
0.0
  0
LINE
  5
152
100
AcDbEntity
  8
DR-100_R-SIDE_50P_
390
0
 62
     7
100
AcDbLine
 10
55.303429
 20
7.221265
 30
0.0
 11
55.45329
 21
7.221265
 31
0.0
  0
LINE
  5
151
100
AcDbEntity
  8
DR-100_R-SIDE_50P_
390
0
 62
     7
100
AcDbLine
 10
3.303158
 20
7.291545
 30
0.0
 11
3.603225
 21
7.291545
 31
0.0
  0
LINE
  5
150
100
AcDbEntity
  8
DR-100_R-SIDE_50P_
390
0
 62
     7
100
AcDbLine
 10
25.42825
 20
7.341843
 30
0.0
 11
27.928011
 21
7.341843
 31
0.0
  0
LINE
  5
14F
100
AcDbEntity
  8
DR-100_R-SIDE_50P_
390
0
 62
     7
100
AcDbLine
 10
12.017871
 20
0.341409
 30
0.0
 11
12.081605
 21
0.360701
 31
0.0
  0
LINE
  5
14E
100
AcDbEntity
  8
DR-100_R-SIDE_50P_
390
0
 62
     7
100
AcDbLine
 10
40.003415
 20
17.891759
 30
0.0
 11
40.003415
 21
17.791851
 31
0.0
  0
LINE
  5
14D
100
AcDbEntity
  8
DR-100_R-SIDE_50P_
390
0
 62
     7
100
AcDbLine
 10
58.686168
 20
17.391876
 30
0.0
 11
59.797556
 21
17.713647
 31
0.0
  0
LINE
  5
14C
100
AcDbEntity
  8
DR-100_R-SIDE_50P_
390
0
 62
     7
100
AcDbLine
 10
72.330813
 20
11.91693
 30
0.0
 11
73.575871
 21
11.91693
 31
0.0
  0
LINE
  5
14B
100
AcDbEntity
  8
DR-100_R-SIDE_50P_
390
0
 62
     7
100
AcDbLine
 10
67.330602
 20
11.91693
 30
0.0
 11
68.575659
 21
11.91693
 31
0.0
  0
LINE
  5
14A
100
AcDbEntity
  8
DR-100_R-SIDE_50P_
390
0
 62
     7
100
AcDbLine
 10
70.07841
 20
12.63351
 30
0.0
 11
69.328413
 21
12.63351
 31
0.0
  0
LINE
  5
149
100
AcDbEntity
  8
DR-100_R-SIDE_50P_
390
0
 62
     7
100
AcDbLine
 10
72.328057
 20
12.63351
 30
0.0
 11
71.578404
 21
12.63351
 31
0.0
  0
LINE
  5
148
100
AcDbEntity
  8
DR-100_R-SIDE_50P_
390
0
 62
     7
100
AcDbLine
 10
74.578394
 20
12.63351
 30
0.0
 11
73.828396
 21
12.63351
 31
0.0
  0
LINE
  5
147
100
AcDbEntity
  8
DR-100_R-SIDE_50P_
390
0
 62
     7
100
AcDbLine
 10
25.42825
 20
12.741686
 30
0.0
 11
27.928011
 21
12.741686
 31
0.0
  0
LINE
  5
146
100
AcDbEntity
  8
DR-100_R-SIDE_50P_
390
0
 62
     7
100
AcDbLine
 10
3.603225
 20
12.79164
 30
0.0
 11
3.303158
 21
12.79164
 31
0.0
  0
LINE
  5
145
100
AcDbEntity
  8
DR-100_R-SIDE_50P_
390
0
 62
     7
100
AcDbLine
 10
63.603353
 20
12.79164
 30
0.0
 11
63.303285
 21
12.79164
 31
0.0
  0
LINE
  5
144
100
AcDbEntity
  8
DR-100_R-SIDE_50P_
390
0
 62
     7
100
AcDbLine
 10
27.928011
 20
12.891547
 30
0.0
 11
25.178136
 21
12.891547
 31
0.0
  0
LINE
  5
143
100
AcDbEntity
  8
DR-100_R-SIDE_50P_
390
0
 62
     7
100
AcDbLine
 10
67.330602
 20
13.041753
 30
0.0
 11
67.103225
 21
13.041753
 31
0.0
  0
LINE
  5
142
100
AcDbEntity
  8
DR-100_R-SIDE_50P_
390
0
 62
     7
100
AcDbLine
 10
3.20325
 20
13.141661
 30
0.0
 11
2.953136
 21
13.141661
 31
0.0
  0
LINE
  5
141
100
AcDbEntity
  8
DR-100_R-SIDE_50P_
390
0
 62
     7
100
AcDbLine
 10
3.953247
 20
13.141661
 30
0.0
 11
3.703133
 21
13.141661
 31
0.0
  0
LINE
  5
140
100
AcDbEntity
  8
DR-100_R-SIDE_50P_
390
0
 62
     7
100
AcDbLine
 10
63.203377
 20
13.141661
 30
0.0
 11
62.953263
 21
13.141661
 31
0.0
  0
LINE
  5
13F
100
AcDbEntity
  8
DR-100_R-SIDE_50P_
390
0
 62
     7
100
AcDbLine
 10
63.953375
 20
13.141661
 30
0.0
 11
63.703261
 21
13.141661
 31
0.0
  0
LINE
  5
13E
100
AcDbEntity
  8
DR-100_R-SIDE_50P_
390
0
 62
     7
100
AcDbLine
 10
70.07841
 20
13.241914
 30
0.0
 11
69.328413
 21
13.241914
 31
0.0
  0
LINE
  5
13D
100
AcDbEntity
  8
DR-100_R-SIDE_50P_
390
0
 62
     7
100
AcDbLine
 10
72.328057
 20
13.241914
 30
0.0
 11
71.578404
 21
13.241914
 31
0.0
  0
LINE
  5
13C
100
AcDbEntity
  8
DR-100_R-SIDE_50P_
390
0
 62
     7
100
AcDbLine
 10
74.578394
 20
13.241914
 30
0.0
 11
73.828396
 21
13.241914
 31
0.0
  0
LINE
  5
13B
100
AcDbEntity
  8
DR-100_R-SIDE_50P_
390
0
 62
     7
100
AcDbLine
 10
72.330813
 20
13.291867
 30
0.0
 11
68.575659
 21
13.291867
 31
0.0
  0
LINE
  5
13A
100
AcDbEntity
  8
DR-100_R-SIDE_50P_
390
0
 62
     7
100
AcDbLine
 10
76.653375
 20
13.291867
 30
0.0
 11
73.575871
 21
13.291867
 31
0.0
  0
LINE
  5
139
100
AcDbEntity
  8
DR-100_R-SIDE_50P_
390
0
 62
     7
100
AcDbLine
 10
63.703261
 20
13.441729
 30
0.0
 11
63.953375
 21
13.441729
 31
0.0
  0
LINE
  5
138
100
AcDbEntity
  8
DR-100_R-SIDE_50P_
390
0
 62
     7
100
AcDbLine
 10
62.953263
 20
13.441729
 30
0.0
 11
63.203377
 21
13.441729
 31
0.0
  0
LINE
  5
137
100
AcDbEntity
  8
DR-100_R-SIDE_50P_
390
0
 62
     7
100
AcDbLine
 10
3.703133
 20
13.441729
 30
0.0
 11
3.953247
 21
13.441729
 31
0.0
  0
LINE
  5
136
100
AcDbEntity
  8
DR-100_R-SIDE_50P_
390
0
 62
     7
100
AcDbLine
 10
2.953136
 20
13.441729
 30
0.0
 11
3.20325
 21
13.441729
 31
0.0
  0
LINE
  5
135
100
AcDbEntity
  8
DR-100_R-SIDE_50P_
390
0
 62
     7
100
AcDbLine
 10
0.45303
 20
13.541637
 30
0.0
 11
0.303168
 21
13.541637
 31
0.0
  0
LINE
  5
134
100
AcDbEntity
  8
DR-100_R-SIDE_50P_
390
0
 62
     7
100
AcDbLine
 10
55.303429
 20
13.612261
 30
0.0
 11
55.45329
 21
13.612261
 31
0.0
  0
LINE
  5
133
100
AcDbEntity
  8
DR-100_R-SIDE_50P_
390
0
 62
     7
100
AcDbLine
 10
53.603274
 20
13.612261
 30
0.0
 11
53.453413
 21
13.612261
 31
0.0
  0
LINE
  5
132
100
AcDbEntity
  8
DR-100_R-SIDE_50P_
390
0
 62
     7
100
AcDbLine
 10
66.503434
 20
13.641545
 30
0.0
 11
65.903299
 21
13.641545
 31
0.0
  0
LINE
  5
131
100
AcDbEntity
  8
DR-100_R-SIDE_50P_
390
0
 62
     7
100
AcDbLine
 10
63.303285
 20
13.791751
 30
0.0
 11
63.603353
 21
13.791751
 31
0.0
  0
LINE
  5
130
100
AcDbEntity
  8
DR-100_R-SIDE_50P_
390
0
 62
     7
100
AcDbLine
 10
3.303158
 20
13.791751
 30
0.0
 11
3.603225
 21
13.791751
 31
0.0
  0
LINE
  5
12F
100
AcDbEntity
  8
DR-100_R-SIDE_50P_
390
0
 62
     7
100
AcDbLine
 10
45.253396
 20
14.141772
 30
0.0
 11
28.427894
 21
14.141772
 31
0.0
  0
LINE
  5
12E
100
AcDbEntity
  8
DR-100_R-SIDE_50P_
390
0
 62
     7
100
AcDbLine
 10
45.253396
 20
14.291634
 30
0.0
 11
28.328331
 21
14.291634
 31
0.0
  0
LINE
  5
12D
100
AcDbEntity
  8
DR-100_R-SIDE_50P_
390
0
 62
     7
100
AcDbLine
 10
73.575871
 20
13.985021
 30
0.0
 11
74.488132
 21
13.993289
 31
0.0
  0
LINE
  5
12C
100
AcDbEntity
  8
DR-100_R-SIDE_50P_
390
0
 62
     7
100
AcDbLine
 10
68.575659
 20
13.940579
 30
0.0
 11
72.330813
 21
13.974341
 31
0.0
  0
LINE
  5
12B
100
AcDbEntity
  8
DR-100_R-SIDE_50P_
390
0
 62
     7
100
AcDbLine
 10
67.177295
 20
13.928177
 30
0.0
 11
67.330602
 21
13.929555
 31
0.0
  0
LINE
  5
12A
100
AcDbEntity
  8
DR-100_R-SIDE_50P_
390
0
 62
     7
100
AcDbLine
 10
34.778239
 20
17.791851
 30
0.0
 11
34.778239
 21
17.991667
 31
0.0
  0
LINE
  5
129
100
AcDbEntity
  8
DR-100_R-SIDE_50P_
390
0
 62
     7
100
AcDbLine
 10
33.728174
 20
0.141593
 30
0.0
 11
33.728174
 21
0.2918
 31
0.0
  0
LINE
  5
128
100
AcDbEntity
  8
DR-100_R-SIDE_50P_
390
0
 62
     7
100
AcDbLine
 10
33.128038
 20
17.791851
 30
0.0
 11
33.128038
 21
17.991667
 31
0.0
  0
LINE
  5
127
100
AcDbEntity
  8
DR-100_R-SIDE_50P_
390
0
 62
     7
100
AcDbLine
 10
19.574688
 20
17.874878
 30
0.0
 11
17.953082
 21
17.991667
 31
0.0
  0
LINE
  5
126
100
AcDbEntity
  8
DR-100_R-SIDE_50P_
390
0
 62
     7
100
AcDbLine
 10
27.574544
 20
17.874878
 30
0.0
 11
25.953282
 21
17.991667
 31
0.0
  0
LINE
  5
125
100
AcDbEntity
  8
DR-100_R-SIDE_50P_
390
0
 62
     7
100
AcDbLine
 10
9.053022
 20
17.991667
 30
0.0
 11
10.04142
 21
17.948258
 31
0.0
  0
LINE
  5
124
100
AcDbEntity
  8
DR-100_R-SIDE_50P_
390
0
 62
     7
100
AcDbLine
 10
41.312896
 20
16.391764
 30
0.0
 11
49.953196
 21
16.391764
 31
0.0
  0
LINE
  5
123
100
AcDbEntity
  8
DR-100_R-SIDE_50P_
390
0
 62
     7
100
AcDbLine
 10
35.861721
 20
15.041976
 30
0.0
 11
36.166612
 21
15.041631
 31
0.0
  0
LINE
  5
122
100
AcDbEntity
  8
DR-100_R-SIDE_50P_
390
0
 62
     7
100
AcDbLine
 10
1.053166
 20
15.041631
 30
0.0
 11
35.861721
 21
15.041976
 31
0.0
  0
LINE
  5
121
100
AcDbEntity
  8
DR-100_R-SIDE_50P_
390
0
 62
     7
100
AcDbLine
 10
74.488132
 20
14.641656
 30
0.0
 11
76.453215
 21
14.641656
 31
0.0
  0
LINE
  5
120
100
AcDbEntity
  8
DR-100_R-SIDE_50P_
390
0
 62
     7
100
AcDbLine
 10
73.575871
 20
14.641656
 30
0.0
 11
74.488132
 21
14.641656
 31
0.0
  0
LINE
  5
11F
100
AcDbEntity
  8
DR-100_R-SIDE_50P_
390
0
 62
     7
100
AcDbLine
 10
68.575659
 20
14.641656
 30
0.0
 11
72.330813
 21
14.641656
 31
0.0
  0
LINE
  5
11E
100
AcDbEntity
  8
DR-100_R-SIDE_50P_
390
0
 62
     7
100
AcDbLine
 10
60.485197
 20
14.641656
 30
0.0
 11
67.177295
 21
14.641656
 31
0.0
  0
LINE
  5
11D
100
AcDbEntity
  8
DR-100_R-SIDE_50P_
390
0
 62
     7
100
AcDbLine
 10
67.177295
 20
14.641656
 30
0.0
 11
67.330602
 21
14.641656
 31
0.0
  0
LINE
  5
11C
100
AcDbEntity
  8
DR-100_R-SIDE_50P_
390
0
 62
     7
100
AcDbLine
 10
0.45303
 20
14.641656
 30
0.0
 11
48.421506
 21
14.641656
 31
0.0
  0
LINE
  5
11B
100
AcDbEntity
  8
DR-100_R-SIDE_50P_
390
0
 62
     7
100
AcDbLine
 10
73.575871
 20
14.791862
 30
0.0
 11
76.303353
 21
14.791862
 31
0.0
  0
LINE
  5
11A
100
AcDbEntity
  8
DR-100_R-SIDE_50P_
390
0
 62
     7
100
AcDbLine
 10
73.575871
 20
14.791862
 30
0.0
 11
74.48572
 21
14.791862
 31
0.0
  0
LINE
  5
119
100
AcDbEntity
  8
DR-100_R-SIDE_50P_
390
0
 62
     7
100
AcDbLine
 10
68.575659
 20
14.791862
 30
0.0
 11
72.330813
 21
14.791862
 31
0.0
  0
LINE
  5
118
100
AcDbEntity
  8
DR-100_R-SIDE_50P_
390
0
 62
     7
100
AcDbLine
 10
68.575659
 20
14.791862
 30
0.0
 11
72.330813
 21
14.791862
 31
0.0
  0
LINE
  5
117
100
AcDbEntity
  8
DR-100_R-SIDE_50P_
390
0
 62
     7
100
AcDbLine
 10
60.37771
 20
14.791862
 30
0.0
 11
67.174539
 21
14.791862
 31
0.0
  0
LINE
  5
116
100
AcDbEntity
  8
DR-100_R-SIDE_50P_
390
0
 62
     7
100
AcDbLine
 10
67.174539
 20
14.791862
 30
0.0
 11
67.330602
 21
14.791862
 31
0.0
  0
LINE
  5
115
100
AcDbEntity
  8
DR-100_R-SIDE_50P_
390
0
 62
     7
100
AcDbLine
 10
0.603236
 20
14.791862
 30
0.0
 11
48.528649
 21
14.791862
 31
0.0
  0
LINE
  5
114
100
AcDbEntity
  8
DR-100_R-SIDE_50P_
390
0
 62
     7
100
AcDbLine
 10
67.330602
 20
14.916919
 30
0.0
 11
67.278236
 21
14.916919
 31
0.0
  0
LINE
  5
113
100
AcDbEntity
  8
DR-100_R-SIDE_50P_
390
0
 62
     7
100
AcDbLine
 10
68.628369
 20
14.916919
 30
0.0
 11
68.575659
 21
14.916919
 31
0.0
  0
LINE
  5
112
100
AcDbEntity
  8
DR-100_R-SIDE_50P_
390
0
 62
     7
100
AcDbLine
 10
72.330813
 20
14.916919
 30
0.0
 11
72.278448
 21
14.916919
 31
0.0
  0
LINE
  5
111
100
AcDbEntity
  8
DR-100_R-SIDE_50P_
390
0
 62
     7
100
AcDbLine
 10
73.628236
 20
14.916919
 30
0.0
 11
73.575871
 21
14.916919
 31
0.0
  0
LINE
  5
110
100
AcDbEntity
  8
DR-100_R-SIDE_50P_
390
0
 62
     7
100
AcDbLine
 10
73.575871
 20
14.941724
 30
0.0
 11
73.628236
 21
14.941724
 31
0.0
  0
LINE
  5
10F
100
AcDbEntity
  8
DR-100_R-SIDE_50P_
390
0
 62
     7
100
AcDbLine
 10
72.278448
 20
14.941724
 30
0.0
 11
72.330813
 21
14.941724
 31
0.0
  0
LINE
  5
10E
100
AcDbEntity
  8
DR-100_R-SIDE_50P_
390
0
 62
     7
100
AcDbLine
 10
68.575659
 20
14.941724
 30
0.0
 11
68.628369
 21
14.941724
 31
0.0
  0
LINE
  5
10D
100
AcDbEntity
  8
DR-100_R-SIDE_50P_
390
0
 62
     7
100
AcDbLine
 10
67.278236
 20
14.941724
 30
0.0
 11
67.330602
 21
14.941724
 31
0.0
  0
LINE
  5
10C
100
AcDbEntity
  8
DR-100_R-SIDE_50P_
390
0
 62
     7
100
AcDbLine
 10
1.053166
 20
14.943446
 30
0.0
 11
0.953258
 21
14.943446
 31
0.0
  0
LINE
  5
10B
100
AcDbEntity
  8
DR-100_R-SIDE_50P_
390
0
 62
     7
100
AcDbLine
 10
0.603236
 20
15.166688
 30
0.0
 11
0.953258
 21
15.166688
 31
0.0
  0
LINE
  5
10A
100
AcDbEntity
  8
DR-100_R-SIDE_50P_
390
0
 62
     7
100
AcDbLine
 10
0.953258
 20
15.291745
 30
0.0
 11
1.053166
 21
15.291745
 31
0.0
  0
LINE
  5
109
100
AcDbEntity
  8
DR-100_R-SIDE_50P_
390
0
 62
     7
100
AcDbLine
 10
0.953258
 20
15.541859
 30
0.0
 11
0.603236
 21
15.541859
 31
0.0
  0
LINE
  5
108
100
AcDbEntity
  8
DR-100_R-SIDE_50P_
390
0
 62
     7
100
AcDbLine
 10
51.178961
 20
16.691832
 30
0.0
 11
50.585371
 21
16.691832
 31
0.0
  0
LINE
  5
107
100
AcDbEntity
  8
DR-100_R-SIDE_50P_
390
0
 62
     7
100
AcDbLine
 10
58.321332
 20
16.691832
 30
0.0
 11
57.727743
 21
16.691832
 31
0.0
  0
LINE
  5
106
100
AcDbEntity
  8
DR-100_R-SIDE_50P_
390
0
 62
     7
100
AcDbLine
 10
55.5625
 20
17.391876
 30
0.0
 11
58.686168
 21
17.391876
 31
0.0
  0
LINE
  5
105
100
AcDbEntity
  8
DR-100_R-SIDE_50P_
390
0
 62
     7
100
AcDbLine
 10
50.220535
 20
17.391876
 30
0.0
 11
53.343859
 21
17.391876
 31
0.0
  0
LINE
  5
104
100
AcDbEntity
  8
DR-100_R-SIDE_50P_
390
0
 62
     7
100
AcDbLine
 10
36.166612
 20
15.041631
 30
0.0
 11
36.282712
 21
15.041631
 31
0.0
  0
LINE
  5
103
100
AcDbEntity
  8
DR-100_R-SIDE_50P_
390
0
 62
     7
100
AcDbLine
 10
28.064781
 20
0.31247
 30
0.0
 11
28.078217
 21
0.361735
 31
0.0
  0
LINE
  5
102
100
AcDbEntity
  8
DR-100_R-SIDE_50P_
390
0
 62
     7
100
AcDbLine
 10
29.47796
 20
0.141593
 30
0.0
 11
29.47796
 21
0.2918
 31
0.0
  0
LINE
  5
101
100
AcDbEntity
  8
DR-100_R-SIDE_50P_
390
0
 62
     7
100
AcDbLine
 10
67.563146
 20
2.306147
 30
0.0
 11
67.653063
 21
2.246547
 31
0.0
  0
LINE
  5
100
100
AcDbEntity
  8
DR-100_R-SIDE_50P_
390
0
 62
     7
100
AcDbLine
 10
49.109147
 20
17.713647
 30
0.0
 11
50.220535
 21
17.391876
 31
0.0
  0
LINE
  5
FF
100
AcDbEntity
  8
DR-100_R-SIDE_50P_
390
0
 62
     7
100
AcDbLine
 10
2.053277
 20
17.791851
 30
0.0
 11
74.853312
 21
17.791851
 31
0.0
  0
LINE
  5
FE
100
AcDbEntity
  8
DR-100_R-SIDE_50P_
390
0
 62
     7
100
AcDbLine
 10
5.253082
 20
17.791851
 30
0.0
 11
2.053277
 21
17.791851
 31
0.0
  0
LINE
  5
FD
100
AcDbEntity
  8
DR-100_R-SIDE_50P_
390
0
 62
     7
100
AcDbLine
 10
13.527167
 20
17.791851
 30
0.0
 11
11.153152
 21
17.791851
 31
0.0
  0
LINE
  5
FC
100
AcDbEntity
  8
DR-100_R-SIDE_50P_
390
0
 62
     7
100
AcDbLine
 10
31.653193
 20
17.791851
 30
0.0
 11
30.379197
 21
17.791851
 31
0.0
  0
LINE
  5
FB
100
AcDbEntity
  8
DR-100_R-SIDE_50P_
390
0
 62
     7
100
AcDbLine
 10
36.453244
 20
17.791851
 30
0.0
 11
36.253084
 21
17.791851
 31
0.0
  0
LINE
  5
FA
100
AcDbEntity
  8
DR-100_R-SIDE_50P_
390
0
 62
     7
100
AcDbLine
 10
39.803255
 20
17.791851
 30
0.0
 11
36.953128
 21
17.791851
 31
0.0
  0
LINE
  5
F9
100
AcDbEntity
  8
DR-100_R-SIDE_50P_
390
0
 62
     7
100
AcDbLine
 10
10.17819
 20
17.798741
 30
0.0
 11
7.928198
 21
17.798741
 31
0.0
  0
LINE
  5
F8
100
AcDbEntity
  8
DR-100_R-SIDE_50P_
390
0
 62
     7
100
AcDbLine
 10
10.169922
 20
17.841805
 30
0.0
 11
10.203339
 21
17.841805
 31
0.0
  0
LINE
  5
F7
100
AcDbEntity
  8
DR-100_R-SIDE_50P_
390
0
 62
     7
100
AcDbLine
 10
6.203239
 20
17.841805
 30
0.0
 11
6.24837
 21
17.841805
 31
0.0
  0
LINE
  5
F6
100
AcDbEntity
  8
DR-100_R-SIDE_50P_
390
0
 62
     7
100
AcDbLine
 10
19.574688
 20
17.874878
 30
0.0
 11
16.33182
 21
17.874878
 31
0.0
  0
LINE
  5
F5
100
AcDbEntity
  8
DR-100_R-SIDE_50P_
390
0
 62
     7
100
AcDbLine
 10
27.574544
 20
17.874878
 30
0.0
 11
24.331676
 21
17.874878
 31
0.0
  0
LINE
  5
F4
100
AcDbEntity
  8
DR-100_R-SIDE_50P_
390
0
 62
     7
100
AcDbLine
 10
33.128038
 20
17.874878
 30
0.0
 11
32.331532
 21
17.874878
 31
0.0
  0
LINE
  5
F3
100
AcDbEntity
  8
DR-100_R-SIDE_50P_
390
0
 62
     7
100
AcDbLine
 10
35.574745
 20
17.874878
 30
0.0
 11
34.778239
 21
17.874878
 31
0.0
  0
LINE
  5
F2
100
AcDbEntity
  8
DR-100_R-SIDE_50P_
390
0
 62
     7
100
AcDbLine
 10
40.003415
 20
17.891759
 30
0.0
 11
58.00335
 21
17.891759
 31
0.0
  0
LINE
  5
F1
100
AcDbEntity
  8
DR-100_R-SIDE_50P_
390
0
 62
     7
100
AcDbLine
 10
6.353101
 20
17.891759
 30
0.0
 11
7.962305
 21
17.891759
 31
0.0
  0
LINE
  5
F0
100
AcDbEntity
  8
DR-100_R-SIDE_50P_
390
0
 62
     7
100
AcDbLine
 10
10.04142
 20
17.948258
 30
0.0
 11
8.064969
 21
17.948258
 31
0.0
  0
LINE
  5
EF
100
AcDbEntity
  8
DR-100_R-SIDE_50P_
390
0
 62
     7
100
AcDbLine
 10
33.128038
 20
17.991667
 30
0.0
 11
34.778239
 21
17.991667
 31
0.0
  0
LINE
  5
EE
100
AcDbEntity
  8
DR-100_R-SIDE_50P_
390
0
 62
     7
100
AcDbLine
 10
6.353101
 20
17.991667
 30
0.0
 11
10.053133
 21
17.991667
 31
0.0
  0
LINE
  5
ED
100
AcDbEntity
  8
DR-100_R-SIDE_50P_
390
0
 62
     7
100
AcDbLine
 10
33.278589
 20
18.141873
 30
0.0
 11
34.627688
 21
18.141873
 31
0.0
  0
LINE
  5
EC
100
AcDbEntity
  8
DR-100_R-SIDE_50P_
390
0
 62
     7
100
AcDbLine
 10
9.053022
 20
17.991667
 30
0.0
 11
8.064969
 21
17.948258
 31
0.0
  0
LINE
  5
EB
100
AcDbEntity
  8
DR-100_R-SIDE_50P_
390
0
 62
     7
100
AcDbLine
 10
24.331676
 20
17.874878
 30
0.0
 11
25.953282
 21
17.991667
 31
0.0
  0
LINE
  5
EA
100
AcDbEntity
  8
DR-100_R-SIDE_50P_
390
0
 62
     7
100
AcDbLine
 10
16.33182
 20
17.874878
 30
0.0
 11
17.953082
 21
17.991667
 31
0.0
  0
LINE
  5
E9
100
AcDbEntity
  8
DR-100_R-SIDE_50P_
390
0
 62
     7
100
AcDbLine
 10
28.178125
 20
0.2918
 30
0.0
 11
28.178125
 21
0.412378
 31
0.0
  0
LINE
  5
E8
100
AcDbEntity
  8
DR-100_R-SIDE_50P_
390
0
 62
     7
100
AcDbLine
 10
28.078217
 20
0.503673
 30
0.0
 11
28.078217
 21
0.241846
 31
0.0
  0
LINE
  5
E7
100
AcDbEntity
  8
DR-100_R-SIDE_50P_
390
0
 62
     7
100
AcDbLine
 10
27.977965
 20
0.141593
 30
0.0
 11
27.977965
 21
0.263205
 31
0.0
  0
LINE
  5
E6
100
AcDbEntity
  8
DR-100_R-SIDE_50P_
390
0
 62
     7
100
AcDbLine
 10
27.928011
 20
13.641545
 30
0.0
 11
27.928011
 21
12.741686
 31
0.0
  0
LINE
  5
E5
100
AcDbEntity
  8
DR-100_R-SIDE_50P_
390
0
 62
     7
100
AcDbLine
 10
27.928011
 20
6.44164
 30
0.0
 11
27.928011
 21
7.341843
 31
0.0
  0
LINE
  5
E4
100
AcDbEntity
  8
DR-100_R-SIDE_50P_
390
0
 62
     7
100
AcDbLine
 10
27.828103
 20
0.263205
 30
0.0
 11
27.828103
 21
0.141593
 31
0.0
  0
LINE
  5
E3
100
AcDbEntity
  8
DR-100_R-SIDE_50P_
390
0
 62
     7
100
AcDbLine
 10
27.728196
 20
0.324528
 30
0.0
 11
27.728196
 21
0.241846
 31
0.0
  0
LINE
  5
E2
100
AcDbEntity
  8
DR-100_R-SIDE_50P_
390
0
 62
     7
100
AcDbLine
 10
27.678242
 20
7.191637
 30
0.0
 11
27.678242
 21
6.44164
 31
0.0
  0
LINE
  5
E1
100
AcDbEntity
  8
DR-100_R-SIDE_50P_
390
0
 62
     7
100
AcDbLine
 10
27.678242
 20
13.641545
 30
0.0
 11
27.678242
 21
12.891547
 31
0.0
  0
LINE
  5
E0
100
AcDbEntity
  8
DR-100_R-SIDE_50P_
390
0
 62
     7
100
AcDbLine
 10
27.278266
 20
0.2918
 30
0.0
 11
27.278266
 21
0.411
 31
0.0
  0
LINE
  5
DF
100
AcDbEntity
  8
DR-100_R-SIDE_50P_
390
0
 62
     7
100
AcDbLine
 10
27.178014
 20
7.341843
 30
0.0
 11
27.178014
 21
7.191637
 31
0.0
  0
LINE
  5
DE
100
AcDbEntity
  8
DR-100_R-SIDE_50P_
390
0
 62
     7
100
AcDbLine
 10
27.178014
 20
12.891547
 30
0.0
 11
27.178014
 21
12.741686
 31
0.0
  0
LINE
  5
DD
100
AcDbEntity
  8
DR-100_R-SIDE_50P_
390
0
 62
     7
100
AcDbLine
 10
27.12806
 20
0.419957
 30
0.0
 11
27.12806
 21
0.416512
 31
0.0
  0
LINE
  5
DC
100
AcDbEntity
  8
DR-100_R-SIDE_50P_
390
0
 62
     7
100
AcDbLine
 10
27.12806
 20
0.671105
 30
0.0
 11
27.12806
 21
0.462332
 31
0.0
  0
LINE
  5
DB
100
AcDbEntity
  8
DR-100_R-SIDE_50P_
390
0
 62
     7
100
AcDbLine
 10
26.803187
 20
12.741686
 30
0.0
 11
26.803187
 21
12.891547
 31
0.0
  0
LINE
  5
DA
100
AcDbEntity
  8
DR-100_R-SIDE_50P_
390
0
 62
     7
100
AcDbLine
 10
26.803187
 20
7.191637
 30
0.0
 11
26.803187
 21
7.341843
 31
0.0
  0
LINE
  5
D9
100
AcDbEntity
  8
DR-100_R-SIDE_50P_
390
0
 62
     7
100
AcDbLine
 10
26.50312
 20
7.341843
 30
0.0
 11
26.50312
 21
12.741686
 31
0.0
  0
LINE
  5
D8
100
AcDbEntity
  8
DR-100_R-SIDE_50P_
390
0
 62
     7
100
AcDbLine
 10
26.203052
 20
12.741686
 30
0.0
 11
26.203052
 21
12.891547
 31
0.0
  0
LINE
  5
D7
100
AcDbEntity
  8
DR-100_R-SIDE_50P_
390
0
 62
     7
100
AcDbLine
 10
26.203052
 20
7.191637
 30
0.0
 11
26.203052
 21
7.341843
 31
0.0
  0
LINE
  5
D6
100
AcDbEntity
  8
DR-100_R-SIDE_50P_
390
0
 62
     7
100
AcDbLine
 10
57.107281
 20
2.366781
 30
0.0
 11
57.060428
 21
2.509408
 31
0.0
  0
LINE
  5
D5
100
AcDbEntity
  8
DR-100_R-SIDE_50P_
390
0
 62
     7
100
AcDbLine
 10
55.922857
 20
6.804064
 30
0.0
 11
55.866357
 21
6.943245
 31
0.0
  0
LINE
  5
D4
100
AcDbEntity
  8
DR-100_R-SIDE_50P_
390
0
 62
     7
100
AcDbLine
 10
52.983502
 20
14.029118
 30
0.0
 11
53.040346
 21
13.89028
 31
0.0
  0
LINE
  5
D3
100
AcDbEntity
  8
DR-100_R-SIDE_50P_
390
0
 62
     7
100
AcDbLine
 10
67.653063
 20
2.246547
 30
0.0
 11
67.628258
 21
2.266184
 31
0.0
  0
LINE
  5
D2
100
AcDbEntity
  8
DR-100_R-SIDE_50P_
390
0
 62
     7
100
AcDbLine
 10
50.353171
 20
17.29369
 30
0.0
 11
50.220535
 21
17.391876
 31
0.0
  0
LINE
  5
D1
100
AcDbEntity
  8
DR-100_R-SIDE_50P_
390
0
 62
     7
100
AcDbLine
 10
72.563013
 20
2.306147
 30
0.0
 11
72.653274
 21
2.246547
 31
0.0
  0
LINE
  5
D0
100
AcDbEntity
  8
DR-100_R-SIDE_50P_
390
0
 62
     7
100
AcDbLine
 10
25.42825
 20
7.341843
 30
0.0
 11
25.42825
 21
12.741686
 31
0.0
  0
LINE
  5
CF
100
AcDbEntity
  8
DR-100_R-SIDE_50P_
390
0
 62
     7
100
AcDbLine
 10
25.178136
 20
12.891547
 30
0.0
 11
25.178136
 21
7.191637
 31
0.0
  0
LINE
  5
CE
100
AcDbEntity
  8
DR-100_R-SIDE_50P_
390
0
 62
     7
100
AcDbLine
 10
72.653274
 20
2.246547
 30
0.0
 11
72.628125
 21
2.266184
 31
0.0
  0
LINE
  5
CD
100
AcDbEntity
  8
DR-100_R-SIDE_50P_
390
0
 62
     7
100
AcDbLine
 10
20.578244
 20
0.2918
 30
0.0
 11
20.578244
 21
0.241846
 31
0.0
  0
LINE
  5
CC
100
AcDbEntity
  8
DR-100_R-SIDE_50P_
390
0
 62
     7
100
AcDbLine
 10
20.12797
 20
0.2918
 30
0.0
 11
20.12797
 21
0.241846
 31
0.0
  0
LINE
  5
CB
100
AcDbEntity
  8
DR-100_R-SIDE_50P_
390
0
 62
     7
100
AcDbLine
 10
19.578133
 20
0.2918
 30
0.0
 11
19.578133
 21
0.241846
 31
0.0
  0
LINE
  5
CA
100
AcDbEntity
  8
DR-100_R-SIDE_50P_
390
0
 62
     7
100
AcDbLine
 10
19.128204
 20
0.2918
 30
0.0
 11
19.128204
 21
0.241846
 31
0.0
  0
LINE
  5
C9
100
AcDbEntity
  8
DR-100_R-SIDE_50P_
390
0
 62
     7
100
AcDbLine
 10
67.103225
 20
13.041753
 30
0.0
 11
66.50309
 21
13.641545
 31
0.0
  0
LINE
  5
C8
100
AcDbEntity
  8
DR-100_R-SIDE_50P_
390
0
 62
     7
100
AcDbLine
 10
68.424419
 20
15.701023
 30
0.0
 11
68.253198
 21
15.837104
 31
0.0
  0
LINE
  5
C7
100
AcDbEntity
  8
DR-100_R-SIDE_50P_
390
0
 62
     7
100
AcDbLine
 10
68.253198
 20
15.837104
 30
0.0
 11
68.278347
 21
15.820567
 31
0.0
  0
LINE
  5
C6
100
AcDbEntity
  8
DR-100_R-SIDE_50P_
390
0
 62
     7
100
AcDbLine
 10
73.424287
 20
15.701023
 30
0.0
 11
73.25341
 21
15.837104
 31
0.0
  0
LINE
  5
C5
100
AcDbEntity
  8
DR-100_R-SIDE_50P_
390
0
 62
     7
100
AcDbLine
 10
73.25341
 20
15.837104
 30
0.0
 11
73.278215
 21
15.820567
 31
0.0
  0
LINE
  5
C4
100
AcDbEntity
  8
DR-100_R-SIDE_50P_
390
0
 62
     7
100
AcDbLine
 10
12.578044
 20
0.419957
 30
0.0
 11
12.578044
 21
0.416512
 31
0.0
  0
LINE
  5
C3
100
AcDbEntity
  8
DR-100_R-SIDE_50P_
390
0
 62
     7
100
AcDbLine
 10
12.578044
 20
0.671105
 30
0.0
 11
12.578044
 21
0.462332
 31
0.0
  0
LINE
  5
C2
100
AcDbEntity
  8
DR-100_R-SIDE_50P_
390
0
 62
     7
100
AcDbLine
 10
12.428182
 20
0.2918
 30
0.0
 11
12.428182
 21
0.411
 31
0.0
  0
LINE
  5
C1
100
AcDbEntity
  8
DR-100_R-SIDE_50P_
390
0
 62
     7
100
AcDbLine
 10
11.978252
 20
0.241846
 30
0.0
 11
11.978252
 21
0.324528
 31
0.0
  0
LINE
  5
C0
100
AcDbEntity
  8
DR-100_R-SIDE_50P_
390
0
 62
     7
100
AcDbLine
 10
11.878345
 20
0.141593
 30
0.0
 11
11.878345
 21
0.263205
 31
0.0
  0
LINE
  5
BF
100
AcDbEntity
  8
DR-100_R-SIDE_50P_
390
0
 62
     7
100
AcDbLine
 10
11.728139
 20
0.263205
 30
0.0
 11
11.728139
 21
0.141593
 31
0.0
  0
LINE
  5
BE
100
AcDbEntity
  8
DR-100_R-SIDE_50P_
390
0
 62
     7
100
AcDbLine
 10
11.628231
 20
0.503673
 30
0.0
 11
11.628231
 21
0.241846
 31
0.0
  0
LINE
  5
BD
100
AcDbEntity
  8
DR-100_R-SIDE_50P_
390
0
 62
     7
100
AcDbLine
 10
11.528323
 20
0.2918
 30
0.0
 11
11.528323
 21
0.412378
 31
0.0
  0
LINE
  5
BC
100
AcDbEntity
  8
DR-100_R-SIDE_50P_
390
0
 62
     7
100
AcDbLine
 10
68.431654
 20
15.68862
 30
0.0
 11
68.424419
 21
15.701023
 31
0.0
  0
LINE
  5
BB
100
AcDbEntity
  8
DR-100_R-SIDE_50P_
390
0
 62
     7
100
AcDbLine
 10
76.953098
 20
12.9918
 30
0.0
 11
76.653375
 21
13.291523
 31
0.0
  0
LINE
  5
BA
100
AcDbEntity
  8
DR-100_R-SIDE_50P_
390
0
 62
     7
100
AcDbLine
 10
10.203339
 20
17.798741
 30
0.0
 11
10.203339
 21
17.841805
 31
0.0
  0
LINE
  5
B9
100
AcDbEntity
  8
DR-100_R-SIDE_50P_
390
0
 62
     7
100
AcDbLine
 10
10.17819
 20
17.791851
 30
0.0
 11
10.17819
 21
17.798741
 31
0.0
  0
LINE
  5
B8
100
AcDbEntity
  8
DR-100_R-SIDE_50P_
390
0
 62
     7
100
AcDbLine
 10
7.928198
 20
17.791851
 30
0.0
 11
7.928198
 21
17.798741
 31
0.0
  0
LINE
  5
B7
100
AcDbEntity
  8
DR-100_R-SIDE_50P_
390
0
 62
     7
100
AcDbLine
 10
6.203239
 20
17.791851
 30
0.0
 11
6.203239
 21
17.841805
 31
0.0
  0
LINE
  5
B6
100
AcDbEntity
  8
DR-100_R-SIDE_50P_
390
0
 62
     7
100
AcDbLine
 10
5.953125
 20
0.2918
 30
0.0
 11
5.953125
 21
0.191547
 31
0.0
  0
LINE
  5
B5
100
AcDbEntity
  8
DR-100_R-SIDE_50P_
390
0
 62
     7
100
AcDbLine
 10
73.431866
 20
15.68862
 30
0.0
 11
73.424287
 21
15.701023
 31
0.0
  0
LINE
  5
B4
100
AcDbEntity
  8
DR-100_R-SIDE_50P_
390
0
 62
     7
100
AcDbLine
 10
3.953247
 20
0.2918
 30
0.0
 11
3.953247
 21
0.191547
 31
0.0
  0
LINE
  5
B3
100
AcDbEntity
  8
DR-100_R-SIDE_50P_
390
0
 62
     7
100
AcDbLine
 10
3.953247
 20
6.941867
 30
0.0
 11
3.953247
 21
6.6418
 31
0.0
  0
LINE
  5
B2
100
AcDbEntity
  8
DR-100_R-SIDE_50P_
390
0
 62
     7
100
AcDbLine
 10
3.953247
 20
13.441729
 30
0.0
 11
3.953247
 21
13.141661
 31
0.0
  0
LINE
  5
B1
100
AcDbEntity
  8
DR-100_R-SIDE_50P_
390
0
 62
     7
100
AcDbLine
 10
3.603225
 20
6.541547
 30
0.0
 11
3.603225
 21
6.291778
 31
0.0
  0
LINE
  5
B0
100
AcDbEntity
  8
DR-100_R-SIDE_50P_
390
0
 62
     7
100
AcDbLine
 10
3.603225
 20
7.291545
 30
0.0
 11
3.603225
 21
7.041775
 31
0.0
  0
LINE
  5
AF
100
AcDbEntity
  8
DR-100_R-SIDE_50P_
390
0
 62
     7
100
AcDbLine
 10
3.603225
 20
13.041753
 30
0.0
 11
3.603225
 21
12.79164
 31
0.0
  0
LINE
  5
AE
100
AcDbEntity
  8
DR-100_R-SIDE_50P_
390
0
 62
     7
100
AcDbLine
 10
3.603225
 20
13.791751
 30
0.0
 11
3.603225
 21
13.541637
 31
0.0
  0
LINE
  5
AD
100
AcDbEntity
  8
DR-100_R-SIDE_50P_
390
0
 62
     7
100
AcDbLine
 10
3.303158
 20
13.541637
 30
0.0
 11
3.303158
 21
13.791751
 31
0.0
  0
LINE
  5
AC
100
AcDbEntity
  8
DR-100_R-SIDE_50P_
390
0
 62
     7
100
AcDbLine
 10
3.303158
 20
12.79164
 30
0.0
 11
3.303158
 21
13.041753
 31
0.0
  0
LINE
  5
AB
100
AcDbEntity
  8
DR-100_R-SIDE_50P_
390
0
 62
     7
100
AcDbLine
 10
3.303158
 20
7.041775
 30
0.0
 11
3.303158
 21
7.291545
 31
0.0
  0
LINE
  5
AA
100
AcDbEntity
  8
DR-100_R-SIDE_50P_
390
0
 62
     7
100
AcDbLine
 10
3.303158
 20
6.291778
 30
0.0
 11
3.303158
 21
6.541547
 31
0.0
  0
LINE
  5
A9
100
AcDbEntity
  8
DR-100_R-SIDE_50P_
390
0
 62
     7
100
AcDbLine
 10
2.953136
 20
13.141661
 30
0.0
 11
2.953136
 21
13.441729
 31
0.0
  0
LINE
  5
A8
100
AcDbEntity
  8
DR-100_R-SIDE_50P_
390
0
 62
     7
100
AcDbLine
 10
2.953136
 20
6.6418
 30
0.0
 11
2.953136
 21
6.941867
 31
0.0
  0
LINE
  5
A7
100
AcDbEntity
  8
DR-100_R-SIDE_50P_
390
0
 62
     7
100
AcDbLine
 10
1.053166
 20
5.291667
 30
0.0
 11
1.053166
 21
1.291911
 31
0.0
  0
LINE
  5
A6
100
AcDbEntity
  8
DR-100_R-SIDE_50P_
390
0
 62
     7
100
AcDbLine
 10
1.053166
 20
14.791862
 30
0.0
 11
1.053166
 21
16.79174
 31
0.0
  0
LINE
  5
A5
100
AcDbEntity
  8
DR-100_R-SIDE_50P_
390
0
 62
     7
100
AcDbLine
 10
1.053166
 20
15.585612
 30
0.0
 11
1.053166
 21
16.79174
 31
0.0
  0
LINE
  5
A4
100
AcDbEntity
  8
DR-100_R-SIDE_50P_
390
0
 62
     7
100
AcDbLine
 10
0.953258
 20
5.291667
 30
0.0
 11
0.953258
 21
1.54168
 31
0.0
  0
LINE
  5
A3
100
AcDbEntity
  8
DR-100_R-SIDE_50P_
390
0
 62
     7
100
AcDbLine
 10
0.953258
 20
15.541859
 30
0.0
 11
0.953258
 21
14.791862
 31
0.0
  0
LINE
  5
A2
100
AcDbEntity
  8
DR-100_R-SIDE_50P_
390
0
 62
     7
100
AcDbLine
 10
0.603236
 20
5.291667
 30
0.0
 11
0.603236
 21
1.54168
 31
0.0
  0
LINE
  5
A1
100
AcDbEntity
  8
DR-100_R-SIDE_50P_
390
0
 62
     7
100
AcDbLine
 10
0.603236
 20
15.541859
 30
0.0
 11
0.603236
 21
14.791862
 31
0.0
  0
LINE
  5
A0
100
AcDbEntity
  8
DR-100_R-SIDE_50P_
390
0
 62
     7
100
AcDbLine
 10
0.45303
 20
15.391653
 30
0.0
 11
0.45303
 21
1.691542
 31
0.0
  0
LINE
  5
9F
100
AcDbEntity
  8
DR-100_R-SIDE_50P_
390
0
 62
     7
100
AcDbLine
 10
0.303168
 20
2.541791
 30
0.0
 11
0.303168
 21
13.541637
 31
0.0
  0
LINE
  5
9E
100
AcDbEntity
  8
DR-100_R-SIDE_50P_
390
0
 62
     7
100
AcDbLine
 10
0.203261
 20
2.641699
 30
0.0
 11
0.203261
 21
13.441729
 31
0.0
  0
LINE
  5
9C
100
AcDbEntity
  8
DR100_BATTERY-KNOB
390
0
 62
     7
100
AcDbLine
 10
41.670841
 20
11.311627
 30
0.0
 11
42.370885
 21
11.311627
 31
0.0
  0
LINE
  5
9B
100
AcDbEntity
  8
DR100_BATTERY-KNOB
390
0
 62
     7
100
AcDbLine
 10
42.370885
 20
8.811521
 30
0.0
 11
41.670841
 21
8.811521
 31
0.0
  0
LINE
  5
9A
100
AcDbEntity
  8
DR100_BATTERY-KNOB
390
0
 62
     7
100
AcDbLine
 10
40.67073
 20
11.411534
 30
0.0
 11
42.77086
 21
11.411534
 31
0.0
  0
LINE
  5
99
100
AcDbEntity
  8
DR100_BATTERY-KNOB
390
0
 62
     7
100
AcDbLine
 10
42.77086
 20
8.711268
 30
0.0
 11
40.67073
 21
8.711268
 31
0.0
  0
SPLINE
  5
98
100
AcDbEntity
  8
DR100_BATTERY-KNOB
390
0
 62
     7
100
AcDbSpline
210
0.0
220
0.0
230
1.0
 70
     8
 71
     3
 72
    11
 73
     7
 74
     0
 42
0.00000001
 43
0.00000001
 40
0.0
 40
0.0
 40
0.0
 40
0.0
 40
1.0
 40
1.0
 40
1.0
 40
2.0
 40
2.0
 40
2.0
 40
2.0
 10
39.1459309895833272
 20
11.1614203559027771
 30
0.0
 10
39.1459309895833272
 20
11.2299777560763872
 30
0.0
 10
39.0994222005208272
 20
11.2895779079861107
 30
0.0
 10
39.0329318576388857
 20
11.3068033854166661
 30
0.0
 10
38.9667860243055486
 20
11.32368435329861
 30
0.0
 10
38.8971950954861043
 20
11.2930230034722214
 30
0.0
 10
38.8641221788194429
 20
11.2330783420138882
 30
0.0
  0
SPLINE
  5
97
100
AcDbEntity
  8
DR100_BATTERY-KNOB
390
0
 62
     7
100
AcDbSpline
210
0.0
220
0.0
230
1.0
 70
     8
 71
     3
 72
     8
 73
     4
 74
     0
 42
0.00000001
 43
0.00000001
 40
0.0
 40
0.0
 40
0.0
 40
0.0
 40
1.0
 40
1.0
 40
1.0
 40
1.0
 10
38.2639865451388843
 20
10.1334038628472207
 30
0.0
 10
38.2398708767361057
 20
10.0886176215277761
 30
0.0
 10
38.2398708767361057
 20
10.0341851128472221
 30
0.0
 10
38.2639865451388843
 20
9.9893988715277775
 30
0.0
  0
SPLINE
  5
96
100
AcDbEntity
  8
DR100_BATTERY-KNOB
390
0
 62
     7
100
AcDbSpline
210
0.0
220
0.0
230
1.0
 70
     8
 71
     3
 72
    11
 73
     7
 74
     0
 42
0.00000001
 43
0.00000001
 40
0.0
 40
0.0
 40
0.0
 40
0.0
 40
1.0
 40
1.0
 40
1.0
 40
2.0
 40
2.0
 40
2.0
 40
2.0
 10
38.8641221788194429
 20
8.88972439236111
 30
0.0
 10
38.8971950954861043
 20
8.8294352213541654
 30
0.0
 10
38.9667860243055486
 20
8.7991183810763882
 30
0.0
 10
39.0329318576388857
 20
8.8159993489583321
 30
0.0
 10
39.0994222005208272
 20
8.8332248263888875
 30
0.0
 10
39.1459309895833272
 20
8.8928249782986111
 30
0.0
 10
39.1459309895833272
 20
8.9613823784722211
 30
0.0
  0
LINE
  5
95
100
AcDbEntity
  8
DR100_BATTERY-KNOB
390
0
 62
     7
100
AcDbLine
 10
38.263987
 20
9.989399
 30
0.0
 11
38.864122
 21
8.889724
 31
0.0
  0
LINE
  5
94
100
AcDbEntity
  8
DR100_BATTERY-KNOB
390
0
 62
     7
100
AcDbLine
 10
39.145931
 20
8.961382
 30
0.0
 11
39.145931
 21
11.16142
 31
0.0
  0
LINE
  5
93
100
AcDbEntity
  8
DR100_BATTERY-KNOB
390
0
 62
     7
100
AcDbLine
 10
38.864122
 20
11.233078
 30
0.0
 11
38.263987
 21
10.133404
 31
0.0
  0
SPLINE
  5
92
100
AcDbEntity
  8
DR100_BATTERY-KNOB
390
0
 62
     7
100
AcDbSpline
210
0.0
220
0.0
230
1.0
 70
     8
 71
     3
 72
    11
 73
     7
 74
     0
 42
0.00000001
 43
0.00000001
 40
0.0
 40
0.0
 40
0.0
 40
0.0
 40
1.0
 40
1.0
 40
1.0
 40
2.0
 40
2.0
 40
2.0
 40
2.0
 10
42.5207465277777743
 20
11.1614203559027771
 30
0.0
 10
42.5207465277777743
 20
11.2013834635416654
 30
0.0
 10
42.5048990885416629
 20
11.2392795138888886
 30
0.0
 10
42.4769938151041657
 20
11.2675292968749989
 30
0.0
 10
42.44874403211805
 20
11.2957790798611093
 30
0.0
 10
42.4105034722222172
 20
11.3116265190972207
 30
0.0
 10
42.3708848741319386
 20
11.3116265190972207
 30
0.0
  0
SPLINE
  5
91
100
AcDbEntity
  8
DR100_BATTERY-KNOB
390
0
 62
     7
100
AcDbSpline
210
0.0
220
0.0
230
1.0
 70
     8
 71
     3
 72
     8
 73
     4
 74
     0
 42
0.00000001
 43
0.00000001
 40
0.0
 40
0.0
 40
0.0
 40
0.0
 40
1.0
 40
1.0
 40
1.0
 40
1.0
 10
41.6708414713541657
 20
11.3116265190972207
 30
0.0
 10
41.5881591796874943
 20
11.3116265190972207
 30
0.0
 10
41.52097981770833
 20
11.2441026475694432
 30
0.0
 10
41.52097981770833
 20
11.1614203559027771
 30
0.0
  0
LINE
  5
90
100
AcDbEntity
  8
DR100_BATTERY-KNOB
390
0
 62
     7
100
AcDbLine
 10
41.52098
 20
8.961382
 30
0.0
 11
41.52098
 21
11.16142
 31
0.0
  0
SPLINE
  5
8F
100
AcDbEntity
  8
DR100_BATTERY-KNOB
390
0
 62
     7
100
AcDbSpline
210
0.0
220
0.0
230
1.0
 70
     8
 71
     3
 72
     8
 73
     4
 74
     0
 42
0.00000001
 43
0.00000001
 40
0.0
 40
0.0
 40
0.0
 40
0.0
 40
1.0
 40
1.0
 40
1.0
 40
1.0
 10
41.52097981770833
 20
8.9613823784722211
 30
0.0
 10
41.52097981770833
 20
8.878700086805555
 30
0.0
 10
41.5881591796874943
 20
8.8111762152777775
 30
0.0
 10
41.6708414713541657
 20
8.8111762152777775
 30
0.0
  0
LINE
  5
8E
100
AcDbEntity
  8
DR100_BATTERY-KNOB
390
0
 62
     7
100
AcDbLine
 10
42.520747
 20
11.16142
 30
0.0
 11
42.520747
 21
8.961382
 31
0.0
  0
SPLINE
  5
8D
100
AcDbEntity
  8
DR100_BATTERY-KNOB
390
0
 62
     7
100
AcDbSpline
210
0.0
220
0.0
230
1.0
 70
     8
 71
     3
 72
    11
 73
     7
 74
     0
 42
0.00000001
 43
0.00000001
 40
0.0
 40
0.0
 40
0.0
 40
0.0
 40
1.0
 40
1.0
 40
1.0
 40
2.0
 40
2.0
 40
2.0
 40
2.0
 10
42.3708848741319386
 20
8.8115207248263889
 30
0.0
 10
42.4105034722222172
 20
8.8115207248263889
 30
0.0
 10
42.44874403211805
 20
8.8270236545138889
 30
0.0
 10
42.4769938151041657
 20
8.8552734374999993
 30
0.0
 10
42.5048990885416629
 20
8.8835232204861097
 30
0.0
 10
42.5207465277777743
 20
8.9214192708333329
 30
0.0
 10
42.5207465277777743
 20
8.9613823784722211
 30
0.0
  0
SPLINE
  5
8C
100
AcDbEntity
  8
DR100_BATTERY-KNOB
390
0
 62
     7
100
AcDbSpline
210
0.0
220
0.0
230
1.0
 70
     8
 71
     3
 72
    11
 73
     7
 74
     0
 42
0.00000001
 43
0.00000001
 40
0.0
 40
0.0
 40
0.0
 40
0.0
 40
1.0
 40
1.0
 40
1.0
 40
2.0
 40
2.0
 40
2.0
 40
2.0
 10
42.7708604600694429
 20
8.7112684461805543
 30
0.0
 10
42.8370062934027729
 20
8.7112684461805543
 30
0.0
 10
42.90074055989583
 20
8.7377956814236111
 30
0.0
 10
42.9479383680555529
 20
8.7846489800347207
 30
0.0
 10
42.9944471571180529
 20
8.8311577690972207
 30
0.0
 10
43.0209743923611043
 20
8.8952365451388875
 30
0.0
 10
43.0209743923611043
 20
8.9613823784722211
 30
0.0
  0
LINE
  5
8B
100
AcDbEntity
  8
DR100_BATTERY-KNOB
390
0
 62
     7
100
AcDbLine
 10
43.020974
 20
11.16142
 30
0.0
 11
43.020974
 21
8.961382
 31
0.0
  0
SPLINE
  5
8A
100
AcDbEntity
  8
DR100_BATTERY-KNOB
390
0
 62
     7
100
AcDbSpline
210
0.0
220
0.0
230
1.0
 70
     8
 71
     3
 72
    11
 73
     7
 74
     0
 42
0.00000001
 43
0.00000001
 40
0.0
 40
0.0
 40
0.0
 40
0.0
 40
1.0
 40
1.0
 40
1.0
 40
2.0
 40
2.0
 40
2.0
 40
2.0
 10
43.0209743923611043
 20
11.1614203559027771
 30
0.0
 10
43.0209743923611043
 20
11.2275661892361107
 30
0.0
 10
42.9944471571180529
 20
11.2913004557291661
 30
0.0
 10
42.9479383680555529
 20
11.3384982638888872
 30
0.0
 10
42.90074055989583
 20
11.3850070529513872
 30
0.0
 10
42.8370062934027729
 20
11.4115342881944439
 30
0.0
 10
42.7708604600694429
 20
11.4115342881944439
 30
0.0
  0
SPLINE
  5
89
100
AcDbEntity
  8
DR100_BATTERY-KNOB
390
0
 62
     7
100
AcDbSpline
210
0.0
220
0.0
230
1.0
 70
     8
 71
     3
 72
     8
 73
     4
 74
     0
 42
0.00000001
 43
0.00000001
 40
0.0
 40
0.0
 40
0.0
 40
0.0
 40
1.0
 40
1.0
 40
1.0
 40
1.0
 10
40.67073025173611
 20
11.4115342881944439
 30
0.0
 10
40.53292643229166
 20
11.4115342881944439
 30
0.0
 10
40.4209608289930529
 20
11.2992241753472218
 30
0.0
 10
40.4209608289930529
 20
11.1614203559027771
 30
0.0
  0
LINE
  5
88
100
AcDbEntity
  8
DR100_BATTERY-KNOB
390
0
 62
     7
100
AcDbLine
 10
40.420961
 20
8.961382
 30
0.0
 11
40.420961
 21
11.16142
 31
0.0
  0
SPLINE
  5
87
100
AcDbEntity
  8
DR100_BATTERY-KNOB
390
0
 62
     7
100
AcDbSpline
210
0.0
220
0.0
230
1.0
 70
     8
 71
     3
 72
     8
 73
     4
 74
     0
 42
0.00000001
 43
0.00000001
 40
0.0
 40
0.0
 40
0.0
 40
0.0
 40
1.0
 40
1.0
 40
1.0
 40
1.0
 10
40.4209608289930529
 20
8.9613823784722211
 30
0.0
 10
40.4209608289930529
 20
8.8235785590277764
 30
0.0
 10
40.53292643229166
 20
8.7112684461805543
 30
0.0
 10
40.67073025173611
 20
8.7112684461805543
 30
0.0
  0
SPLINE
  5
86
100
AcDbEntity
  8
DR100_BATTERY-KNOB
390
0
 62
     7
100
AcDbSpline
210
0.0
220
0.0
230
1.0
 70
     8
 71
     3
 72
    11
 73
     7
 74
     0
 42
0.00000001
 43
0.00000001
 40
0.0
 40
0.0
 40
0.0
 40
0.0
 40
1.0
 40
1.0
 40
1.0
 40
2.0
 40
2.0
 40
2.0
 40
2.0
 10
42.7708604600694429
 20
8.2113850911458321
 30
0.0
 10
42.9699869791666629
 20
8.2113850911458321
 30
0.0
 10
43.1605007595486043
 20
8.2902777777777779
 30
0.0
 10
43.3010606553819386
 20
8.4308376736111104
 30
0.0
 10
43.4419650607638843
 20
8.5717420789930543
 30
0.0
 10
43.52085774739583
 20
8.7622558593749993
 30
0.0
 10
43.52085774739583
 20
8.9613823784722211
 30
0.0
  0
LINE
  5
85
100
AcDbEntity
  8
DR100_BATTERY-KNOB
390
0
 62
     7
100
AcDbLine
 10
43.520858
 20
8.961382
 30
0.0
 11
43.520858
 21
11.16142
 31
0.0
  0
SPLINE
  5
84
100
AcDbEntity
  8
DR100_BATTERY-KNOB
390
0
 62
     7
100
AcDbSpline
210
0.0
220
0.0
230
1.0
 70
     8
 71
     3
 72
    11
 73
     7
 74
     0
 42
0.00000001
 43
0.00000001
 40
0.0
 40
0.0
 40
0.0
 40
0.0
 40
1.0
 40
1.0
 40
1.0
 40
2.0
 40
2.0
 40
2.0
 40
2.0
 10
43.52085774739583
 20
11.1614203559027771
 30
0.0
 10
43.52085774739583
 20
11.3605468749999989
 30
0.0
 10
43.4419650607638843
 20
11.5514051649305554
 30
0.0
 10
43.3010606553819386
 20
11.6919650607638879
 30
0.0
 10
43.1605007595486043
 20
11.8325249565972204
 30
0.0
 10
42.9699869791666629
 20
11.9114176432291661
 30
0.0
 10
42.7708604600694429
 20
11.9114176432291661
 30
0.0
  0
LINE
  5
83
100
AcDbEntity
  8
DR100_BATTERY-KNOB
390
0
 62
     7
100
AcDbLine
 10
42.77086
 20
11.911418
 30
0.0
 11
40.67073
 21
11.911418
 31
0.0
  0
SPLINE
  5
82
100
AcDbEntity
  8
DR100_BATTERY-KNOB
390
0
 62
     7
100
AcDbSpline
210
0.0
220
0.0
230
1.0
 70
     8
 71
     3
 72
     8
 73
     4
 74
     0
 42
0.00000001
 43
0.00000001
 40
0.0
 40
0.0
 40
0.0
 40
0.0
 40
1.0
 40
1.0
 40
1.0
 40
1.0
 10
40.67073025173611
 20
11.9114176432291661
 30
0.0
 10
40.2566297743055515
 20
11.9114176432291661
 30
0.0
 10
39.9210774739583272
 20
11.5755208333333321
 30
0.0
 10
39.9210774739583272
 20
11.1614203559027771
 30
0.0
  0
LINE
  5
81
100
AcDbEntity
  8
DR100_BATTERY-KNOB
390
0
 62
     7
100
AcDbLine
 10
39.921077
 20
11.16142
 30
0.0
 11
39.921077
 21
8.961382
 31
0.0
  0
SPLINE
  5
80
100
AcDbEntity
  8
DR100_BATTERY-KNOB
390
0
 62
     7
100
AcDbSpline
210
0.0
220
0.0
230
1.0
 70
     8
 71
     3
 72
     8
 73
     4
 74
     0
 42
0.00000001
 43
0.00000001
 40
0.0
 40
0.0
 40
0.0
 40
0.0
 40
1.0
 40
1.0
 40
1.0
 40
1.0
 10
39.9210774739583272
 20
8.9613823784722211
 30
0.0
 10
39.9210774739583272
 20
8.5472819010416661
 30
0.0
 10
40.2566297743055515
 20
8.2113850911458321
 30
0.0
 10
40.67073025173611
 20
8.2113850911458321
 30
0.0
  0
LINE
  5
7F
100
AcDbEntity
  8
DR100_BATTERY-KNOB
390
0
 62
     7
100
AcDbLine
 10
40.67073
 20
8.211385
 30
0.0
 11
42.77086
 21
8.211385
 31
0.0
  0
HATCH
  5
7D
100
AcDbEntity
  8
DR-100_R-SIDE_SILK
390
0
 62
     7
100
AcDbHatch
 10
0.0
 20
0.0
 30
0.0
210
0.0
220
0.0
230
1.0
  2
SOLID
 70
     1
 71
     0
 91
        2
 92
        1
 93
        1
 72
     4
 94
        3
 73
     0
 74
     0
 95
       20
 96
       16
 40
0.0
 40
0.0
 40
0.0
 40
0.0
 40
1.0
 40
1.0
 40
1.0
 40
2.0
 40
2.0
 40
2.0
 40
3.0
 40
3.0
 40
3.0
 40
4.0
 40
4.0
 40
4.0
 40
5.0
 40
5.0
 40
5.0
 40
5.0
 10
58.9645317925347143
 20
10.3559570312499982
 10
58.9342149522569372
 20
10.2839545355902775
 10
58.8518771701388843
 20
10.249503580729165
 10
58.7791856553819372
 20
10.2784423828124982
 10
58.7068386501736086
 20
10.3077256944444429
 10
58.6710096571180486
 20
10.3897189670138879
 10
58.6992594401041643
 20
10.4627549913194429
 10
58.7175184461805486
 20
10.5116753472222211
 10
58.7605821397569414
 20
10.5468153211805546
 10
58.8119140624999943
 20
10.5543945312499989
 10
58.8635904947916586
 20
10.5623182508680546
 10
58.9149224175347186
 20
10.5413031684027771
 10
58.9469618055555529
 20
10.5003065321180546
 10
58.9783121744791643
 20
10.4589653862847207
 10
58.9852023654513857
 20
10.4038438585069439
 10
58.9645317925347143
 20
10.3559570312499982
 97
        0
 92
       16
 93
        1
 72
     4
 94
        3
 73
     0
 74
     0
 95
       56
 96
       52
 40
0.0
 40
0.0
 40
0.0
 40
0.0
 40
1.0
 40
1.0
 40
1.0
 40
2.0
 40
2.0
 40
2.0
 40
3.0
 40
3.0
 40
3.0
 40
4.0
 40
4.0
 40
4.0
 40
5.0
 40
5.0
 40
5.0
 40
6.0
 40
6.0
 40
6.0
 40
7.0
 40
7.0
 40
7.0
 40
8.0
 40
8.0
 40
8.0
 40
9.0
 40
9.0
 40
9.0
 40
10.0
 40
10.0
 40
10.0
 40
11.0
 40
11.0
 40
11.0
 40
12.0
 40
12.0
 40
12.0
 40
13.0
 40
13.0
 40
13.0
 40
14.0
 40
14.0
 40
14.0
 40
15.0
 40
15.0
 40
15.0
 40
16.0
 40
16.0
 40
16.0
 40
17.0
 40
17.0
 40
17.0
 40
17.0
 10
59.0933783637152743
 20
10.4531087239583318
 10
59.0823540581597157
 20
10.4944498697916657
 10
59.0568603515624915
 20
10.5306233723958318
 10
59.02137586805555
 20
10.5547390407986104
 10
59.0634060329861086
 20
10.5588731553819439
 10
59.1061252170138829
 20
10.5537055121527761
 10
59.1457438151041615
 20
10.5385470920138875
 10
59.1540120442708286
 20
10.5354465060763882
 10
59.1619357638888843
 20
10.5320014105902775
 10
59.16985948350694
 20
10.5282118055555554
 10
59.2366943359374929
 20
10.4903157552083321
 10
59.2608100043402715
 20
10.4055664062499993
 10
59.2236029730902729
 20
10.3380425347222218
 10
59.21877983940972
 20
10.3283962673611107
 10
59.2118896484374915
 20
10.3197835286458321
 10
59.20327690972222
 20
10.3125488281249993
 10
59.1891520182291586
 20
10.3008355034722214
 10
59.1719265407986086
 20
10.2929117838541657
 10
59.1536675347222172
 20
10.289466688368055
 10
59.1536675347222172
 20
10.289466688368055
 10
59.1536675347222172
 20
10.1475287543402768
 10
59.1536675347222172
 20
10.1475287543402768
 10
59.2232584635416615
 20
10.1502848307291664
 10
59.2863037109374957
 20
10.1899034288194432
 10
59.3186876085069414
 20
10.2519151475694432
 10
59.3548611111111057
 20
10.3197835286458321
 10
59.3682969835069372
 20
10.3976426866319436
 10
59.3572726779513857
 20
10.4744683159722207
 10
59.3507269965277757
 20
10.513053385416665
 10
59.3359130859374915
 20
10.5502604166666654
 10
59.3138644748263815
 20
10.5826443142361093
 10
59.3090413411458286
 20
10.5891899956597211
 10
59.3042182074652757
 20
10.5953911675347214
 10
59.2987060546874929
 20
10.6012478298611104
 10
59.2570203993055529
 20
10.6422444661458329
 10
59.2060329861111043
 20
10.67256130642361
 10
59.1498779296874915
 20
10.6897867838541654
 10
59.0313666449652743
 20
10.7249267578124989
 10
58.9056206597222172
 20
10.7294053819444439
 10
58.78469780815972
 20
10.7028781467013872
 10
58.6975368923611072
 20
10.6822075737847211
 10
58.6255343967013829
 20
10.6219184027777764
 10
58.58970540364583
 20
10.5399251302083332
 10
58.5549099392361043
 20
10.4565538194444443
 10
58.5549099392361043
 20
10.3628472222222214
 10
58.5890163845486072
 20
10.2791314019097211
 10
58.6424153645833286
 20
10.1478732638888882
 10
58.7891764322916615
 20
10.0813829210069432
 10
58.9235351562499972
 20
10.1278917100694432
 10
59.0575493706597143
 20
10.1740559895833318
 10
59.1319634331597186
 20
10.3166829427083329
 10
59.0933783637152743
 20
10.4531087239583318
 97
        0
 75
     2
 76
     1
 98
        1
 10
0.0
 20
0.0
  0
HATCH
  5
7C
100
AcDbEntity
  8
DR-100_R-SIDE_SILK
390
0
 62
     7
100
AcDbHatch
 10
0.0
 20
0.0
 30
0.0
210
0.0
220
0.0
230
1.0
  2
SOLID
 70
     1
 71
     0
 91
        3
 92
        1
 93
        1
 72
     4
 94
        3
 73
     0
 74
     0
 95
       23
 96
       19
 40
0.0
 40
0.0
 40
0.0
 40
0.0
 40
1.0
 40
1.0
 40
1.0
 40
2.0
 40
2.0
 40
2.0
 40
3.0
 40
3.0
 40
3.0
 40
4.0
 40
4.0
 40
4.0
 40
5.0
 40
5.0
 40
5.0
 40
6.0
 40
6.0
 40
6.0
 40
6.0
 10
58.1614800347222172
 20
8.3615912543402775
 10
58.1911078559027715
 20
8.3812282986111111
 10
58.2290039062499929
 20
8.3829508463541664
 10
58.2603542751736043
 20
8.3660698784722207
 10
58.2917046440972157
 20
8.3495334201388882
 10
58.3113416883680529
 20
8.3171495225694443
 10
58.3120307074652757
 20
8.2820095486111107
 10
58.3127197265624915
 20
8.22309841579861
 10
58.2803358289930529
 20
8.1690104166666657
 10
58.2279703776041586
 20
8.1428276909722221
 10
58.19730902777777
 20
8.1262912326388879
 10
58.1607910156249943
 20
8.1280137803819432
 10
58.1315077039930515
 20
8.1462727864583329
 10
58.1022243923611086
 20
8.1648763020833321
 10
58.0849989149305515
 20
8.1972601996527779
 10
58.0867214626736086
 20
8.2317111545138886
 10
58.0891330295138815
 20
8.2847656249999986
 10
58.1170383029513857
 20
8.3333414713541654
 10
58.1614800347222172
 20
8.3615912543402775
 97
        0
 92
        1
 93
        1
 72
     4
 94
        3
 73
     0
 74
     0
 95
       29
 96
       25
 40
0.0
 40
0.0
 40
0.0
 40
0.0
 40
1.0
 40
1.0
 40
1.0
 40
2.0
 40
2.0
 40
2.0
 40
3.0
 40
3.0
 40
3.0
 40
4.0
 40
4.0
 40
4.0
 40
5.0
 40
5.0
 40
5.0
 40
6.0
 40
6.0
 40
6.0
 40
7.0
 40
7.0
 40
7.0
 40
8.0
 40
8.0
 40
8.0
 40
8.0
 10
58.53837348090277
 20
7.9612711588541663
 10
58.49668782552083
 20
7.9357774522569438
 10
58.4446668836805472
 20
7.9350884331597218
 10
58.4026367187499957
 20
7.9592041015624995
 10
58.3602620442708258
 20
7.9836642795138886
 10
58.3347683376736086
 20
8.0291395399305543
 10
58.3361463758680472
 20
8.0780598958333325
 10
58.3382134331597157
 20
8.1087212456597211
 10
58.3475151909722172
 20
8.1386935763888886
 10
58.36370713975694
 20
8.1648763020833321
 10
58.3785210503472172
 20
8.1917480468749986
 10
58.3991916232638815
 20
8.2148301866319429
 10
58.4250298394097172
 20
8.2320556640625
 10
58.4663709852430529
 20
8.2578938802083321
 10
58.51873643663194
 20
8.258582899305555
 10
58.5611111111111029
 20
8.2341227213541668
 10
58.6034857855902729
 20
8.2096625434027768
 10
58.6286349826388857
 20
8.1641872829861111
 10
58.6276014539930515
 20
8.1152669270833329
 10
58.6255343967013829
 20
8.0846055772569443
 10
58.61588812934027
 20
8.0546332465277768
 10
58.5996961805555472
 20
8.0284505208333332
 10
58.58488226996527
 20
8.0015787760416668
 10
58.5642116970486057
 20
7.9784966362847216
 10
58.53837348090277
 20
7.9612711588541663
 97
        0
 92
       16
 93
        1
 72
     4
 94
        3
 73
     0
 74
     0
 95
       41
 96
       37
 40
0.0
 40
0.0
 40
0.0
 40
0.0
 40
1.0
 40
1.0
 40
1.0
 40
2.0
 40
2.0
 40
2.0
 40
3.0
 40
3.0
 40
3.0
 40
4.0
 40
4.0
 40
4.0
 40
5.0
 40
5.0
 40
5.0
 40
6.0
 40
6.0
 40
6.0
 40
7.0
 40
7.0
 40
7.0
 40
8.0
 40
8.0
 40
8.0
 40
9.0
 40
9.0
 40
9.0
 40
10.0
 40
10.0
 40
10.0
 40
11.0
 40
11.0
 40
11.0
 40
12.0
 40
12.0
 40
12.0
 40
12.0
 10
57.9613199869791629
 20
8.1669433593749989
 10
57.9657986111111043
 20
8.1021755642361111
 10
58.0067952473958286
 20
8.0456759982638886
 10
58.06673990885416
 20
8.0205268012152775
 10
58.1266845703124915
 20
7.995722113715277
 10
58.19558648003472
 20
8.0067464192708329
 10
58.2448513454861043
 20
8.0487765842013879
 10
58.21935763888888
 20
7.9660942925347218
 10
58.2538085937499943
 20
7.8761773003472211
 10
58.3285671657986029
 20
7.8320800781249993
 10
58.4236518012152715
 20
7.7766140407986102
 10
58.5438856336805529
 20
7.7903944227430548
 10
58.6241563585069372
 20
7.8654975043402775
 10
58.6872016059027715
 20
7.9240641276041659
 10
58.7316433376736029
 20
8.0002007378472211
 10
58.75128038194444
 20
8.0839165581597214
 10
58.7778076171874915
 20
8.1982937282986104
 10
58.7185519748263829
 20
8.3154269748263889
 10
58.6107204861111057
 20
8.3615912543402775
 10
58.5394070095486043
 20
8.3922526041666661
 10
58.45672471788194
 20
8.3746826171874993
 10
58.4040147569444414
 20
8.3181830512152768
 10
58.4226182725694372
 20
8.3970757378472207
 10
58.3802435980902743
 20
8.4780354817708332
 10
58.3044514973958314
 20
8.5073187934027779
 10
58.2582872178819358
 20
8.5252332899305543
 10
58.2069552951388829
 20
8.5248887803819429
 10
58.1611355251736057
 20
8.5055962456597207
 10
58.1139377170138829
 20
8.4845811631944432
 10
58.0736300998263815
 20
8.4515082465277764
 10
58.0440022786458272
 20
8.4094780815972214
 10
58.01609700520833
 20
8.3698594835069429
 10
57.9933593749999972
 20
8.3271402994791668
 10
57.97613389756944
 20
8.2823540581597221
 10
57.9637315538194358
 20
8.2451470269097218
 10
57.9585639105902715
 20
8.2058729383680546
 10
57.9613199869791629
 20
8.1669433593749989
 97
        0
 75
     2
 76
     1
 98
        1
 10
0.0
 20
0.0
  0
HATCH
  5
7B
100
AcDbEntity
  8
DR-100_R-SIDE_SILK
390
0
 62
     7
100
AcDbHatch
 10
0.0
 20
0.0
 30
0.0
210
0.0
220
0.0
230
1.0
  2
SOLID
 70
     1
 71
     0
 91
        3
 92
        1
 93
        1
 72
     4
 94
        3
 73
     0
 74
     0
 95
       23
 96
       19
 40
0.0
 40
0.0
 40
0.0
 40
0.0
 40
1.0
 40
1.0
 40
1.0
 40
2.0
 40
2.0
 40
2.0
 40
3.0
 40
3.0
 40
3.0
 40
4.0
 40
4.0
 40
4.0
 40
5.0
 40
5.0
 40
5.0
 40
6.0
 40
6.0
 40
6.0
 40
6.0
 10
59.6773220486111029
 20
7.4868815104166657
 10
59.7069498697916643
 20
7.5061740451388879
 10
59.7448459201388857
 20
7.5078965928819441
 10
59.7761962890624972
 20
7.4913601345486107
 10
59.8075466579861086
 20
7.4748236762152773
 10
59.8271837022569386
 20
7.4424397786458325
 10
59.8278727213541615
 20
7.4069552951388884
 10
59.8285617404513843
 20
7.3483886718749991
 10
59.7958333333333272
 20
7.2943006727430548
 10
59.74346788194444
 20
7.2677734374999989
 10
59.7131510416666629
 20
7.251581488715277
 10
59.6762885199652757
 20
7.2529595269097218
 10
59.6473497178819372
 20
7.2712185329861105
 10
59.6180664062499943
 20
7.2898220486111107
 10
59.6011854383680486
 20
7.3225504557291661
 10
59.6025634765624943
 20
7.3570014105902768
 10
59.6046305338541629
 20
7.4100558810763886
 10
59.6328803168402715
 20
7.4586317274305545
 10
59.6773220486111029
 20
7.4868815104166657
 97
        0
 92
        1
 93
        1
 72
     4
 94
        3
 73
     0
 74
     0
 95
       29
 96
       25
 40
0.0
 40
0.0
 40
0.0
 40
0.0
 40
1.0
 40
1.0
 40
1.0
 40
2.0
 40
2.0
 40
2.0
 40
3.0
 40
3.0
 40
3.0
 40
4.0
 40
4.0
 40
4.0
 40
5.0
 40
5.0
 40
5.0
 40
6.0
 40
6.0
 40
6.0
 40
7.0
 40
7.0
 40
7.0
 40
8.0
 40
8.0
 40
8.0
 40
8.0
 10
60.0542154947916629
 20
7.0865614149305545
 10
60.0128743489583272
 20
7.0607231987847214
 10
59.96050889756944
 20
7.0600341796874995
 10
59.91813422309027
 20
7.0844943576388886
 10
59.8761040581597186
 20
7.1089545355902768
 10
59.8506103515624943
 20
7.1544297960069434
 10
59.85198838975694
 20
7.2033501519097216
 10
59.8540554470486086
 20
7.2340115017361102
 10
59.8633572048611029
 20
7.2636393229166663
 10
59.8798936631944372
 20
7.2898220486111107
 10
59.8943630642361029
 20
7.3170383029513886
 10
59.9150336371527743
 20
7.3401204427083329
 10
59.9408718532986029
 20
7.3573459201388882
 10
59.98255750868055
 20
7.3828396267361107
 10
60.0345784505208258
 20
7.3835286458333327
 10
60.0769531249999957
 20
7.359412977430555
 10
60.1193277994791586
 20
7.3349527994791659
 10
60.1448215060763829
 20
7.2891330295138879
 10
60.1430989583333258
 20
7.240557183159722
 10
60.1410319010416643
 20
7.209551323784722
 10
60.1317301432291629
 20
7.1799235026041659
 10
60.11553819444444
 20
7.1537407769097214
 10
60.1007242838541629
 20
7.1265245225694436
 10
60.0800537109374915
 20
7.1034423828124993
 10
60.0542154947916629
 20
7.0865614149305545
 97
        0
 92
       16
 93
        1
 72
     4
 94
        3
 73
     0
 74
     0
 95
       41
 96
       37
 40
0.0
 40
0.0
 40
0.0
 40
0.0
 40
1.0
 40
1.0
 40
1.0
 40
2.0
 40
2.0
 40
2.0
 40
3.0
 40
3.0
 40
3.0
 40
4.0
 40
4.0
 40
4.0
 40
5.0
 40
5.0
 40
5.0
 40
6.0
 40
6.0
 40
6.0
 40
7.0
 40
7.0
 40
7.0
 40
8.0
 40
8.0
 40
8.0
 40
9.0
 40
9.0
 40
9.0
 40
10.0
 40
10.0
 40
10.0
 40
11.0
 40
11.0
 40
11.0
 40
12.0
 40
12.0
 40
12.0
 40
12.0
 10
59.4771620008680486
 20
7.292233615451388
 10
59.4816406249999972
 20
7.2274658203124993
 10
59.5226372612847143
 20
7.1706217447916663
 10
59.5825819227430529
 20
7.1458170572916657
 10
59.6425265842013843
 20
7.1210123697916661
 10
59.7114284939236057
 20
7.1316921657986105
 10
59.7606933593749972
 20
7.174066840277777
 10
59.7351996527777729
 20
7.0910400390624995
 10
59.76965060763888
 20
7.0014675564236102
 10
59.8444091796874957
 20
6.957025824652777
 10
59.9394938151041643
 20
6.9019042968749993
 10
60.0593831380208272
 20
6.9156846788194439
 10
60.13999837239583
 20
6.9904432508680552
 10
60.2030436197916643
 20
7.049354383680555
 10
60.2474853515624957
 20
7.1251464843749996
 10
60.2671223958333258
 20
7.2092068142361105
 10
60.2936496310763843
 20
7.323239474826388
 10
60.2343939887152757
 20
7.4403727213541657
 10
60.1265624999999915
 20
7.4865370008680552
 10
60.0552490234374972
 20
7.5171983506944438
 10
59.9725667317708258
 20
7.4999728732638884
 10
59.9195122612847157
 20
7.4431287977430545
 10
59.9388047960069414
 20
7.5223659939236107
 10
59.89608561197916
 20
7.6033257378472214
 10
59.8202935112847172
 20
7.6322645399305546
 10
59.7741292317708286
 20
7.6505235460069434
 10
59.7227973090277757
 20
7.6498345269097214
 10
59.6769775390624915
 20
7.6305419921874993
 10
59.63012424045138
 20
7.6098714192708323
 10
59.5894721137152743
 20
7.5767985026041655
 10
59.55984429253472
 20
7.5347683376736105
 10
59.5319390190972157
 20
7.4951497395833329
 10
59.5092013888888829
 20
7.452430555555555
 10
59.4916314019097143
 20
7.4072998046874989
 10
59.4795735677083286
 20
7.3700927734374995
 10
59.4747504340277757
 20
7.3311631944444438
 10
59.4771620008680486
 20
7.292233615451388
 97
        0
 75
     2
 76
     1
 98
        1
 10
0.0
 20
0.0
  0
HATCH
  5
7A
100
AcDbEntity
  8
DR-100_R-SIDE_SILK
390
0
 62
     7
100
AcDbHatch
 10
0.0
 20
0.0
 30
0.0
210
0.0
220
0.0
230
1.0
  2
SOLID
 70
     1
 71
     0
 91
        2
 92
        1
 93
        1
 72
     4
 94
        3
 73
     0
 74
     0
 95
       20
 96
       16
 40
0.0
 40
0.0
 40
0.0
 40
0.0
 40
1.0
 40
1.0
 40
1.0
 40
2.0
 40
2.0
 40
2.0
 40
3.0
 40
3.0
 40
3.0
 40
4.0
 40
4.0
 40
4.0
 40
5.0
 40
5.0
 40
5.0
 40
5.0
 10
60.7146402994791643
 20
10.3566460503472211
 10
60.68432345920138
 20
10.2842990451388872
 10
60.6019856770833272
 20
10.2498480902777764
 10
60.52929416232638
 20
10.2791314019097211
 10
60.4569471571180515
 20
10.3084147135416657
 10
60.4214626736111029
 20
10.3904079861111107
 10
60.4497124565972186
 20
10.4630995008680543
 10
60.4676269531249915
 20
10.5120198567708325
 10
60.5110351562499957
 20
10.5471598307291661
 10
60.5623670789930486
 20
10.5550835503472218
 10
60.6136990017361086
 20
10.5626627604166661
 10
60.6653754340277729
 20
10.5419921874999982
 10
60.6970703124999957
 20
10.5006510416666661
 10
60.7287651909722186
 20
10.4593098958333321
 10
60.73565538194444
 20
10.4038438585069439
 10
60.7146402994791643
 20
10.3566460503472211
 97
        0
 92
       16
 93
        1
 72
     4
 94
        3
 73
     0
 74
     0
 95
       56
 96
       52
 40
0.0
 40
0.0
 40
0.0
 40
0.0
 40
1.0
 40
1.0
 40
1.0
 40
2.0
 40
2.0
 40
2.0
 40
3.0
 40
3.0
 40
3.0
 40
4.0
 40
4.0
 40
4.0
 40
5.0
 40
5.0
 40
5.0
 40
6.0
 40
6.0
 40
6.0
 40
7.0
 40
7.0
 40
7.0
 40
8.0
 40
8.0
 40
8.0
 40
9.0
 40
9.0
 40
9.0
 40
10.0
 40
10.0
 40
10.0
 40
11.0
 40
11.0
 40
11.0
 40
12.0
 40
12.0
 40
12.0
 40
13.0
 40
13.0
 40
13.0
 40
14.0
 40
14.0
 40
14.0
 40
15.0
 40
15.0
 40
15.0
 40
16.0
 40
16.0
 40
16.0
 40
17.0
 40
17.0
 40
17.0
 40
17.0
 10
60.8434868706597172
 20
10.4534532335069432
 10
60.8324625651041586
 20
10.4951388888888886
 10
60.8069688585069414
 20
10.5309678819444432
 10
60.7714843749999929
 20
10.5550835503472218
 10
60.8138590494791629
 20
10.5592176649305554
 10
60.8565782335069372
 20
10.5540500217013875
 10
60.8961968315972157
 20
10.5388916015624989
 10
60.9041205512152715
 20
10.5357910156249996
 10
60.9120442708333272
 20
10.5323459201388872
 10
60.9199679904513829
 20
10.528556315104165
 10
60.9871473524305472
 20
10.4906602647569436
 10
61.0112630208333258
 20
10.4062554253472221
 10
60.9740559895833272
 20
10.3383870442708332
 10
60.9688883463541629
 20
10.3287407769097221
 10
60.9619981553819414
 20
10.3201280381944436
 10
60.9537299262152743
 20
10.3132378472222221
 10
60.9392605251736086
 20
10.3011800130208329
 10
60.9220350477430515
 20
10.2932562934027771
 10
60.9041205512152715
 20
10.2901557074652761
 10
60.9041205512152715
 20
10.2901557074652761
 10
60.9041205512152715
 20
10.1478732638888882
 10
60.9041205512152715
 20
10.1478732638888882
 10
60.9737114800347157
 20
10.1509738498263875
 10
61.0364122178819386
 20
10.1905924479166661
 10
61.0691406249999957
 20
10.2522596571180546
 10
61.1049696180555486
 20
10.320472547743055
 10
61.11840549045138
 20
10.3983317057291664
 10
61.1073811848958286
 20
10.4748128255208321
 10
61.1008355034722186
 20
10.5137424045138879
 10
61.0860215928819414
 20
10.5506049262152768
 10
61.0639729817708243
 20
10.5833333333333321
 10
61.0594943576388829
 20
10.5895345052083325
 10
61.0543267144097186
 20
10.5957356770833329
 10
61.0491590711805472
 20
10.6015923394097218
 10
61.0071289062499957
 20
10.6425889756944443
 10
60.9561414930555472
 20
10.6729058159722214
 10
60.9003309461805529
 20
10.6901312934027768
 10
60.7814751519097172
 20
10.7252712673611104
 10
60.65572916666666
 20
10.730094401041665
 10
60.5348063151041629
 20
10.70356716579861
 10
60.44764539930555
 20
10.6825520833333325
 10
60.3756429036458258
 20
10.6222629123263879
 10
60.3398139105902729
 20
10.5402696397569429
 10
60.3053629557291586
 20
10.4572428385416654
 10
60.3050184461805472
 20
10.3635362413194443
 10
60.33912489149305
 20
10.2798204210069439
 10
60.3925238715277715
 20
10.1485622829861111
 10
60.5392849392361043
 20
10.0820719401041661
 10
60.67364366319444
 20
10.1282362196180546
 10
60.8076578776041643
 20
10.1744004991319432
 10
60.8820719401041615
 20
10.3173719618055539
 10
60.8434868706597172
 20
10.4534532335069432
 97
        0
 75
     2
 76
     1
 98
        1
 10
0.0
 20
0.0
  0
HATCH
  5
79
100
AcDbEntity
  8
DR-100_R-SIDE_SILK
390
0
 62
     7
100
AcDbHatch
 10
0.0
 20
0.0
 30
0.0
210
0.0
220
0.0
230
1.0
  2
SOLID
 70
     1
 71
     0
 91
        3
 92
        1
 93
        1
 72
     4
 94
        3
 73
     0
 74
     0
 95
       35
 96
       31
 40
0.0
 40
0.0
 40
0.0
 40
0.0
 40
1.0
 40
1.0
 40
1.0
 40
2.0
 40
2.0
 40
2.0
 40
3.0
 40
3.0
 40
3.0
 40
4.0
 40
4.0
 40
4.0
 40
5.0
 40
5.0
 40
5.0
 40
6.0
 40
6.0
 40
6.0
 40
7.0
 40
7.0
 40
7.0
 40
8.0
 40
8.0
 40
8.0
 40
9.0
 40
9.0
 40
9.0
 40
10.0
 40
10.0
 40
10.0
 40
10.0
 10
58.3285671657986029
 20
13.0958414713541647
 10
58.3819661458333314
 20
13.0992865668402771
 10
58.43226453993055
 20
13.0720703124999993
 10
58.45913628472222
 20
13.0262505425347204
 10
58.4860080295138829
 20
12.9800862630208318
 10
58.4839409722222143
 20
12.9225531684027768
 10
58.45431315104166
 20
12.8781114366319436
 10
58.4391547309027715
 20
12.8564073350694432
 10
58.4212402343749915
 20
12.8364257812499982
 10
58.4016031901041615
 20
12.8185112847222218
 10
58.3340793185763857
 20
12.7633897569444432
 10
58.2569091796874972
 20
12.7213595920138882
 10
58.1742268880208258
 20
12.6944878472222218
 10
58.1304741753472172
 20
12.6807074652777771
 10
58.0832763671874943
 20
12.6858751085069432
 10
58.0433132595486043
 20
12.7082682291666647
 10
58.0240207248263857
 20
12.7213595920138882
 10
58.0078287760416629
 20
12.7385850694444436
 10
57.9964599609374929
 20
12.7592556423611097
 10
57.9847466362847186
 20
12.7788926866319432
 10
57.9775119357638857
 20
12.8016303168402761
 10
57.97613389756944
 20
12.8250569661458318
 10
57.9768229166666629
 20
12.8708767361111107
 10
57.99577094184027
 20
12.9142849392361097
 10
58.02918836805555
 20
12.9452907986111097
 10
58.0939561631944414
 20
13.0035129123263875
 10
58.1690592447916615
 20
13.0493326822916647
 10
58.2507080078124915
 20
13.079994032118055
 10
58.2758572048611043
 20
13.0882622612847204
 10
58.3020399305555515
 20
13.0934299045138882
 10
58.3285671657986029
 20
13.0958414713541647
 97
        0
 92
       16
 93
        1
 72
     4
 94
        3
 73
     0
 74
     0
 95
       29
 96
       25
 40
0.0
 40
0.0
 40
0.0
 40
0.0
 40
1.0
 40
1.0
 40
1.0
 40
2.0
 40
2.0
 40
2.0
 40
3.0
 40
3.0
 40
3.0
 40
4.0
 40
4.0
 40
4.0
 40
5.0
 40
5.0
 40
5.0
 40
6.0
 40
6.0
 40
6.0
 40
7.0
 40
7.0
 40
7.0
 40
8.0
 40
8.0
 40
8.0
 40
8.0
 10
58.1852511935763843
 20
13.2205539279513875
 10
58.0860324435763857
 20
13.1871365017361093
 10
57.9961154513888815
 20
13.1306369357638886
 10
57.92307942708333
 20
13.055533854166665
 10
57.8293728298611072
 20
12.9576931423611104
 10
57.81214735243055
 20
12.8092095269097204
 10
57.8813937717013829
 20
12.6927652994791647
 10
57.9478841145833314
 20
12.5745985243055536
 10
58.08465440538194
 20
12.5149983723958318
 10
58.2166015624999957
 20
12.5473822699652775
 10
58.3178873697916629
 20
12.5728759765624982
 10
58.4119384765624972
 20
12.6221408420138879
 10
58.4908311631944358
 20
12.6913872612847207
 10
58.5273491753472186
 20
12.7254937065972218
 10
58.5576660156249957
 20
12.76545681423611
 10
58.58074815538194
 20
12.8098985460069432
 10
58.6241563585069372
 20
12.8994710286458325
 10
58.6203667534722186
 20
13.0045464409722218
 10
58.5711018880208272
 20
13.0906738281249986
 10
58.52114800347222
 20
13.1768012152777771
 10
58.4319200303819386
 20
13.2322672526041654
 10
58.33270128038194
 20
13.2395019531249982
 10
58.2827473958333258
 20
13.2419135199652764
 10
58.2327935112847186
 20
13.2357123480902761
 10
58.1852511935763843
 20
13.2205539279513875
 97
        0
 92
       16
 93
        1
 72
     4
 94
        3
 73
     0
 74
     0
 95
       29
 96
       25
 40
0.0
 40
0.0
 40
0.0
 40
0.0
 40
1.0
 40
1.0
 40
1.0
 40
2.0
 40
2.0
 40
2.0
 40
3.0
 40
3.0
 40
3.0
 40
4.0
 40
4.0
 40
4.0
 40
5.0
 40
5.0
 40
5.0
 40
6.0
 40
6.0
 40
6.0
 40
7.0
 40
7.0
 40
7.0
 40
8.0
 40
8.0
 40
8.0
 40
8.0
 10
58.3750759548611029
 20
12.1126112196180546
 10
58.3929904513888829
 20
12.0912516276041657
 10
58.4098714192708286
 20
12.0688585069444425
 10
58.42571885850694
 20
12.0461208767361097
 10
58.42571885850694
 20
12.0461208767361097
 10
58.5152913411458258
 20
12.0977973090277775
 10
58.5152913411458258
 20
12.0977973090277775
 10
58.5152913411458258
 20
12.0977973090277775
 10
58.4195176866319414
 20
12.2638509114583325
 10
58.4195176866319414
 20
12.2638509114583325
 10
58.4195176866319414
 20
12.2638509114583325
 10
58.8759928385416629
 20
12.5277452256944439
 10
58.8759928385416629
 20
12.5277452256944439
 10
58.8759928385416629
 20
12.5277452256944439
 10
58.79778917100694
 20
12.6634819878472218
 10
58.79778917100694
 20
12.6634819878472218
 10
58.79778917100694
 20
12.6634819878472218
 10
58.13116319444444
 20
12.2786648220486097
 10
58.13116319444444
 20
12.2786648220486097
 10
58.13116319444444
 20
12.2786648220486097
 10
58.1966200086805472
 20
12.165321180555555
 10
58.1966200086805472
 20
12.165321180555555
 10
58.2613878038194386
 20
12.1863362630208325
 10
58.3323567708333286
 20
12.165321180555555
 10
58.3750759548611029
 20
12.1126112196180546
 97
        0
 75
     2
 76
     1
 98
        1
 10
0.0
 20
0.0
  0
HATCH
  5
78
100
AcDbEntity
  8
DR-100_R-SIDE_SILK
390
0
 62
     7
100
AcDbHatch
 10
0.0
 20
0.0
 30
0.0
210
0.0
220
0.0
230
1.0
  2
SOLID
 70
     1
 71
     0
 91
        3
 92
        1
 93
        1
 72
     4
 94
        3
 73
     0
 74
     0
 95
       35
 96
       31
 40
0.0
 40
0.0
 40
0.0
 40
0.0
 40
1.0
 40
1.0
 40
1.0
 40
2.0
 40
2.0
 40
2.0
 40
3.0
 40
3.0
 40
3.0
 40
4.0
 40
4.0
 40
4.0
 40
5.0
 40
5.0
 40
5.0
 40
6.0
 40
6.0
 40
6.0
 40
7.0
 40
7.0
 40
7.0
 40
8.0
 40
8.0
 40
8.0
 40
9.0
 40
9.0
 40
9.0
 40
10.0
 40
10.0
 40
10.0
 40
10.0
 10
59.8440646701388843
 20
13.9715847439236107
 10
59.8974636501736057
 20
13.97468532986111
 10
59.9481065538194358
 20
13.9478135850694436
 10
59.9749782986111057
 20
13.901649305555555
 10
60.0011610243055529
 20
13.8554850260416647
 10
59.9994384765624957
 20
13.7979519314236097
 10
59.9698106553819414
 20
13.7538547092013879
 10
59.9546522352430529
 20
13.7318060980902761
 10
59.9367377387152729
 20
13.7118245442708329
 10
59.9174452039930472
 20
13.6942545572916661
 10
59.8499213324652715
 20
13.6387885199652761
 10
59.7724066840277715
 20
13.5967583550347211
 10
59.6897243923611072
 20
13.5698866102430546
 10
59.6459716796874915
 20
13.5564507378472214
 10
59.5987738715277757
 20
13.5612738715277761
 10
59.5588107638888857
 20
13.5840115017361107
 10
59.53951822916666
 20
13.5967583550347211
 10
59.5233262803819372
 20
13.6139838324652764
 10
59.5123019748263857
 20
13.6346544053819425
 10
59.5002441406249929
 20
13.6546359592013875
 10
59.49300944010416
 20
13.6773735894097204
 10
59.4916314019097143
 20
13.7004557291666647
 10
59.4919759114583258
 20
13.7459309895833321
 10
59.5116129557291629
 20
13.7896837022569425
 10
59.5446858723958314
 20
13.8206895616319425
 10
59.6094536675347157
 20
13.8789116753472204
 10
59.6845567491319358
 20
13.9247314453124993
 10
59.7662055121527729
 20
13.9553927951388879
 10
59.7916992187499972
 20
13.963661024305555
 10
59.8178819444444372
 20
13.9688286675347211
 10
59.8440646701388843
 20
13.9715847439236107
 97
        0
 92
       16
 93
        1
 72
     4
 94
        3
 73
     0
 74
     0
 95
       29
 96
       25
 40
0.0
 40
0.0
 40
0.0
 40
0.0
 40
1.0
 40
1.0
 40
1.0
 40
2.0
 40
2.0
 40
2.0
 40
3.0
 40
3.0
 40
3.0
 40
4.0
 40
4.0
 40
4.0
 40
5.0
 40
5.0
 40
5.0
 40
6.0
 40
6.0
 40
6.0
 40
7.0
 40
7.0
 40
7.0
 40
8.0
 40
8.0
 40
8.0
 40
8.0
 10
59.7004041883680472
 20
14.0962972005208318
 10
59.60152994791666
 20
14.0625352647569439
 10
59.5116129557291629
 20
14.0060356987847214
 10
59.4385769314236043
 20
13.9309326171874979
 10
59.3448703342013815
 20
13.8330919053819432
 10
59.3279893663194358
 20
13.684608289930555
 10
59.3968912760416643
 20
13.5681640624999993
 10
59.4633816189236057
 20
13.4499972873263882
 10
59.6004964192708258
 20
13.3903971354166647
 10
59.73209906684027
 20
13.4227810329861104
 10
59.8337293836805486
 20
13.4482747395833329
 10
59.9274359809027715
 20
13.4978841145833321
 10
60.0063286675347172
 20
13.5667860243055536
 10
60.0428466796874929
 20
13.6008924696180546
 10
60.07316351996527
 20
13.6408555772569429
 10
60.0962456597222143
 20
13.6852973090277761
 10
60.1396538628472186
 20
13.7748697916666654
 10
60.1358642578124929
 20
13.8799452039930546
 10
60.0865993923611086
 20
13.9660725911458314
 10
60.0366455078124943
 20
14.05219997829861
 10
59.94741753472222
 20
14.1076660156249982
 10
59.8481987847222143
 20
14.1149007161458329
 10
59.7982449001736072
 20
14.1173122829861093
 10
59.7482910156249929
 20
14.1107666015624993
 10
59.7004041883680472
 20
14.0962972005208318
 97
        0
 92
       16
 93
        1
 72
     4
 94
        3
 73
     0
 74
     0
 95
       29
 96
       25
 40
0.0
 40
0.0
 40
0.0
 40
0.0
 40
1.0
 40
1.0
 40
1.0
 40
2.0
 40
2.0
 40
2.0
 40
3.0
 40
3.0
 40
3.0
 40
4.0
 40
4.0
 40
4.0
 40
5.0
 40
5.0
 40
5.0
 40
6.0
 40
6.0
 40
6.0
 40
7.0
 40
7.0
 40
7.0
 40
8.0
 40
8.0
 40
8.0
 40
8.0
 10
59.8905734592013843
 20
12.9880099826388875
 10
59.9084879557291643
 20
12.9666503906249986
 10
59.9253689236111029
 20
12.9442572699652771
 10
59.9412163628472143
 20
12.9215196397569425
 10
59.9412163628472143
 20
12.9215196397569425
 10
60.0311333550347186
 20
12.9731960720486104
 10
60.0311333550347186
 20
12.9731960720486104
 10
60.0311333550347186
 20
12.9731960720486104
 10
59.9350151909722157
 20
13.1395941840277768
 10
59.9350151909722157
 20
13.1395941840277768
 10
59.9350151909722157
 20
13.1395941840277768
 10
60.3914903428819372
 20
13.4031439887152768
 10
60.3914903428819372
 20
13.4031439887152768
 10
60.3914903428819372
 20
13.4031439887152768
 10
60.3132866753472143
 20
13.5388807508680546
 10
60.3132866753472143
 20
13.5388807508680546
 10
60.3132866753472143
 20
13.5388807508680546
 10
59.6466606987847143
 20
13.1540635850694425
 10
59.6466606987847143
 20
13.1540635850694425
 10
59.6466606987847143
 20
13.1540635850694425
 10
59.71246202256944
 20
13.0407199435763879
 10
59.71246202256944
 20
13.0407199435763879
 10
59.77688530815972
 20
13.0617350260416654
 10
59.8478542751736029
 20
13.0407199435763879
 10
59.8905734592013843
 20
12.9880099826388875
 97
        0
 75
     2
 76
     1
 98
        1
 10
0.0
 20
0.0
  0
INSERT
  5
74
100
AcDbEntity
  8
DR-100_R-SIDE_SILK
390
0
 62
     7
100
AcDbBlockReference
  2
AI9-BLK12
 10
56.587933
 20
6.54327
 30
0.0
  0
HATCH
  5
72
100
AcDbEntity
  8
DR-100_R-SIDE_SILK
390
0
 62
     7
100
AcDbHatch
 10
0.0
 20
0.0
 30
0.0
210
0.0
220
0.0
230
1.0
  2
SOLID
 70
     1
 71
     0
 91
        2
 92
        1
 93
        1
 72
     4
 94
        3
 73
     0
 74
     0
 95
       17
 96
       13
 40
0.0
 40
0.0
 40
0.0
 40
0.0
 40
1.0
 40
1.0
 40
1.0
 40
2.0
 40
2.0
 40
2.0
 40
3.0
 40
3.0
 40
3.0
 40
4.0
 40
4.0
 40
4.0
 40
4.0
 10
54.46110297309027
 20
5.6499565972222214
 10
54.3839328342013815
 20
5.6499565972222214
 10
54.3208875868055472
 20
5.7126573350694443
 10
54.3208875868055472
 20
5.7901719835069443
 10
54.3208875868055472
 20
5.8676866319444443
 10
54.3839328342013815
 20
5.9303873697916663
 10
54.46110297309027
 20
5.9303873697916663
 10
54.53861762152777
 20
5.9303873697916663
 10
54.6013183593749929
 20
5.8676866319444443
 10
54.6013183593749929
 20
5.7901719835069443
 10
54.6013183593749929
 20
5.7126573350694443
 10
54.53861762152777
 20
5.6499565972222214
 10
54.46110297309027
 20
5.6499565972222214
 97
        0
 92
       16
 93
        1
 72
     4
 94
        3
 73
     0
 74
     0
 95
       50
 96
       46
 40
0.0
 40
0.0
 40
0.0
 40
0.0
 40
1.0
 40
1.0
 40
1.0
 40
2.0
 40
2.0
 40
2.0
 40
3.0
 40
3.0
 40
3.0
 40
4.0
 40
4.0
 40
4.0
 40
5.0
 40
5.0
 40
5.0
 40
6.0
 40
6.0
 40
6.0
 40
7.0
 40
7.0
 40
7.0
 40
8.0
 40
8.0
 40
8.0
 40
9.0
 40
9.0
 40
9.0
 40
10.0
 40
10.0
 40
10.0
 40
11.0
 40
11.0
 40
11.0
 40
12.0
 40
12.0
 40
12.0
 40
13.0
 40
13.0
 40
13.0
 40
14.0
 40
14.0
 40
14.0
 40
15.0
 40
15.0
 40
15.0
 40
15.0
 10
54.4738498263888857
 20
6.0582004123263884
 10
54.4152832031249929
 20
6.0568223741319436
 10
54.3594726562499986
 20
6.0333957248263888
 10
54.31744249131944
 20
5.9927435980902768
 10
54.31503092447916
 20
6.0320176866319439
 10
54.3222656249999929
 20
6.0712917751736102
 10
54.3388020833333272
 20
6.1071207682291657
 10
54.3560275607638843
 20
6.1446723090277775
 10
54.3880669487847186
 20
6.1739556206597213
 10
54.4269965277777743
 20
6.1877360026041659
 10
54.4662706163194414
 20
6.201860894097222
 10
54.5093343098958272
 20
6.1991048177083323
 10
54.5465413411458258
 20
6.180501302083333
 10
54.5761691623263872
 20
6.1660319010416664
 10
54.5958062065972172
 20
6.1360595703124998
 10
54.5975287543402743
 20
6.102986653645833
 10
54.5975287543402743
 20
6.102986653645833
 10
54.7380886501736086
 20
6.102986653645833
 10
54.7380886501736086
 20
6.102986653645833
 10
54.7353325737847172
 20
6.1584526909722213
 10
54.70914984809027
 20
6.2101291232638882
 10
54.6664306640624957
 20
6.2459581163194438
 10
54.6013183593749929
 20
6.2955674913194439
 10
54.5203586154513857
 20
6.3193386501736102
 10
54.4387098524305486
 20
6.3117594401041659
 10
54.3625732421874943
 20
6.3107259114583325
 10
54.2909152560763815
 20
6.273518880208333
 10
54.24647352430555
 20
6.2118516710069436
 10
54.2151231553819386
 20
6.1687879774305552
 10
54.1913519965277715
 20
6.1202121310763884
 10
54.1761935763888829
 20
6.0688802083333329
 10
54.1486328124999972
 20
5.963460286458333
 10
54.1475992838541629
 20
5.8528727213541663
 10
54.1734374999999986
 20
5.7467637803819436
 10
54.1972086588541586
 20
5.6551242404513884
 10
54.2630099826388843
 20
5.5796766493055552
 10
54.35085991753472
 20
5.5435031467013882
 10
54.4383653428819372
 20
5.5069851345486107
 10
54.5382731119791586
 20
5.513875325520833
 10
54.6202663845486072
 20
5.5614176432291664
 10
54.7253417968749929
 20
5.6241183810763884
 10
54.7746066623263843
 20
5.7495198567708332
 10
54.74015570746527
 20
5.8666531032986109
 10
54.7057047526041629
 20
5.9841308593749991
 10
54.5958062065972172
 20
6.0630235460069439
 10
54.4738498263888857
 20
6.0582004123263884
 97
        0
 75
     2
 76
     1
 98
        1
 10
0.0
 20
0.0
  0
INSERT
  5
6E
100
AcDbEntity
  8
DR-100_R-SIDE_SILK
390
0
 62
     7
100
AcDbBlockReference
  2
AI9-BLK11
 10
57.463159
 20
5.027772
 30
0.0
  0
INSERT
  5
69
100
AcDbEntity
  8
DR-100_R-SIDE_SILK
390
0
 62
     7
100
AcDbBlockReference
  2
AI9-BLK10
 10
52.223341
 20
6.537069
 30
0.0
  0
INSERT
  5
64
100
AcDbEntity
  8
DR-100_R-SIDE_SILK
390
0
 62
     7
100
AcDbBlockReference
  2
AI9-BLK9
 10
51.348459
 20
5.021054
 30
0.0
  0
HATCH
  5
62
100
AcDbEntity
  8
DR-100_R-SIDE_SILK
390
0
 62
     7
100
AcDbHatch
 10
0.0
 20
0.0
 30
0.0
210
0.0
220
0.0
230
1.0
  2
SOLID
 70
     1
 71
     0
 91
        2
 92
        1
 93
        1
 72
     4
 94
        3
 73
     0
 74
     0
 95
       17
 96
       13
 40
0.0
 40
0.0
 40
0.0
 40
0.0
 40
1.0
 40
1.0
 40
1.0
 40
2.0
 40
2.0
 40
2.0
 40
3.0
 40
3.0
 40
3.0
 40
4.0
 40
4.0
 40
4.0
 40
4.0
 10
54.4614474826388815
 20
3.8995035807291663
 10
54.3842773437499929
 20
3.8995035807291663
 10
54.3212320963541586
 20
3.9625488281249996
 10
54.3212320963541586
 20
4.0397189670138882
 10
54.3212320963541586
 20
4.1175781249999996
 10
54.3842773437499929
 20
4.1802788628472216
 10
54.4614474826388815
 20
4.1802788628472216
 10
54.5389621310763815
 20
4.1802788628472216
 10
54.6020073784722157
 20
4.1175781249999996
 10
54.6020073784722157
 20
4.0397189670138882
 10
54.6020073784722157
 20
3.9625488281249996
 10
54.5389621310763815
 20
3.8995035807291663
 10
54.4614474826388815
 20
3.8995035807291663
 97
        0
 92
       16
 93
        1
 72
     4
 94
        3
 73
     0
 74
     0
 95
       50
 96
       46
 40
0.0
 40
0.0
 40
0.0
 40
0.0
 40
1.0
 40
1.0
 40
1.0
 40
2.0
 40
2.0
 40
2.0
 40
3.0
 40
3.0
 40
3.0
 40
4.0
 40
4.0
 40
4.0
 40
5.0
 40
5.0
 40
5.0
 40
6.0
 40
6.0
 40
6.0
 40
7.0
 40
7.0
 40
7.0
 40
8.0
 40
8.0
 40
8.0
 40
9.0
 40
9.0
 40
9.0
 40
10.0
 40
10.0
 40
10.0
 40
11.0
 40
11.0
 40
11.0
 40
12.0
 40
12.0
 40
12.0
 40
13.0
 40
13.0
 40
13.0
 40
14.0
 40
14.0
 40
14.0
 40
15.0
 40
15.0
 40
15.0
 40
15.0
 10
54.4741943359374972
 20
4.3080919053819438
 10
54.4156277126736043
 20
4.3063693576388884
 10
54.3598171657986029
 20
4.2829427083333327
 10
54.3177870008680515
 20
4.242635091145833
 10
54.3153754340277715
 20
4.2815646701388888
 10
54.3229546440972157
 20
4.3211832682291664
 10
54.33949110243055
 20
4.3566677517361105
 10
54.3563720703124957
 20
4.3945638020833329
 10
54.3880669487847186
 20
4.4238471137152775
 10
54.4273410373263857
 20
4.4376274956597221
 10
54.4666151258680529
 20
4.4514078776041659
 10
54.5096788194444386
 20
4.4486518012152771
 10
54.5468858506944372
 20
4.4303927951388884
 10
54.5765136718749986
 20
4.4155788845486104
 10
54.5961507161458286
 20
4.3859510633680552
 10
54.5978732638888857
 20
4.3528781467013884
 10
54.5978732638888857
 20
4.3528781467013884
 10
54.73843315972222
 20
4.3528781467013884
 10
54.73843315972222
 20
4.3528781467013884
 10
54.7356770833333286
 20
4.4083441840277775
 10
54.7094943576388815
 20
4.4600206163194445
 10
54.6667751736111072
 20
4.4955050998263886
 10
54.6020073784722157
 20
4.5454589843749993
 10
54.5207031249999972
 20
4.568885633680555
 10
54.43905436197916
 20
4.5613064236111107
 10
54.3629177517361057
 20
4.5606174045138888
 10
54.2912597656249929
 20
4.5234103732638884
 10
54.2468180338541615
 20
4.4617431640624998
 10
54.21546766493055
 20
4.4183349609375
 10
54.1916965060763829
 20
4.3701036241319438
 10
54.1765380859374943
 20
4.3187717013888882
 10
54.1489773220486086
 20
4.2133517795138884
 10
54.1479437934027743
 20
4.1027642144097216
 10
54.1737820095486029
 20
3.9966552734374998
 10
54.1978976779513815
 20
3.9046712239583328
 10
54.2633544921874957
 20
3.829568142361111
 10
54.3512044270833314
 20
3.793050130208333
 10
54.4387098524305486
 20
3.7568766276041665
 10
54.53861762152777
 20
3.7634223090277774
 10
54.6206108940972186
 20
3.8113091362847218
 10
54.7256863064236043
 20
3.8736653645833328
 10
54.7749511718749957
 20
3.9994113498263886
 10
54.7405002170138815
 20
4.1165445963541663
 10
54.7060492621527743
 20
4.2336778428819439
 10
54.5961507161458286
 20
4.3125705295138888
 10
54.4741943359374972
 20
4.3080919053819438
 97
        0
 75
     2
 76
     1
 98
        1
 10
0.0
 20
0.0
  0
HATCH
  5
61
100
AcDbEntity
  8
DR-100_R-SIDE_SILK
390
0
 62
     7
100
AcDbHatch
 10
0.0
 20
0.0
 30
0.0
210
0.0
220
0.0
230
1.0
  2
SOLID
 70
     1
 71
     0
 91
        2
 92
        1
 93
        1
 72
     4
 94
        3
 73
     0
 74
     0
 95
       14
 96
       10
 40
0.0
 40
0.0
 40
0.0
 40
0.0
 40
1.0
 40
1.0
 40
1.0
 40
2.0
 40
2.0
 40
2.0
 40
3.0
 40
3.0
 40
3.0
 40
3.0
 10
50.7435004340277729
 20
8.2227539062499986
 10
50.7435004340277729
 20
8.2227539062499986
 10
50.49476453993055
 20
8.0790934244791668
 10
50.49476453993055
 20
8.0790934244791668
 10
50.49476453993055
 20
8.0790934244791668
 10
50.3824544270833314
 20
8.2730523003472207
 10
50.3824544270833314
 20
8.2730523003472207
 10
50.3824544270833314
 20
8.2730523003472207
 10
50.7435004340277729
 20
8.2227539062499986
 10
50.7435004340277729
 20
8.2227539062499986
 97
        0
 92
       16
 93
        1
 72
     4
 94
        3
 73
     0
 74
     0
 95
       38
 96
       34
 40
0.0
 40
0.0
 40
0.0
 40
0.0
 40
1.0
 40
1.0
 40
1.0
 40
2.0
 40
2.0
 40
2.0
 40
3.0
 40
3.0
 40
3.0
 40
4.0
 40
4.0
 40
4.0
 40
5.0
 40
5.0
 40
5.0
 40
6.0
 40
6.0
 40
6.0
 40
7.0
 40
7.0
 40
7.0
 40
8.0
 40
8.0
 40
8.0
 40
9.0
 40
9.0
 40
9.0
 40
10.0
 40
10.0
 40
10.0
 40
11.0
 40
11.0
 40
11.0
 40
11.0
 10
50.9064534505208286
 20
8.3219726562499989
 10
50.9064534505208286
 20
8.3219726562499989
 10
50.35523817274305
 20
8.3991427951388875
 10
50.35523817274305
 20
8.3991427951388875
 10
50.35523817274305
 20
8.3991427951388875
 10
50.2177788628472186
 20
8.3195610894097207
 10
50.2177788628472186
 20
8.3195610894097207
 10
50.2177788628472186
 20
8.3195610894097207
 10
50.3924452039930486
 20
8.0174262152777764
 10
50.3924452039930486
 20
8.0174262152777764
 10
50.3924452039930486
 20
8.0174262152777764
 10
50.2463731553819386
 20
7.933021375868055
 10
50.2463731553819386
 20
7.933021375868055
 10
50.2463731553819386
 20
7.933021375868055
 10
50.3194091796874972
 20
7.8065863715277768
 10
50.3194091796874972
 20
7.8065863715277768
 10
50.3194091796874972
 20
7.8065863715277768
 10
50.4647922092013843
 20
7.8906467013888886
 10
50.4647922092013843
 20
7.8906467013888886
 10
50.4647922092013843
 20
7.8906467013888886
 10
50.5185356987847172
 20
7.7976291232638886
 10
50.5185356987847172
 20
7.7976291232638886
 10
50.5185356987847172
 20
7.7976291232638886
 10
50.62119954427083
 20
7.8565402560763884
 10
50.62119954427083
 20
7.8565402560763884
 10
50.62119954427083
 20
7.8565402560763884
 10
50.5671115451388857
 20
7.9499023437499989
 10
50.5671115451388857
 20
7.9499023437499989
 10
50.5671115451388857
 20
7.9499023437499989
 10
50.9829345703124943
 20
8.1900254991319432
 10
50.9829345703124943
 20
8.1900254991319432
 10
50.9829345703124943
 20
8.1900254991319432
 10
50.9064534505208286
 20
8.3219726562499989
 10
50.9064534505208286
 20
8.3219726562499989
 97
        0
 75
     2
 76
     1
 98
        1
 10
0.0
 20
0.0
  0
HATCH
  5
60
100
AcDbEntity
  8
DR-100_R-SIDE_SILK
390
0
 62
     7
100
AcDbHatch
 10
0.0
 20
0.0
 30
0.0
210
0.0
220
0.0
230
1.0
  2
SOLID
 70
     1
 71
     0
 91
        2
 92
        1
 93
        1
 72
     4
 94
        3
 73
     0
 74
     0
 95
       14
 96
       10
 40
0.0
 40
0.0
 40
0.0
 40
0.0
 40
1.0
 40
1.0
 40
1.0
 40
2.0
 40
2.0
 40
2.0
 40
3.0
 40
3.0
 40
3.0
 40
3.0
 10
49.2280029296874986
 20
7.3470106336805552
 10
49.2280029296874986
 20
7.3470106336805552
 10
48.9792670355902757
 20
7.203694661458333
 10
48.9792670355902757
 20
7.203694661458333
 10
48.9792670355902757
 20
7.203694661458333
 10
48.86695692274305
 20
7.3976535373263879
 10
48.86695692274305
 20
7.3976535373263879
 10
48.86695692274305
 20
7.3976535373263879
 10
49.2280029296874986
 20
7.3470106336805552
 10
49.2280029296874986
 20
7.3470106336805552
 97
        0
 92
       16
 93
        1
 72
     4
 94
        3
 73
     0
 74
     0
 95
       38
 96
       34
 40
0.0
 40
0.0
 40
0.0
 40
0.0
 40
1.0
 40
1.0
 40
1.0
 40
2.0
 40
2.0
 40
2.0
 40
3.0
 40
3.0
 40
3.0
 40
4.0
 40
4.0
 40
4.0
 40
5.0
 40
5.0
 40
5.0
 40
6.0
 40
6.0
 40
6.0
 40
7.0
 40
7.0
 40
7.0
 40
8.0
 40
8.0
 40
8.0
 40
9.0
 40
9.0
 40
9.0
 40
10.0
 40
10.0
 40
10.0
 40
11.0
 40
11.0
 40
11.0
 40
11.0
 10
49.3909559461805543
 20
7.4465738932291661
 10
49.3909559461805543
 20
7.4465738932291661
 10
48.8393961588541643
 20
7.5233995225694441
 10
48.8393961588541643
 20
7.5233995225694441
 10
48.8393961588541643
 20
7.5233995225694441
 10
48.7022813585069372
 20
7.4441623263888879
 10
48.7022813585069372
 20
7.4441623263888879
 10
48.7022813585069372
 20
7.4441623263888879
 10
48.8769476996527743
 20
7.141682942708333
 10
48.8769476996527743
 20
7.141682942708333
 10
48.8769476996527743
 20
7.141682942708333
 10
48.7308756510416643
 20
7.0576226128472213
 10
48.7308756510416643
 20
7.0576226128472213
 10
48.7308756510416643
 20
7.0576226128472213
 10
48.8039116753472157
 20
6.9311876085069439
 10
48.8039116753472157
 20
6.9311876085069439
 10
48.8039116753472157
 20
6.9311876085069439
 10
48.94929470486111
 20
7.0152479383680548
 10
48.94929470486111
 20
7.0152479383680548
 10
48.94929470486111
 20
7.0152479383680548
 10
49.0030381944444429
 20
6.9222303602430548
 10
49.0030381944444429
 20
6.9222303602430548
 10
49.0030381944444429
 20
6.9222303602430548
 10
49.1053575303819372
 20
6.9811414930555546
 10
49.1053575303819372
 20
6.9811414930555546
 10
49.1053575303819372
 20
6.9811414930555546
 10
49.0516140407986043
 20
7.0745035807291661
 10
49.0516140407986043
 20
7.0745035807291661
 10
49.0516140407986043
 20
7.0745035807291661
 10
49.46743706597222
 20
7.3146267361111104
 10
49.46743706597222
 20
7.3146267361111104
 10
49.46743706597222
 20
7.3146267361111104
 10
49.3909559461805543
 20
7.4465738932291661
 10
49.3909559461805543
 20
7.4465738932291661
 97
        0
 75
     2
 76
     1
 98
        1
 10
0.0
 20
0.0
  0
INSERT
  5
5C
100
AcDbEntity
  8
DR-100_R-SIDE_SILK
390
0
 62
     7
100
AcDbBlockReference
  2
AI9-BLK8
 10
49.952334
 20
10.416935
 30
0.0
  0
INSERT
  5
57
100
AcDbEntity
  8
DR-100_R-SIDE_SILK
390
0
 62
     7
100
AcDbBlockReference
  2
AI9-BLK7
 10
48.202226
 20
10.416591
 30
0.0
  0
INSERT
  5
52
100
AcDbEntity
  8
DR-100_R-SIDE_SILK
390
0
 62
     7
100
AcDbBlockReference
  2
AI9-BLK6
 10
50.510267
 20
12.716364
 30
0.0
  0
INSERT
  5
4D
100
AcDbEntity
  8
DR-100_R-SIDE_SILK
390
0
 62
     7
100
AcDbBlockReference
  2
AI9-BLK5
 10
48.994425
 20
13.591246
 30
0.0
  0
INSERT
  5
48
100
AcDbEntity
  8
DR-100_R-SIDE_SILK
390
0
 62
     7
100
AcDbBlockReference
  2
AI9-BLK4
 10
52.167875
 20
14.266829
 30
0.0
  0
INSERT
  5
43
100
AcDbEntity
  8
DR-100_R-SIDE_SILK
390
0
 62
     7
100
AcDbBlockReference
  2
AI9-BLK3
 10
51.292476
 20
15.782499
 30
0.0
  0
HATCH
  5
41
100
AcDbEntity
  8
DR-100_R-SIDE_SILK
390
0
 62
     7
100
AcDbHatch
 10
0.0
 20
0.0
 30
0.0
210
0.0
220
0.0
230
1.0
  2
SOLID
 70
     1
 71
     0
 91
        2
 92
        1
 93
        1
 72
     4
 94
        3
 73
     0
 74
     0
 95
       35
 96
       31
 40
0.0
 40
0.0
 40
0.0
 40
0.0
 40
1.0
 40
1.0
 40
1.0
 40
2.0
 40
2.0
 40
2.0
 40
3.0
 40
3.0
 40
3.0
 40
4.0
 40
4.0
 40
4.0
 40
5.0
 40
5.0
 40
5.0
 40
6.0
 40
6.0
 40
6.0
 40
7.0
 40
7.0
 40
7.0
 40
8.0
 40
8.0
 40
8.0
 40
9.0
 40
9.0
 40
9.0
 40
10.0
 40
10.0
 40
10.0
 40
10.0
 10
54.3274332682291643
 20
14.9878879123263875
 10
54.3512044270833314
 20
15.0357747395833314
 10
54.3997802734374929
 20
15.0660915798611104
 10
54.4531792534722143
 20
15.0660915798611104
 10
54.5065782335069429
 20
15.0660915798611104
 10
54.5551540798611043
 20
15.0357747395833314
 10
54.5789252387152715
 20
14.9878879123263875
 10
54.5902940538194414
 20
14.9637722439236089
 10
54.5985622829861086
 20
14.9386230468749979
 10
54.6040744357638843
 20
14.9124403211805543
 10
54.6181993272569386
 20
14.8263129340277757
 10
54.61613226996527
 20
14.7384629991319436
 10
54.5978732638888857
 20
14.6530246310763879
 10
54.5878824869791615
 20
14.6085828993055546
 10
54.5596327039930529
 20
14.57034233940972
 10
54.5203586154513857
 20
14.5472601996527757
 10
54.4996880425347143
 20
14.5369249131944436
 10
54.4762613932291586
 20
14.5317572699652757
 10
54.4531792534722143
 20
14.5321017795138872
 10
54.4297526041666586
 20
14.5314127604166661
 10
54.4066704644097143
 20
14.5365804036458321
 10
54.38599989149305
 20
14.5469156901041661
 10
54.3467258029513829
 20
14.57034233940972
 10
54.3184760199652743
 20
14.6085828993055546
 10
54.30848524305555
 20
14.6530246310763879
 10
54.2902262369791586
 20
14.7384629991319436
 10
54.2881591796874972
 20
14.8263129340277757
 10
54.3022840711805515
 20
14.9124403211805543
 10
54.3077962239583272
 20
14.9386230468749979
 10
54.3164089626736057
 20
14.9637722439236089
 10
54.3274332682291643
 20
14.9878879123263875
 97
        0
 92
       16
 93
        1
 72
     4
 94
        3
 73
     0
 74
     0
 95
       29
 96
       25
 40
0.0
 40
0.0
 40
0.0
 40
0.0
 40
1.0
 40
1.0
 40
1.0
 40
2.0
 40
2.0
 40
2.0
 40
3.0
 40
3.0
 40
3.0
 40
4.0
 40
4.0
 40
4.0
 40
5.0
 40
5.0
 40
5.0
 40
6.0
 40
6.0
 40
6.0
 40
7.0
 40
7.0
 40
7.0
 40
8.0
 40
8.0
 40
8.0
 40
8.0
 10
54.1475992838541629
 20
14.9258761935763875
 10
54.1269287109374986
 20
14.8232123480902764
 10
54.1310628255208286
 20
14.7171034071180546
 10
54.1596571180555486
 20
14.6165066189236104
 10
54.1978976779513815
 20
14.48628200954861
 10
54.3177870008680515
 20
14.3973985460069436
 10
54.4531792534722143
 20
14.3987765842013875
 10
54.5889160156249957
 20
14.3973985460069436
 10
54.7088053385416586
 20
14.48628200954861
 10
54.7467013888888872
 20
14.6165066189236104
 10
54.7752956814236072
 20
14.7171034071180546
 10
54.7794297960069372
 20
14.8232123480902764
 10
54.7587592230902729
 20
14.9258761935763875
 10
54.7477349175347143
 20
14.9744520399305543
 10
54.7284423828124957
 20
15.0209608289930543
 10
54.7012261284722143
 20
15.0629909939236093
 10
54.64541558159722
 20
15.1453287760416657
 10
54.5527425130208314
 20
15.194938151041665
 10
54.4531792534722143
 20
15.1952826605902764
 10
54.3536159939236043
 20
15.1945936414930536
 10
54.2609429253472157
 20
15.1453287760416657
 10
54.2051323784722143
 20
15.0629909939236093
 10
54.1782606336805515
 20
15.0209608289930543
 10
54.1586235894097143
 20
14.9744520399305543
 10
54.1475992838541629
 20
14.9258761935763875
 97
        0
 75
     2
 76
     1
 98
        1
 10
0.0
 20
0.0
  0
HATCH
  5
40
100
AcDbEntity
  8
DR-100_R-SIDE_SILK
390
0
 62
     7
100
AcDbHatch
 10
0.0
 20
0.0
 30
0.0
210
0.0
220
0.0
230
1.0
  2
SOLID
 70
     1
 71
     0
 91
        2
 92
        1
 93
        1
 72
     4
 94
        3
 73
     0
 74
     0
 95
       35
 96
       31
 40
0.0
 40
0.0
 40
0.0
 40
0.0
 40
1.0
 40
1.0
 40
1.0
 40
2.0
 40
2.0
 40
2.0
 40
3.0
 40
3.0
 40
3.0
 40
4.0
 40
4.0
 40
4.0
 40
5.0
 40
5.0
 40
5.0
 40
6.0
 40
6.0
 40
6.0
 40
7.0
 40
7.0
 40
7.0
 40
8.0
 40
8.0
 40
8.0
 40
9.0
 40
9.0
 40
9.0
 40
10.0
 40
10.0
 40
10.0
 40
10.0
 10
54.3270887586805529
 20
16.8630533854166664
 10
54.35085991753472
 20
16.9109402126736086
 10
54.3994357638888815
 20
16.9412570529513857
 10
54.4528347439236029
 20
16.9412570529513857
 10
54.5062337239583314
 20
16.9412570529513857
 10
54.5548095703124929
 20
16.9109402126736086
 10
54.57858072916666
 20
16.8630533854166664
 10
54.58994954427083
 20
16.8389377170138879
 10
54.5982177734374972
 20
16.8134440104166636
 10
54.6037299262152729
 20
16.7876057942708314
 10
54.6178548177083272
 20
16.7014784071180529
 10
54.6157877604166586
 20
16.6136284722222207
 10
54.5975287543402743
 20
16.5285346137152764
 10
54.58753797743055
 20
16.4837483723958336
 10
54.5592881944444414
 20
16.4451633029513857
 10
54.5200141059027743
 20
16.4220811631944414
 10
54.4993435329861029
 20
16.4117458767361093
 10
54.4759168836805472
 20
16.4065782335069414
 10
54.4528347439236029
 20
16.4072672526041643
 10
54.4294080946180472
 20
16.4065782335069414
 10
54.4063259548611029
 20
16.4117458767361093
 10
54.3856553819444386
 20
16.4220811631944414
 10
54.3463812934027715
 20
16.4455078124999972
 10
54.3181315104166629
 20
16.4837483723958336
 10
54.3081407335069386
 20
16.528190104166665
 10
54.2898817274305472
 20
16.6136284722222207
 10
54.2878146701388857
 20
16.7014784071180529
 10
54.30193956163194
 20
16.7876057942708314
 10
54.3074517144097157
 20
16.8134440104166636
 10
54.3160644531249943
 20
16.8389377170138879
 10
54.3270887586805529
 20
16.8630533854166664
 97
        0
 92
       16
 93
        1
 72
     4
 94
        3
 73
     0
 74
     0
 95
       29
 96
       25
 40
0.0
 40
0.0
 40
0.0
 40
0.0
 40
1.0
 40
1.0
 40
1.0
 40
2.0
 40
2.0
 40
2.0
 40
3.0
 40
3.0
 40
3.0
 40
4.0
 40
4.0
 40
4.0
 40
5.0
 40
5.0
 40
5.0
 40
6.0
 40
6.0
 40
6.0
 40
7.0
 40
7.0
 40
7.0
 40
8.0
 40
8.0
 40
8.0
 40
8.0
 10
54.1472547743055515
 20
16.8010416666666664
 10
54.1265842013888872
 20
16.6983778211805536
 10
54.1307183159722172
 20
16.5922688802083336
 10
54.1593126085069372
 20
16.4916720920138857
 10
54.1972086588541586
 20
16.3614474826388872
 10
54.31744249131944
 20
16.2725640190972207
 10
54.4528347439236029
 20
16.2739420572916664
 10
54.5885715060763843
 20
16.2725640190972207
 10
54.7084608289930472
 20
16.3614474826388872
 10
54.7463568793402757
 20
16.4916720920138857
 10
54.7749511718749957
 20
16.5922688802083336
 10
54.7790852864583258
 20
16.6983778211805536
 10
54.7584147135416615
 20
16.8010416666666664
 10
54.7473904079861029
 20
16.8496175130208314
 10
54.7280978732638843
 20
16.8961263020833314
 10
54.7008816189236029
 20
16.9381564670138864
 10
54.6450710720486086
 20
17.0204942491319429
 10
54.55239800347222
 20
17.0697591145833307
 10
54.4528347439236029
 20
17.0701036241319422
 10
54.3532714843749929
 20
17.0697591145833307
 10
54.2605984157986043
 20
17.0204942491319429
 10
54.2047878689236029
 20
16.9381564670138864
 10
54.17791612413194
 20
16.8961263020833314
 10
54.1582790798611029
 20
16.8496175130208314
 10
54.1472547743055515
 20
16.8010416666666664
 97
        0
 75
     2
 76
     1
 98
        1
 10
0.0
 20
0.0
  0
HATCH
  5
3F
100
AcDbEntity
  8
DR-100_R-SIDE_SILK
390
0
 62
     7
100
AcDbHatch
 10
0.0
 20
0.0
 30
0.0
210
0.0
220
0.0
230
1.0
  2
SOLID
 70
     1
 71
     0
 91
        2
 92
        1
 93
        1
 72
     4
 94
        3
 73
     0
 74
     0
 95
       23
 96
       19
 40
0.0
 40
0.0
 40
0.0
 40
0.0
 40
1.0
 40
1.0
 40
1.0
 40
2.0
 40
2.0
 40
2.0
 40
3.0
 40
3.0
 40
3.0
 40
4.0
 40
4.0
 40
4.0
 40
5.0
 40
5.0
 40
5.0
 40
6.0
 40
6.0
 40
6.0
 40
6.0
 10
47.7683159722222186
 20
15.8843017578124979
 10
47.7683159722222186
 20
15.8843017578124979
 10
47.99638129340277
 20
15.8843017578124979
 10
47.99638129340277
 20
15.8843017578124979
 10
48.0418565538194429
 20
15.8836127387152768
 10
48.0831976996527715
 20
15.8581190321180543
 10
48.1038682725694429
 20
15.8178114149305546
 10
48.1245388454861072
 20
15.7771592881944436
 10
48.1210937499999929
 20
15.7285834418402768
 10
48.0949110243055529
 20
15.6917209201388879
 10
48.0683837890624943
 20
15.6552029079861104
 10
48.0260091145833314
 20
15.6331542968749986
 10
47.98087836371527
 20
15.6328097873263872
 10
47.98087836371527
 20
15.6328097873263872
 10
47.7683159722222186
 20
15.6328097873263872
 10
47.7683159722222186
 20
15.6328097873263872
 10
47.7683159722222186
 20
15.6328097873263872
 10
47.7683159722222186
 20
15.8843017578124979
 10
47.7683159722222186
 20
15.8843017578124979
 97
        0
 92
       16
 93
        1
 72
     4
 94
        3
 73
     0
 74
     0
 95
       56
 96
       52
 40
0.0
 40
0.0
 40
0.0
 40
0.0
 40
1.0
 40
1.0
 40
1.0
 40
2.0
 40
2.0
 40
2.0
 40
3.0
 40
3.0
 40
3.0
 40
4.0
 40
4.0
 40
4.0
 40
5.0
 40
5.0
 40
5.0
 40
6.0
 40
6.0
 40
6.0
 40
7.0
 40
7.0
 40
7.0
 40
8.0
 40
8.0
 40
8.0
 40
9.0
 40
9.0
 40
9.0
 40
10.0
 40
10.0
 40
10.0
 40
11.0
 40
11.0
 40
11.0
 40
12.0
 40
12.0
 40
12.0
 40
13.0
 40
13.0
 40
13.0
 40
14.0
 40
14.0
 40
14.0
 40
15.0
 40
15.0
 40
15.0
 40
16.0
 40
16.0
 40
16.0
 40
17.0
 40
17.0
 40
17.0
 40
17.0
 10
47.5829698350694414
 20
16.0303738064236114
 10
47.5829698350694414
 20
16.0303738064236114
 10
47.5829698350694414
 20
15.1305148654513868
 10
47.5829698350694414
 20
15.1305148654513868
 10
47.5829698350694414
 20
15.1305148654513868
 10
47.7683159722222186
 20
15.1305148654513868
 10
47.7683159722222186
 20
15.1305148654513868
 10
47.7683159722222186
 20
15.1305148654513868
 10
47.7683159722222186
 20
15.4943169487847214
 10
47.7683159722222186
 20
15.4943169487847214
 10
47.7683159722222186
 20
15.4943169487847214
 10
47.8975070529513829
 20
15.4943169487847214
 10
47.8975070529513829
 20
15.4943169487847214
 10
47.9288574218749943
 20
15.49397243923611
 10
47.9598632812499943
 20
15.4908718532986089
 10
47.9905246310763829
 20
15.4853597005208314
 10
48.0384114583333286
 20
15.4708902994791657
 10
48.0742404513888815
 20
15.4309271918402757
 10
48.0835422092013829
 20
15.3816623263888879
 10
48.0949110243055529
 20
15.3217176649305546
 10
48.1014567057291629
 20
15.26142849392361
 10
48.1024902343749972
 20
15.2004503038194425
 10
48.10317925347222
 20
15.1763346354166657
 10
48.10972493489583
 20
15.1525634765624986
 10
48.1214382595486043
 20
15.1315483940972211
 10
48.1214382595486043
 20
15.1315483940972211
 10
48.2947265624999957
 20
15.1315483940972211
 10
48.2947265624999957
 20
15.1315483940972211
 10
48.2857693142361057
 20
15.15290798611111
 10
48.2795681423611072
 20
15.1753011067708314
 10
48.2771565755208272
 20
15.1983832465277757
 10
48.2771565755208272
 20
15.1983832465277757
 10
48.26888834635416
 20
15.3351535373263879
 10
48.26888834635416
 20
15.3351535373263879
 10
48.2681993272569372
 20
15.3661593967013879
 10
48.2650987413194414
 20
15.3968207465277764
 10
48.2592420789930543
 20
15.4271375868055536
 10
48.2475287543402729
 20
15.4998291015624989
 10
48.1882731119791643
 20
15.5552951388888872
 10
48.1152370876736057
 20
15.56252983940972
 10
48.21583387586805
 20
15.5787217881944429
 10
48.2919704861111043
 20
15.6620930989583318
 10
48.2988606770833258
 20
15.76406792534722
 10
48.3081624348958272
 20
15.8911919487847211
 10
48.2179009331597186
 20
16.0041910807291643
 10
48.0914659288194386
 20
16.023139105902775
 10
48.0515028211805486
 20
16.0293402777777771
 10
48.0111952039930543
 20
16.0317518446180536
 10
47.9705430772569414
 20
16.0303738064236114
 10
47.9705430772569414
 20
16.0303738064236114
 10
47.5829698350694414
 20
16.0303738064236114
 10
47.5829698350694414
 20
16.0303738064236114
 97
        0
 75
     2
 76
     1
 98
        1
 10
0.0
 20
0.0
  0
INSERT
  5
3B
100
AcDbEntity
  8
DR-100_R-SIDE_SILK
390
0
 62
     7
100
AcDbBlockReference
  2
AI9-BLK2
 10
44.476183
 20
15.580617
 30
0.0
  0
HATCH
  5
39
100
AcDbEntity
  8
DR-100_R-SIDE_SILK
390
0
 62
     7
100
AcDbHatch
 10
0.0
 20
0.0
 30
0.0
210
0.0
220
0.0
230
1.0
  2
SOLID
 70
     1
 71
     0
 91
        2
 92
       16
 93
        1
 72
     4
 94
        3
 73
     0
 74
     0
 95
       26
 96
       22
 40
0.0
 40
0.0
 40
0.0
 40
0.0
 40
1.0
 40
1.0
 40
1.0
 40
2.0
 40
2.0
 40
2.0
 40
3.0
 40
3.0
 40
3.0
 40
4.0
 40
4.0
 40
4.0
 40
5.0
 40
5.0
 40
5.0
 40
6.0
 40
6.0
 40
6.0
 40
7.0
 40
7.0
 40
7.0
 40
7.0
 10
45.6767985026041643
 20
15.5053412543402764
 10
45.7140055338541629
 20
15.3733940972222207
 10
45.8431966145833272
 20
15.2893337673611089
 10
45.9789333767361086
 20
15.3082817925347214
 10
46.1150146484374943
 20
15.3272298177083321
 10
46.2163004557291615
 20
15.4433295355902764
 10
46.2163004557291615
 20
15.5807888454861097
 10
46.2163004557291615
 20
15.7179036458333314
 10
46.1150146484374943
 20
15.8340033637152757
 10
45.9789333767361086
 20
15.8529513888888882
 10
45.8431966145833272
 20
15.8718994140624989
 10
45.7140055338541629
 20
15.7874945746527757
 10
45.6764539930555529
 20
15.65554741753472
 10
45.6764539930555529
 20
15.65554741753472
 10
44.9412706163194429
 20
15.65554741753472
 10
44.9412706163194429
 20
15.65554741753472
 10
44.9412706163194429
 20
15.65554741753472
 10
44.9412706163194429
 20
15.5053412543402764
 10
44.9412706163194429
 20
15.5053412543402764
 10
44.9412706163194429
 20
15.5053412543402764
 10
45.6767985026041643
 20
15.5053412543402764
 10
45.6767985026041643
 20
15.5053412543402764
 97
        0
 92
       16
 93
        1
 72
     4
 94
        3
 73
     0
 74
     0
 95
       44
 96
       40
 40
0.0
 40
0.0
 40
0.0
 40
0.0
 40
1.0
 40
1.0
 40
1.0
 40
2.0
 40
2.0
 40
2.0
 40
3.0
 40
3.0
 40
3.0
 40
4.0
 40
4.0
 40
4.0
 40
5.0
 40
5.0
 40
5.0
 40
6.0
 40
6.0
 40
6.0
 40
7.0
 40
7.0
 40
7.0
 40
8.0
 40
8.0
 40
8.0
 40
9.0
 40
9.0
 40
9.0
 40
10.0
 40
10.0
 40
10.0
 40
11.0
 40
11.0
 40
11.0
 40
12.0
 40
12.0
 40
12.0
 40
13.0
 40
13.0
 40
13.0
 40
13.0
 10
47.1912624782986043
 20
15.65554741753472
 10
47.1912624782986043
 20
15.65554741753472
 10
46.5112006293402729
 20
15.65554741753472
 10
46.5112006293402729
 20
15.65554741753472
 10
46.4791612413194386
 20
15.8998046874999979
 10
46.2948486328124957
 20
16.0965196397569414
 10
46.0533474392361057
 20
16.1444064670138872
 10
45.8115017361111043
 20
16.1926378038194443
 10
45.5662109374999957
 20
16.0813612196180529
 10
45.44322102864583
 20
15.8681098090277768
 10
45.44322102864583
 20
15.8681098090277768
 10
45.5731011284722172
 20
15.793006727430555
 10
45.5731011284722172
 20
15.793006727430555
 10
45.66921929253472
 20
15.9597493489583311
 10
45.8652452256944372
 20
16.0407090928819436
 10
46.0512803819444372
 20
15.9910997178819425
 10
46.2369710286458258
 20
15.9414903428819432
 10
46.3661621093749972
 20
15.77302517361111
 10
46.3661621093749972
 20
15.5807888454861097
 10
46.3661621093749972
 20
15.3882080078124979
 10
46.2369710286458258
 20
15.2200873480902761
 10
46.0512803819444372
 20
15.1701334635416654
 10
45.8655897352430486
 20
15.1201795789930546
 10
45.66921929253472
 20
15.2014838324652768
 10
45.5731011284722172
 20
15.3682264539930546
 10
45.5731011284722172
 20
15.3682264539930546
 10
45.44322102864583
 20
15.2931233723958311
 10
45.44322102864583
 20
15.2931233723958311
 10
45.5662109374999957
 20
15.079871961805555
 10
45.8118462456597157
 20
14.9685953776041654
 10
46.0533474392361057
 20
15.0168267144097207
 10
46.2948486328124957
 20
15.0647135416666647
 10
46.4791612413194386
 20
15.26142849392361
 10
46.5112006293402729
 20
15.5053412543402764
 10
46.5112006293402729
 20
15.5053412543402764
 10
47.1912624782986043
 20
15.5053412543402764
 10
47.1912624782986043
 20
15.5053412543402764
 10
47.1912624782986043
 20
15.5053412543402764
 10
47.1912624782986043
 20
15.65554741753472
 10
47.1912624782986043
 20
15.65554741753472
 97
        0
 75
     2
 76
     1
 98
        1
 10
0.0
 20
0.0
  0
HATCH
  5
38
100
AcDbEntity
  8
DR-100_R-SIDE_SILK
390
0
 62
     7
100
AcDbHatch
 10
0.0
 20
0.0
 30
0.0
210
0.0
220
0.0
230
1.0
  2
SOLID
 70
     1
 71
     0
 91
        6
 92
       16
 93
        1
 72
     4
 94
        3
 73
     0
 74
     0
 95
       29
 96
       25
 40
0.0
 40
0.0
 40
0.0
 40
0.0
 40
1.0
 40
1.0
 40
1.0
 40
2.0
 40
2.0
 40
2.0
 40
3.0
 40
3.0
 40
3.0
 40
4.0
 40
4.0
 40
4.0
 40
5.0
 40
5.0
 40
5.0
 40
6.0
 40
6.0
 40
6.0
 40
7.0
 40
7.0
 40
7.0
 40
8.0
 40
8.0
 40
8.0
 40
8.0
 10
42.4373752170138872
 20
16.0413981119791664
 10
42.4373752170138872
 20
16.0413981119791664
 10
42.4373752170138872
 20
15.8867133246527761
 10
42.4373752170138872
 20
15.8867133246527761
 10
42.4373752170138872
 20
15.8867133246527761
 10
42.7164279513888872
 20
15.8867133246527761
 10
42.7164279513888872
 20
15.8867133246527761
 10
42.7164279513888872
 20
15.8867133246527761
 10
42.7164279513888872
 20
15.141883680555555
 10
42.7164279513888872
 20
15.141883680555555
 10
42.7164279513888872
 20
15.141883680555555
 10
42.9000515407986072
 20
15.141883680555555
 10
42.9000515407986072
 20
15.141883680555555
 10
42.9000515407986072
 20
15.141883680555555
 10
42.9000515407986072
 20
15.8860243055555532
 10
42.9000515407986072
 20
15.8860243055555532
 10
42.9000515407986072
 20
15.8860243055555532
 10
43.1791042751736072
 20
15.8860243055555532
 10
43.1791042751736072
 20
15.8860243055555532
 10
43.1791042751736072
 20
15.8860243055555532
 10
43.1791042751736072
 20
16.0413981119791664
 10
43.1791042751736072
 20
16.0413981119791664
 10
43.1791042751736072
 20
16.0413981119791664
 10
42.4373752170138872
 20
16.0413981119791664
 10
42.4373752170138872
 20
16.0413981119791664
 97
        0
 92
       16
 93
        1
 72
     4
 94
        3
 73
     0
 74
     0
 95
       53
 96
       49
 40
0.0
 40
0.0
 40
0.0
 40
0.0
 40
1.0
 40
1.0
 40
1.0
 40
2.0
 40
2.0
 40
2.0
 40
3.0
 40
3.0
 40
3.0
 40
4.0
 40
4.0
 40
4.0
 40
5.0
 40
5.0
 40
5.0
 40
6.0
 40
6.0
 40
6.0
 40
7.0
 40
7.0
 40
7.0
 40
8.0
 40
8.0
 40
8.0
 40
9.0
 40
9.0
 40
9.0
 40
10.0
 40
10.0
 40
10.0
 40
11.0
 40
11.0
 40
11.0
 40
12.0
 40
12.0
 40
12.0
 40
13.0
 40
13.0
 40
13.0
 40
14.0
 40
14.0
 40
14.0
 40
15.0
 40
15.0
 40
15.0
 40
16.0
 40
16.0
 40
16.0
 40
16.0
 10
41.6095187717013886
 20
16.0417426215277779
 10
41.6095187717013886
 20
16.0417426215277779
 10
41.6095187717013886
 20
15.3937201605902771
 10
41.6095187717013886
 20
15.3937201605902771
 10
41.6088297526041657
 20
15.2876112196180536
 10
41.6701524522569429
 20
15.1908040364583314
 10
41.76661512586805
 20
15.1467068142361097
 10
41.83103841145833
 20
15.1177680121527764
 10
41.9009738498263857
 20
15.1022650824652764
 10
41.9719428168402757
 20
15.1012315538194439
 10
42.0425672743055543
 20
15.1022650824652764
 10
42.11250271267361
 20
15.1177680121527764
 10
42.1769259982638829
 20
15.1467068142361097
 10
42.2733886718749972
 20
15.1908040364583314
 10
42.3347113715277743
 20
15.2876112196180536
 10
42.33367784288194
 20
15.3937201605902771
 10
42.33367784288194
 20
15.3937201605902771
 10
42.3340223524305515
 20
16.0417426215277779
 10
42.3340223524305515
 20
16.0417426215277779
 10
42.3340223524305515
 20
16.0417426215277779
 10
42.1472981770833286
 20
16.0417426215277779
 10
42.1472981770833286
 20
16.0417426215277779
 10
42.1472981770833286
 20
16.0417426215277779
 10
42.1472981770833286
 20
15.4326497395833311
 10
42.1472981770833286
 20
15.4326497395833311
 10
42.1472981770833286
 20
15.4326497395833311
 10
42.1466091579861057
 20
15.3981987847222204
 10
42.1466091579861057
 20
15.3981987847222204
 10
42.1428195529513872
 20
15.3399766710069425
 10
42.1052680121527771
 20
15.2893337673611089
 10
42.0508355034722214
 20
15.2693522135416657
 10
42.0253417968749972
 20
15.2600504557291661
 10
41.9988145616319386
 20
15.2555718315972211
 10
41.9719428168402757
 20
15.2555718315972211
 10
41.9447265624999943
 20
15.2555718315972211
 10
41.9181993272569429
 20
15.2600504557291661
 10
41.8927056206597186
 20
15.2690077039930543
 10
41.8379286024305515
 20
15.2893337673611089
 10
41.8007215711805529
 20
15.3399766710069425
 10
41.7969319661458272
 20
15.3981987847222204
 10
41.7969319661458272
 20
15.3981987847222204
 10
41.7962429470486043
 20
15.4326497395833311
 10
41.7962429470486043
 20
15.4326497395833311
 10
41.7962429470486043
 20
15.4326497395833311
 10
41.7962429470486043
 20
16.0417426215277779
 10
41.7962429470486043
 20
16.0417426215277779
 10
41.7962429470486043
 20
16.0417426215277779
 10
41.6095187717013886
 20
16.0417426215277779
 10
41.6095187717013886
 20
16.0417426215277779
 97
        0
 92
        1
 93
        1
 72
     4
 94
        3
 73
     0
 74
     0
 95
       26
 96
       22
 40
0.0
 40
0.0
 40
0.0
 40
0.0
 40
1.0
 40
1.0
 40
1.0
 40
2.0
 40
2.0
 40
2.0
 40
3.0
 40
3.0
 40
3.0
 40
4.0
 40
4.0
 40
4.0
 40
5.0
 40
5.0
 40
5.0
 40
6.0
 40
6.0
 40
6.0
 40
7.0
 40
7.0
 40
7.0
 40
7.0
 10
40.9845784505208286
 20
15.8946370442708318
 10
40.9845784505208286
 20
15.8946370442708318
 10
41.1547661675347172
 20
15.8946370442708318
 10
41.1547661675347172
 20
15.8946370442708318
 10
41.2012749565972172
 20
15.8949815538194432
 10
41.2453721788194372
 20
15.8739664713541657
 10
41.2746554904513872
 20
15.8374484592013882
 10
41.2980821397569429
 20
15.8074761284722207
 10
41.3087619357638829
 20
15.7692355685763879
 10
41.30393880208333
 20
15.7313395182291647
 10
41.2991156684027771
 20
15.6937879774305546
 10
41.27947862413194
 20
15.6593370225694422
 10
41.2495062934027743
 20
15.6362548828124979
 10
41.2243570963541615
 20
15.6200629340277768
 10
41.1957628038194414
 20
15.6104166666666657
 10
41.1661349826388872
 20
15.6080050998263875
 10
41.1661349826388872
 20
15.6080050998263875
 10
40.9845784505208286
 20
15.6080050998263875
 10
40.9845784505208286
 20
15.6080050998263875
 10
40.9845784505208286
 20
15.6080050998263875
 10
40.9845784505208286
 20
15.8946370442708318
 10
40.9845784505208286
 20
15.8946370442708318
 97
        0
 92
       16
 93
        1
 72
     4
 94
        3
 73
     0
 74
     0
 95
       32
 96
       28
 40
0.0
 40
0.0
 40
0.0
 40
0.0
 40
1.0
 40
1.0
 40
1.0
 40
2.0
 40
2.0
 40
2.0
 40
3.0
 40
3.0
 40
3.0
 40
4.0
 40
4.0
 40
4.0
 40
5.0
 40
5.0
 40
5.0
 40
6.0
 40
6.0
 40
6.0
 40
7.0
 40
7.0
 40
7.0
 40
8.0
 40
8.0
 40
8.0
 40
9.0
 40
9.0
 40
9.0
 40
9.0
 10
40.8019883897569429
 20
16.0444986979166657
 10
40.8019883897569429
 20
16.0444986979166657
 10
40.8019883897569429
 20
15.141883680555555
 10
40.8019883897569429
 20
15.141883680555555
 10
40.8019883897569429
 20
15.141883680555555
 10
40.9838894314236057
 20
15.141883680555555
 10
40.9838894314236057
 20
15.141883680555555
 10
40.9838894314236057
 20
15.141883680555555
 10
40.9838894314236057
 20
15.4550428602430543
 10
40.9838894314236057
 20
15.4550428602430543
 10
40.9838894314236057
 20
15.4550428602430543
 10
41.2188449435763857
 20
15.4605550130208318
 10
41.2188449435763857
 20
15.4605550130208318
 10
41.3497585720486072
 20
15.4633110894097214
 10
41.4600016276041643
 20
15.5601182725694436
 10
41.4789496527777715
 20
15.6899983723958325
 10
41.48756239149305
 20
15.7406412760416661
 10
41.4841172960069429
 20
15.7923177083333321
 10
41.4693033854166657
 20
15.84158257378472
 10
41.43691948784722
 20
15.9535481770833325
 10
41.3380452473958329
 20
16.0331298828124993
 10
41.2216010199652771
 20
16.0407090928819436
 10
41.1826714409722214
 20
16.04312065972222
 10
41.1437418619791657
 20
16.0441541883680543
 10
41.10481228298611
 20
16.0441541883680543
 10
41.10481228298611
 20
16.0441541883680543
 10
40.8019883897569429
 20
16.0444986979166657
 10
40.8019883897569429
 20
16.0444986979166657
 97
        0
 92
       16
 93
        1
 72
     4
 94
        3
 73
     0
 74
     0
 95
       35
 96
       31
 40
0.0
 40
0.0
 40
0.0
 40
0.0
 40
1.0
 40
1.0
 40
1.0
 40
2.0
 40
2.0
 40
2.0
 40
3.0
 40
3.0
 40
3.0
 40
4.0
 40
4.0
 40
4.0
 40
5.0
 40
5.0
 40
5.0
 40
6.0
 40
6.0
 40
6.0
 40
7.0
 40
7.0
 40
7.0
 40
8.0
 40
8.0
 40
8.0
 40
9.0
 40
9.0
 40
9.0
 40
10.0
 40
10.0
 40
10.0
 40
10.0
 10
39.87525770399305
 20
16.0413981119791664
 10
39.87525770399305
 20
16.0413981119791664
 10
39.87525770399305
 20
15.141883680555555
 10
39.87525770399305
 20
15.141883680555555
 10
39.87525770399305
 20
15.141883680555555
 10
40.0568142361111086
 20
15.141883680555555
 10
40.0568142361111086
 20
15.141883680555555
 10
40.0568142361111086
 20
15.141883680555555
 10
40.0568142361111086
 20
15.7526991102430536
 10
40.0568142361111086
 20
15.7526991102430536
 10
40.0568142361111086
 20
15.7526991102430536
 10
40.4330186631944386
 20
15.1436062282986104
 10
40.4330186631944386
 20
15.1436062282986104
 10
40.4330186631944386
 20
15.1436062282986104
 10
40.62180989583333
 20
15.1436062282986104
 10
40.62180989583333
 20
15.1436062282986104
 10
40.62180989583333
 20
15.1436062282986104
 10
40.62180989583333
 20
16.0413981119791664
 10
40.62180989583333
 20
16.0413981119791664
 10
40.62180989583333
 20
16.0413981119791664
 10
40.4402533637152715
 20
16.0413981119791664
 10
40.4402533637152715
 20
16.0413981119791664
 10
40.4402533637152715
 20
16.0413981119791664
 10
40.4402533637152715
 20
15.436439344618055
 10
40.4402533637152715
 20
15.436439344618055
 10
40.4402533637152715
 20
15.436439344618055
 10
40.06783854166666
 20
16.0413981119791664
 10
40.06783854166666
 20
16.0413981119791664
 10
40.06783854166666
 20
16.0413981119791664
 10
39.87525770399305
 20
16.0413981119791664
 10
39.87525770399305
 20
16.0413981119791664
 97
        0
 92
       16
 93
        1
 72
     4
 94
        3
 73
     0
 74
     0
 95
       17
 96
       13
 40
0.0
 40
0.0
 40
0.0
 40
0.0
 40
1.0
 40
1.0
 40
1.0
 40
2.0
 40
2.0
 40
2.0
 40
3.0
 40
3.0
 40
3.0
 40
4.0
 40
4.0
 40
4.0
 40
4.0
 10
39.5086995442708329
 20
16.0400200737847207
 10
39.5086995442708329
 20
16.0400200737847207
 10
39.5086995442708329
 20
15.141883680555555
 10
39.5086995442708329
 20
15.141883680555555
 10
39.5086995442708329
 20
15.141883680555555
 10
39.6954237196180486
 20
15.141883680555555
 10
39.6954237196180486
 20
15.141883680555555
 10
39.6954237196180486
 20
15.141883680555555
 10
39.6954237196180486
 20
16.0400200737847207
 10
39.6954237196180486
 20
16.0400200737847207
 10
39.6954237196180486
 20
16.0400200737847207
 10
39.5086995442708329
 20
16.0400200737847207
 10
39.5086995442708329
 20
16.0400200737847207
 97
        0
 75
     2
 76
     1
 98
        1
 10
0.0
 20
0.0
  0
INSERT
  5
33
100
AcDbEntity
  8
NO
390
0
 62
     7
100
AcDbBlockReference
  2
AI9-BLK1
 10
32.954405
 20
-12.086773
 30
0.0
  0
HATCH
  5
31
100
AcDbEntity
  8
NO
390
0
 62
     7
100
AcDbHatch
 10
0.0
 20
0.0
 30
0.0
210
0.0
220
0.0
230
1.0
  2
SOLID
 70
     1
 71
     0
 91
        4
 92
        1
 93
        1
 72
     4
 94
        3
 73
     0
 74
     0
 95
       35
 96
       31
 40
0.0
 40
0.0
 40
0.0
 40
0.0
 40
1.0
 40
1.0
 40
1.0
 40
2.0
 40
2.0
 40
2.0
 40
3.0
 40
3.0
 40
3.0
 40
4.0
 40
4.0
 40
4.0
 40
5.0
 40
5.0
 40
5.0
 40
6.0
 40
6.0
 40
6.0
 40
7.0
 40
7.0
 40
7.0
 40
8.0
 40
8.0
 40
8.0
 40
9.0
 40
9.0
 40
9.0
 40
10.0
 40
10.0
 40
10.0
 40
10.0
 10
56.0947672526041643
 20
-13.4152018229166661
 10
56.1168158637152743
 20
-12.3051920572916664
 10
57.0824761284722157
 20
-12.3465332031249986
 10
57.0979790581597157
 20
-11.5555392795138872
 10
57.1021131727430529
 20
-11.3440104166666664
 10
57.0249430338541643
 20
-11.1669325086805546
 10
56.8182373046874929
 20
-11.1627983940972211
 10
56.5436631944444414
 20
-11.1572862413194436
 10
56.4937093098958272
 20
-11.4308268229166661
 10
56.4885416666666629
 20
-11.6871419270833314
 10
56.4885416666666629
 20
-11.6871419270833314
 10
56.1333523220486086
 20
-11.68025173611111
 10
56.1333523220486086
 20
-11.68025173611111
 10
56.1433430989583258
 20
-11.1717556423611093
 10
56.3386800130208272
 20
-10.8610080295138882
 10
56.83305121527777
 20
-10.8709988064236107
 10
57.30055067274305
 20
-10.8803005642361104
 10
57.4741834852430529
 20
-11.1938042534722211
 10
57.46694878472222
 20
-11.5669080946180554
 10
57.4500678168402743
 20
-12.4161241319444429
 10
56.70248209635416
 20
-12.4560872395833329
 10
56.5147243923611029
 20
-13.0775824652777768
 10
56.5147243923611029
 20
-13.0775824652777768
 10
57.4455891927083258
 20
-13.095496961805555
 10
57.4455891927083258
 20
-13.095496961805555
 10
57.4455891927083258
 20
-13.095496961805555
 10
57.4390435112847157
 20
-13.4417290581597211
 10
57.4390435112847157
 20
-13.4417290581597211
 10
57.4390435112847157
 20
-13.4417290581597211
 10
56.0947672526041643
 20
-13.4152018229166661
 10
56.0947672526041643
 20
-13.4152018229166661
 97
        0
 92
        1
 93
        1
 72
     4
 94
        3
 73
     0
 74
     0
 95
       35
 96
       31
 40
0.0
 40
0.0
 40
0.0
 40
0.0
 40
1.0
 40
1.0
 40
1.0
 40
2.0
 40
2.0
 40
2.0
 40
3.0
 40
3.0
 40
3.0
 40
4.0
 40
4.0
 40
4.0
 40
5.0
 40
5.0
 40
5.0
 40
6.0
 40
6.0
 40
6.0
 40
7.0
 40
7.0
 40
7.0
 40
8.0
 40
8.0
 40
8.0
 40
9.0
 40
9.0
 40
9.0
 40
10.0
 40
10.0
 40
10.0
 40
10.0
 10
54.5575656467013843
 20
-13.3848849826388872
 10
54.5792697482638829
 20
-12.2745307074652761
 10
55.5452745225694429
 20
-12.3155273437499986
 10
55.5607774522569429
 20
-11.52522243923611
 10
55.5649115668402729
 20
-11.3130045572916664
 10
55.4873969184027729
 20
-11.1366156684027775
 10
55.28103569878472
 20
-11.1328260633680554
 10
55.0068060980902729
 20
-11.1269694010416664
 10
54.9516845703124943
 20
-11.4005099826388872
 10
54.9468614366319414
 20
-11.6568250868055543
 10
54.9468614366319414
 20
-11.6568250868055543
 10
54.5954616970486057
 20
-11.6499348958333329
 10
54.5954616970486057
 20
-11.6499348958333329
 10
54.6057969835069414
 20
-11.1417833116319436
 10
54.8011338975694429
 20
-10.8306911892361093
 10
55.2906819661458258
 20
-10.8403374565972204
 10
55.76334906684027
 20
-10.8499837239583332
 10
55.9369818793402729
 20
-11.1634874131944439
 10
55.9294026692708286
 20
-11.5369357638888879
 10
55.9128662109374943
 20
-12.3861518012152771
 10
55.1652804904513872
 20
-12.4257703993055539
 10
54.9778672960069414
 20
-13.0469211154513882
 10
54.9778672960069414
 20
-13.0469211154513882
 10
55.9080430772569414
 20
-13.0655246310763875
 10
55.9080430772569414
 20
-13.0655246310763875
 10
55.9080430772569414
 20
-13.0655246310763875
 10
55.90115288628472
 20
-13.4117567274305536
 10
55.90115288628472
 20
-13.4117567274305536
 10
55.90115288628472
 20
-13.4117567274305536
 10
54.5575656467013843
 20
-13.3848849826388872
 10
54.5575656467013843
 20
-13.3848849826388872
 97
        0
 92
       16
 93
        1
 72
     4
 94
        3
 73
     0
 74
     0
 95
       17
 96
       13
 40
0.0
 40
0.0
 40
0.0
 40
0.0
 40
1.0
 40
1.0
 40
1.0
 40
2.0
 40
2.0
 40
2.0
 40
3.0
 40
3.0
 40
3.0
 40
4.0
 40
4.0
 40
4.0
 40
4.0
 10
56.0527370876736057
 20
-10.31599392361111
 10
54.9875135633680472
 20
-10.2953233506944439
 10
54.1021240234374972
 20
-11.1455729166666657
 10
54.0811089409722143
 20
-12.2149305555555543
 10
54.0597493489583272
 20
-13.2801540798611093
 10
54.91068793402777
 20
-14.1655436197916647
 10
55.97625596788194
 20
-14.1865587022569439
 10
57.0456136067708286
 20
-14.2075737847222214
 10
57.9261800130208258
 20
-13.3566351996527768
 10
57.9471950954861086
 20
-12.2914116753472218
 10
57.9685546874999957
 20
-11.2213650173611104
 10
57.1220947265624943
 20
-10.3370090060763875
 10
56.0527370876736057
 20
-10.31599392361111
 97
        0
 92
        1
 93
        1
 72
     4
 94
        3
 73
     0
 74
     0
 95
       17
 96
       13
 40
0.0
 40
0.0
 40
0.0
 40
0.0
 40
1.0
 40
1.0
 40
1.0
 40
2.0
 40
2.0
 40
2.0
 40
3.0
 40
3.0
 40
3.0
 40
4.0
 40
4.0
 40
4.0
 40
4.0
 10
55.9734998914930486
 20
-14.3123046874999993
 10
54.8359293619791615
 20
-14.2895670572916647
 10
53.9326253255208314
 20
-13.3504340277777764
 10
53.9553629557291643
 20
-12.2125189887152761
 10
53.9777560763888857
 20
-11.0708143446180554
 10
54.9172336154513872
 20
-10.1678548177083332
 10
56.0551486545138857
 20
-10.1905924479166661
 10
57.1968532986111029
 20
-10.2133300781249989
 10
58.10015733506944
 20
-11.1524631076388872
 10
58.0774197048611072
 20
-12.2941677517361097
 10
58.0550265842013857
 20
-13.4317382812499986
 10
57.1152045355902729
 20
-14.3350423177083321
 10
55.9734998914930486
 20
-14.3123046874999993
 97
        0
 75
     2
 76
     1
 98
        1
 10
0.0
 20
0.0
  0
ELLIPSE
  5
30
100
AcDbEntity
  8
NO
390
0
 62
     7
100
AcDbEllipse
 10
56.20191
 20
9.122268
 30
0.0
 11
0.0
 21
0.2866319444444444
 31
0.0
210
0.0
220
0.0
230
1.0
 40
0.923077
 41
0.0
 42
6.2831853071795862
  0
HATCH
  5
2F
100
AcDbEntity
  8
NO
390
0
 62
     7
100
AcDbHatch
 10
0.0
 20
0.0
 30
0.0
210
0.0
220
0.0
230
1.0
  2
SOLID
 70
     1
 71
     0
 91
        1
 92
        1
 93
        1
 72
     4
 94
        3
 73
     0
 74
     0
 95
       17
 96
       13
 40
0.0
 40
0.0
 40
0.0
 40
0.0
 40
1.0
 40
1.0
 40
1.0
 40
2.0
 40
2.0
 40
2.0
 40
3.0
 40
3.0
 40
3.0
 40
4.0
 40
4.0
 40
4.0
 40
4.0
 10
55.9373263888888843
 20
9.12226833767361
 10
55.9373263888888843
 20
9.2807427300347207
 10
56.0558376736111086
 20
9.4089002821180543
 10
56.2019097222222186
 20
9.4089002821180543
 10
56.3479817708333286
 20
9.4089002821180543
 10
56.4664930555555529
 20
9.2807427300347207
 10
56.4664930555555529
 20
9.12226833767361
 10
56.4664930555555529
 20
8.9637939453124993
 10
56.3479817708333286
 20
8.8356363932291657
 10
56.2019097222222186
 20
8.8356363932291657
 10
56.0558376736111086
 20
8.8356363932291657
 10
55.9373263888888843
 20
8.9637939453124993
 10
55.9373263888888843
 20
9.12226833767361
 97
        0
 75
     2
 76
     1
 98
        1
 10
0.0
 20
0.0
  0
LINE
  5
2E
100
AcDbEntity
  8
NO
390
0
 62
     7
100
AcDbLine
 10
56.20191
 20
8.479758
 30
0.0
 11
56.20191
 21
-7.692554
 31
0.0
  0
LINE
  5
2D
100
AcDbEntity
  8
NO
390
0
 62
     7
100
AcDbLine
 10
56.20191
 20
9.430949
 30
0.0
 11
56.20191
 21
-10.045209
 31
0.0
  0
ELLIPSE
  5
2C
100
AcDbEntity
  8
NO
390
0
 62
     7
100
AcDbEllipse
 10
32.918576
 20
9.122268
 30
0.0
 11
0.0
 21
0.2866319444444444
 31
0.0
210
0.0
220
0.0
230
1.0
 40
0.923077
 41
0.0
 42
6.2831853071795862
  0
HATCH
  5
2B
100
AcDbEntity
  8
NO
390
0
 62
     7
100
AcDbHatch
 10
0.0
 20
0.0
 30
0.0
210
0.0
220
0.0
230
1.0
  2
SOLID
 70
     1
 71
     0
 91
        1
 92
        1
 93
        1
 72
     4
 94
        3
 73
     0
 74
     0
 95
       17
 96
       13
 40
0.0
 40
0.0
 40
0.0
 40
0.0
 40
1.0
 40
1.0
 40
1.0
 40
2.0
 40
2.0
 40
2.0
 40
3.0
 40
3.0
 40
3.0
 40
4.0
 40
4.0
 40
4.0
 40
4.0
 10
32.6539930555555529
 20
9.12226833767361
 10
32.6539930555555529
 20
9.2807427300347207
 10
32.7725043402777771
 20
9.4089002821180543
 10
32.9185763888888872
 20
9.4089002821180543
 10
33.0646484374999972
 20
9.4089002821180543
 10
33.1831597222222214
 20
9.2807427300347207
 10
33.1831597222222214
 20
9.12226833767361
 10
33.1831597222222214
 20
8.9637939453124993
 10
33.0646484374999972
 20
8.8356363932291657
 10
32.9185763888888872
 20
8.8356363932291657
 10
32.7725043402777771
 20
8.8356363932291657
 10
32.6539930555555529
 20
8.9637939453124993
 10
32.6539930555555529
 20
9.12226833767361
 97
        0
 75
     2
 76
     1
 98
        1
 10
0.0
 20
0.0
  0
LINE
  5
2A
100
AcDbEntity
  8
NO
390
0
 62
     7
100
AcDbLine
 10
32.918576
 20
8.479758
 30
0.0
 11
32.918576
 21
-7.692554
 31
0.0
  0
LINE
  5
29
100
AcDbEntity
  8
NO
390
0
 62
     7
100
AcDbLine
 10
32.918576
 20
9.430949
 30
0.0
 11
32.918576
 21
-10.045209
 31
0.0
  0
ENDSEC
  0
SECTION
  2
OBJECTS
  0
DICTIONARY
  5
19
100
AcDbDictionary
280
     0
281
     1
  3
ACAD_GROUP
350
1A
  3
ACAD_MLINESTYLE
350
1B
  3
ACAD_LAYOUT
350
1E
  3
ACAD_PLOTSETTINGS
350
22
  3
ACAD_PLOTSTYLENAME
350
1F
  3
ACAD_WIPEOUT_VARS
350
23
  0
DICTIONARY
  5
1A
102
{ACAD_REACTORS
330
19
102
}
100
AcDbDictionary
280
     0
281
     1
  0
DICTIONARY
  5
1B
102
{ACAD_REACTORS
330
19
102
}
100
AcDbDictionary
280
     0
281
     1
  3
Standard
350
1C
  0
MLINESTYLE
  5
1C
102
{ACAD_REACTORS
330
1B
102
}
100
AcDbMlineStyle
  2
Standard
 70
     0
  3

 62
     0
 51
90.0
 52
90.0
 71
     2
 49
0.5
 62
   256
  6
ByLayer
 49
-0.5
 62
   256
  6
ByLayer
  0
ACDBDICTIONARYWDFLT
  5
1F
102
{ACAD_REACTORS
330
19
102
}
100
AcDbDictionary
281
     1
  3
Normal
350
1D
100
AcDbDictionaryWithDefault
340
1D
  0
ACDBPLACEHOLDER
  5
1D
102
{ACAD_REACTORS
330
1F
102
}
  0
LAYOUT
  5
20
102
{ACAD_REACTORS
330
1E
102
}
100
AcDbPlotSettings
  1

  2

  4

  6

 40
0.0
 41
0.0
 42
0.0
 43
0.0
 44
0.0
 45
0.0
 46
0.0
 47
0.0
 48
0.0
 49
0.0
140
0.0
141
0.0
142
1.0
143
1.0
 70
  1024
 72
     0
 73
     0
 74
     0
  7

 75
     0
147
1.0
148
0.0
149
0.0
100
AcDbLayout
  1
Model
 70
     0
 71
     0
 10
0.0
 20
0.0
 11
0.0
 21
0.0
 12
0.0
 22
0.0
 32
0.0
 14
0.0
 24
0.0
 34
0.0
 15
0.0
 25
0.0
 35
0.0
146
0.0
 13
0.0
 23
0.0
 33
0.0
 16
0.0
 26
0.0
 36
0.0
 17
0.0
 27
0.0
 37
0.0
 76
     0
330
A
331
0
345
0
346
0
  0
LAYOUT
  5
21
102
{ACAD_REACTORS
330
1E
102
}
100
AcDbPlotSettings
  1

  2

  4

  6

 40
0.0
 41
0.0
 42
0.0
 43
0.0
 44
0.0
 45
0.0
 46
0.0
 47
0.0
 48
0.0
 49
0.0
140
0.0
141
0.0
142
1.0
143
1.0
 70
     0
 72
     0
 73
     0
 74
     0
  7

 75
     0
147
1.0
148
0.0
149
0.0
100
AcDbLayout
  1
Layout1
 70
     0
 71
     0
 10
0.0
 20
0.0
 11
0.0
 21
0.0
 12
0.0
 22
0.0
 32
0.0
 14
0.0
 24
0.0
 34
0.0
 15
0.0
 25
0.0
 35
0.0
146
0.0
 13
0.0
 23
0.0
 33
0.0
 16
0.0
 26
0.0
 36
0.0
 17
0.0
 27
0.0
 37
0.0
 76
     0
330
B
331
0
345
0
346
0
  0
DICTIONARY
  5
1E
102
{ACAD_REACTORS
330
19
102
}
100
AcDbDictionary
280
     0
281
     1
  3
Layout1
350
21
  3
Model
350
20
  0
DICTIONARY
  5
22
102
{ACAD_REACTORS
330
19
102
}
100
AcDbDictionary
280
     0
281
     1
  0
WIPEOUTVARIABLES
  5
23
100
AcDbWipeoutVariables
 70
     1
  0
ENDSEC
  0
EOF
